0
SECTION
  2
HEADER
  9
$ACADVER
  1
AC1027
  9
$ACADMAINTVER
 70
     8
  9
$DWGCODEPAGE
  3
ANSI_1252
  9
$REQUIREDVERSIONS
160
                 0
  9
$COMMENTS
  1
File was created by Cadenas
  9
$CUSTOMPROPERTYTAG
  1
NN
  9
$CUSTOMPROPERTY
  1
Type E-Xtra Pillow Block 2-Bolt Base Inch Bore
  9
$CUSTOMPROPERTYTAG
  1
NT
  9
$CUSTOMPROPERTY
  1
Type E Pillow Block Bearing -(2-Bolt Base)-Inch
  9
$CUSTOMPROPERTYTAG
  1
NB
  9
$CUSTOMPROPERTY
  1
023006
  9
$CUSTOMPROPERTYTAG
  1
NBSYN
  9
$CUSTOMPROPERTY
  1
$PN.
  9
$CUSTOMPROPERTYTAG
  1
LINA
  9
$CUSTOMPROPERTY
  1
023006
  9
$CUSTOMPROPERTYTAG
  1
SS
  9
$CUSTOMPROPERTY
  1
1-11/16
  9
$CUSTOMPROPERTYTAG
  1
PN
  9
$CUSTOMPROPERTY
  1
023006
  9
$CUSTOMPROPERTYTAG
  1
DESCRIPTION
  9
$CUSTOMPROPERTY
  1
P2B-E-111R
  9
$CUSTOMPROPERTYTAG
  1
A
  9
$CUSTOMPROPERTY
  1
3-3/8
  9
$CUSTOMPROPERTYTAG
  1
B
  9
$CUSTOMPROPERTY
  1
7-7/8
  9
$CUSTOMPROPERTYTAG
  1
C
  9
$CUSTOMPROPERTY
  1
2-3/8
  9
$CUSTOMPROPERTYTAG
  1
DMIN
  9
$CUSTOMPROPERTY
  1
6-1/8
  9
$CUSTOMPROPERTYTAG
  1
DMAX
  9
$CUSTOMPROPERTY
  1
6-3/8
  9
$CUSTOMPROPERTYTAG
  1
F
  9
$CUSTOMPROPERTY
  1
1/2
  9
$CUSTOMPROPERTYTAG
  1
G
  9
$CUSTOMPROPERTY
  1
3/4
  9
$CUSTOMPROPERTYTAG
  1
H
  9
$CUSTOMPROPERTY
  1
1-1/4
  9
$CUSTOMPROPERTYTAG
  1
J
  9
$CUSTOMPROPERTY
  1
4-1/4
  9
$CUSTOMPROPERTYTAG
  1
J1
  9
$CUSTOMPROPERTY
  1
4-15/32
  9
$CUSTOMPROPERTYTAG
  1
L
  9
$CUSTOMPROPERTY
  1
3-3/16
  9
$CUSTOMPROPERTYTAG
  1
M
  9
$CUSTOMPROPERTY
  1
2-1/8
  9
$CUSTOMPROPERTYTAG
  1
COMPANY
  9
$CUSTOMPROPERTY
  1
baldor
  9
$INSBASE
 10
0.0
 20
0.0
 30
0.0
  9
$EXTMIN
 10
1.000000000000000E+20
 20
1.000000000000000E+20
 30
1.000000000000000E+20
  9
$EXTMAX
 10
-1.000000000000000E+20
 20
-1.000000000000000E+20
 30
-1.000000000000000E+20
  9
$LIMMIN
 10
0.0
 20
0.0
  9
$LIMMAX
 10
12.0
 20
9.0
  9
$ORTHOMODE
 70
     0
  9
$REGENMODE
 70
     1
  9
$FILLMODE
 70
     1
  9
$QTEXTMODE
 70
     0
  9
$MIRRTEXT
 70
     1
  9
$LTSCALE
 40
1.0
  9
$ATTMODE
 70
     1
  9
$TEXTSIZE
 40
0.2
  9
$TRACEWID
 40
0.05
  9
$TEXTSTYLE
  7
Standard
  9
$CLAYER
  8
0
  9
$CELTYPE
  6
ByLayer
  9
$CECOLOR
 62
   256
  9
$CELTSCALE
 40
1.0
  9
$DISPSILH
 70
     0
  9
$DIMSCALE
 40
1.0
  9
$DIMASZ
 40
0.18
  9
$DIMEXO
 40
0.0625
  9
$DIMDLI
 40
0.38
  9
$DIMRND
 40
0.0
  9
$DIMDLE
 40
0.0
  9
$DIMEXE
 40
0.18
  9
$DIMTP
 40
0.0
  9
$DIMTM
 40
0.0
  9
$DIMTXT
 40
0.18
  9
$DIMCEN
 40
0.09
  9
$DIMTSZ
 40
0.0
  9
$DIMTOL
 70
     0
  9
$DIMLIM
 70
     0
  9
$DIMTIH
 70
     1
  9
$DIMTOH
 70
     1
  9
$DIMSE1
 70
     0
  9
$DIMSE2
 70
     0
  9
$DIMTAD
 70
     0
  9
$DIMZIN
 70
     0
  9
$DIMBLK
  1

  9
$DIMASO
 70
     1
  9
$DIMSHO
 70
     1
  9
$DIMPOST
  1

  9
$DIMAPOST
  1

  9
$DIMALT
 70
     0
  9
$DIMALTD
 70
     2
  9
$DIMALTF
 40
25.4
  9
$DIMLFAC
 40
1.0
  9
$DIMTOFL
 70
     0
  9
$DIMTVP
 40
0.0
  9
$DIMTIX
 70
     0
  9
$DIMSOXD
 70
     0
  9
$DIMSAH
 70
     0
  9
$DIMBLK1
  1

  9
$DIMBLK2
  1

  9
$DIMSTYLE
  2
Standard
  9
$DIMCLRD
 70
     0
  9
$DIMCLRE
 70
     0
  9
$DIMCLRT
 70
     0
  9
$DIMTFAC
 40
1.0
  9
$DIMGAP
 40
0.09
  9
$DIMJUST
 70
     0
  9
$DIMSD1
 70
     0
  9
$DIMSD2
 70
     0
  9
$DIMTOLJ
 70
     1
  9
$DIMTZIN
 70
     0
  9
$DIMALTZ
 70
     0
  9
$DIMALTTZ
 70
     0
  9
$DIMUPT
 70
     0
  9
$DIMDEC
 70
     4
  9
$DIMTDEC
 70
     4
  9
$DIMALTU
 70
     2
  9
$DIMALTTD
 70
     2
  9
$DIMTXSTY
  7
Standard
  9
$DIMAUNIT
 70
     0
  9
$DIMADEC
 70
     0
  9
$DIMALTRND
 40
0.0
  9
$DIMAZIN
 70
     0
  9
$DIMDSEP
 70
    46
  9
$DIMATFIT
 70
     3
  9
$DIMFRAC
 70
     0
  9
$DIMLDRBLK
  1

  9
$DIMLUNIT
 70
     2
  9
$DIMLWD
 70
    -2
  9
$DIMLWE
 70
    -2
  9
$DIMTMOVE
 70
     0
  9
$DIMFXL
 40
1.0
  9
$DIMFXLON
 70
     0
  9
$DIMJOGANG
 40
0.7853981633974483
  9
$DIMTFILL
 70
     0
  9
$DIMTFILLCLR
 70
     0
  9
$DIMARCSYM
 70
     0
  9
$DIMLTYPE
  6

  9
$DIMLTEX1
  6

  9
$DIMLTEX2
  6

  9
$DIMTXTDIRECTION
 70
     0
  9
$LUNITS
 70
     2
  9
$LUPREC
 70
     4
  9
$SKETCHINC
 40
0.1
  9
$FILLETRAD
 40
0.5
  9
$AUNITS
 70
     0
  9
$AUPREC
 70
     0
  9
$MENU
  1
.
  9
$ELEVATION
 40
0.0
  9
$PELEVATION
 40
0.0
  9
$THICKNESS
 40
0.0
  9
$LIMCHECK
 70
     0
  9
$CHAMFERA
 40
0.0
  9
$CHAMFERB
 40
0.0
  9
$CHAMFERC
 40
0.0
  9
$CHAMFERD
 40
0.0
  9
$SKPOLY
 70
     0
  9
$TDCREATE
 40
2458168.979435428
  9
$TDUCREATE
 40
2458168.937768762
  9
$TDUPDATE
 40
2458168.979435787
  9
$TDUUPDATE
 40
2458168.937769121
  9
$TDINDWG
 40
0.0000000116
  9
$TDUSRTIMER
 40
0.0000000116
  9
$USRTIMER
 70
     1
  9
$ANGBASE
 50
0.0
  9
$ANGDIR
 70
     0
  9
$PDMODE
 70
     0
  9
$PDSIZE
 40
0.0
  9
$PLINEWID
 40
0.0
  9
$SPLFRAME
 70
     0
  9
$SPLINETYPE
 70
     6
  9
$SPLINESEGS
 70
     8
  9
$HANDSEED
  5
1D2
  9
$SURFTAB1
 70
     6
  9
$SURFTAB2
 70
     6
  9
$SURFTYPE
 70
     6
  9
$SURFU
 70
     6
  9
$SURFV
 70
     6
  9
$UCSBASE
  2

  9
$UCSNAME
  2

  9
$UCSORG
 10
0.0
 20
0.0
 30
0.0
  9
$UCSXDIR
 10
1.0
 20
0.0
 30
0.0
  9
$UCSYDIR
 10
0.0
 20
1.0
 30
0.0
  9
$UCSORTHOREF
  2

  9
$UCSORTHOVIEW
 70
     0
  9
$UCSORGTOP
 10
0.0
 20
0.0
 30
0.0
  9
$UCSORGBOTTOM
 10
0.0
 20
0.0
 30
0.0
  9
$UCSORGLEFT
 10
0.0
 20
0.0
 30
0.0
  9
$UCSORGRIGHT
 10
0.0
 20
0.0
 30
0.0
  9
$UCSORGFRONT
 10
0.0
 20
0.0
 30
0.0
  9
$UCSORGBACK
 10
0.0
 20
0.0
 30
0.0
  9
$PUCSBASE
  2

  9
$PUCSNAME
  2

  9
$PUCSORG
 10
0.0
 20
0.0
 30
0.0
  9
$PUCSXDIR
 10
1.0
 20
0.0
 30
0.0
  9
$PUCSYDIR
 10
0.0
 20
1.0
 30
0.0
  9
$PUCSORTHOREF
  2

  9
$PUCSORTHOVIEW
 70
     0
  9
$PUCSORGTOP
 10
0.0
 20
0.0
 30
0.0
  9
$PUCSORGBOTTOM
 10
0.0
 20
0.0
 30
0.0
  9
$PUCSORGLEFT
 10
0.0
 20
0.0
 30
0.0
  9
$PUCSORGRIGHT
 10
0.0
 20
0.0
 30
0.0
  9
$PUCSORGFRONT
 10
0.0
 20
0.0
 30
0.0
  9
$PUCSORGBACK
 10
0.0
 20
0.0
 30
0.0
  9
$USERI1
 70
     0
  9
$USERI2
 70
     0
  9
$USERI3
 70
     0
  9
$USERI4
 70
     0
  9
$USERI5
 70
     0
  9
$USERR1
 40
0.0
  9
$USERR2
 40
0.0
  9
$USERR3
 40
0.0
  9
$USERR4
 40
0.0
  9
$USERR5
 40
0.0
  9
$WORLDVIEW
 70
     1
  9
$SHADEDGE
 70
     3
  9
$SHADEDIF
 70
    70
  9
$TILEMODE
 70
     1
  9
$MAXACTVP
 70
    64
  9
$PINSBASE
 10
0.0
 20
0.0
 30
0.0
  9
$PLIMCHECK
 70
     0
  9
$PEXTMIN
 10
1.000000000000000E+20
 20
1.000000000000000E+20
 30
1.000000000000000E+20
  9
$PEXTMAX
 10
-1.000000000000000E+20
 20
-1.000000000000000E+20
 30
-1.000000000000000E+20
  9
$PLIMMIN
 10
0.0
 20
0.0
  9
$PLIMMAX
 10
12.0
 20
9.0
  9
$UNITMODE
 70
     0
  9
$VISRETAIN
 70
     1
  9
$PLINEGEN
 70
     0
  9
$PSLTSCALE
 70
     1
  9
$TREEDEPTH
 70
  3020
  9
$CMLSTYLE
  2
Standard
  9
$CMLJUST
 70
     0
  9
$CMLSCALE
 40
1.0
  9
$PROXYGRAPHICS
 70
     1
  9
$MEASUREMENT
 70
     0
  9
$CELWEIGHT
370
    -1
  9
$ENDCAPS
280
     0
  9
$JOINSTYLE
280
     0
  9
$LWDISPLAY
290
     0
  9
$INSUNITS
 70
     1
  9
$HYPERLINKBASE
  1

  9
$STYLESHEET
  1

  9
$XEDIT
290
     1
  9
$CEPSNTYPE
380
     0
  9
$PSTYLEMODE
290
     1
  9
$FINGERPRINTGUID
  2
{47937F7C-7105-4846-AE6E-0C99832F41C0}
  9
$VERSIONGUID
  2
{FAEB1C32-E019-11D5-929B-00C0DF256EC4}
  9
$EXTNAMES
290
     1
  9
$PSVPSCALE
 40
0.0
  9
$OLESTARTUP
290
     0
  9
$SORTENTS
280
   127
  9
$INDEXCTL
280
     0
  9
$HIDETEXT
280
     1
  9
$XCLIPFRAME
280
     2
  9
$HALOGAP
280
     0
  9
$OBSCOLOR
 70
   257
  9
$OBSLTYPE
280
     0
  9
$INTERSECTIONDISPLAY
280
     0
  9
$INTERSECTIONCOLOR
 70
   257
  9
$DIMASSOC
280
     2
  9
$PROJECTNAME
  1

  9
$CAMERADISPLAY
290
     0
  9
$LENSLENGTH
 40
50.0
  9
$CAMERAHEIGHT
 40
0.0
  9
$STEPSPERSEC
 40
2.0
  9
$STEPSIZE
 40
6.0
  9
$3DDWFPREC
 40
2.0
  9
$PSOLWIDTH
 40
0.25
  9
$PSOLHEIGHT
 40
4.0
  9
$LOFTANG1
 40
1.570796326794897
  9
$LOFTANG2
 40
1.570796326794897
  9
$LOFTMAG1
 40
0.0
  9
$LOFTMAG2
 40
0.0
  9
$LOFTPARAM
 70
     7
  9
$LOFTNORMALS
280
     1
  9
$LATITUDE
 40
37.795
  9
$LONGITUDE
 40
-122.394
  9
$NORTHDIRECTION
 40
0.0
  9
$TIMEZONE
 70
 -8000
  9
$LIGHTGLYPHDISPLAY
280
     1
  9
$TILEMODELIGHTSYNCH
280
     1
  9
$CMATERIAL
347
44
  9
$SOLIDHIST
280
     0
  9
$SHOWHIST
280
     1
  9
$DWFFRAME
280
     2
  9
$DGNFRAME
280
     2
  9
$REALWORLDSCALE
290
     1
  9
$INTERFERECOLOR
 62
   256
  9
$CSHADOW
280
     0
  9
$SHADOWPLANELOCATION
 40
0.0
  0
ENDSEC
  0
SECTION
  2
CLASSES
  0
CLASS
  1
ACDBDICTIONARYWDFLT
  2
AcDbDictionaryWithDefault
  3
ObjectDBX Classes
 90
        0
 91
        4
280
     0
281
     0
  0
CLASS
  1
VISUALSTYLE
  2
AcDbVisualStyle
  3
ObjectDBX Classes
 90
     4095
 91
        4
280
     0
281
     0
  0
CLASS
  1
MATERIAL
  2
AcDbMaterial
  3
ObjectDBX Classes
 90
     1153
 91
        4
280
     0
281
     0
  0
CLASS
  1
SCALE
  2
AcDbScale
  3
ObjectDBX Classes
 90
     1153
 91
        4
280
     0
281
     0
  0
CLASS
  1
TABLESTYLE
  2
AcDbTableStyle
  3
ObjectDBX Classes
 90
     4095
 91
        4
280
     0
281
     0
  0
CLASS
  1
MLEADERSTYLE
  2
AcDbMLeaderStyle
  3
ACDB_MLEADERSTYLE_CLASS
 90
     4095
 91
        4
280
     0
281
     0
  0
CLASS
  1
SUN
  2
AcDbSun
  3
SCENEOE
 90
     1153
 91
        4
280
     0
281
     0
  0
CLASS
  1
DICTIONARYVAR
  2
AcDbDictionaryVar
  3
ObjectDBX Classes
 90
        0
 91
        4
280
     0
281
     0
  0
CLASS
  1
CELLSTYLEMAP
  2
AcDbCellStyleMap
  3
ObjectDBX Classes
 90
     1152
 91
        4
280
     0
281
     0
  0
ENDSEC
  0
SECTION
  2
TABLES
  0
TABLE
  2
VPORT
  5
8
330
0
100
AcDbSymbolTable
 70
     1
  0
VPORT
  5
29
330
8
100
AcDbSymbolTableRecord
100
AcDbViewportTableRecord
  2
*Active
 70
     0
 10
0.0
 20
0.0
 11
1.0
 21
1.0
 12
0.0
 22
0.0
 13
0.0
 23
0.0
 14
0.5
 24
0.5
 15
0.5
 25
0.5
 16
0.0
 26
0.0
 36
1.0
 17
0.0
 27
0.0
 37
0.0
 40
3.79236
 41
2.118074233458849
 42
50.0
 43
0.0
 44
0.0
 50
0.0
 51
0.0
 71
     0
 72
   100
 73
     1
 74
     3
 75
     0
 76
     0
 77
     0
 78
     0
281
     0
 65
     1
110
0.0
120
0.0
130
0.0
111
1.0
121
0.0
131
0.0
112
0.0
122
1.0
132
0.0
 79
     0
146
0.0
348
2F
 60
     3
 61
     5
292
     1
282
     1
141
0.0
142
0.0
 63
   250
361
6D
  0
ENDTAB
  0
TABLE
  2
LTYPE
  5
5
330
0
100
AcDbSymbolTable
 70
     3
  0
LTYPE
  5
14
330
5
100
AcDbSymbolTableRecord
100
AcDbLinetypeTableRecord
  2
ByBlock
 70
     0
  3

 72
    65
 73
     0
 40
0.0
  0
LTYPE
  5
15
330
5
100
AcDbSymbolTableRecord
100
AcDbLinetypeTableRecord
  2
ByLayer
 70
     0
  3

 72
    65
 73
     0
 40
0.0
  0
LTYPE
  5
16
330
5
100
AcDbSymbolTableRecord
100
AcDbLinetypeTableRecord
  2
Continuous
 70
     0
  3
Solid line
 72
    65
 73
     0
 40
0.0
  0
LTYPE
  5
9D
330
5
100
AcDbSymbolTableRecord
100
AcDbLinetypeTableRecord
  2
Dashed
 70
     0
  3

 72
    65
 73
     2
 40
2.0
 49
1.0
 74
     0
 49
-1.0
 74
     0
  0
LTYPE
  5
B2
330
5
100
AcDbSymbolTableRecord
100
AcDbLinetypeTableRecord
  2
Center
 70
     0
  3

 72
    65
 73
     4
 40
1.5
 49
0.45
 74
     0
 49
-0.5
 74
     0
 49
0.05
 74
     0
 49
-0.5
 74
     0
  0
ENDTAB
  0
TABLE
  2
LAYER
  5
2
330
0
100
AcDbSymbolTable
 70
     7
  0
LAYER
  5
10
330
2
100
AcDbSymbolTableRecord
100
AcDbLayerTableRecord
  2
0
 70
     0
 62
     7
  6
Continuous
370
    -3
390
F
347
46
348
0
  0
LAYER
  5
72
330
2
100
AcDbSymbolTableRecord
100
AcDbLayerTableRecord
  2
AM_6
 70
     0
 62
    -2
  6
Continuous
370
    35
390
F
347
46
348
0
  0
LAYER
  5
9E
330
2
100
AcDbSymbolTableRecord
100
AcDbLayerTableRecord
  2
AM_9
 70
     0
 62
     6
  6
Dashed
370
    25
390
F
347
46
348
0
  0
LAYER
  5
B3
330
2
100
AcDbSymbolTableRecord
100
AcDbLayerTableRecord
  2
AM_7
 70
     0
 62
     7
  6
Center
370
    25
390
F
347
46
348
0
  0
LAYER
  5
B5
330
2
100
AcDbSymbolTableRecord
100
AcDbLayerTableRecord
  2
AM_4
 70
     0
 62
     7
  6
Continuous
370
    50
390
F
347
46
348
0
  0
LAYER
  5
C2
330
2
100
AcDbSymbolTableRecord
100
AcDbLayerTableRecord
  2
AM_5
 70
     0
 62
     3
  6
Continuous
370
    25
390
F
347
46
348
0
  0
LAYER
  5
1C1
330
2
100
AcDbSymbolTableRecord
100
AcDbLayerTableRecord
  2
ConnectionPoints
 70
     0
 62
     7
  6
Continuous
370
    50
390
F
347
46
348
0
  0
ENDTAB
  0
TABLE
  2
STYLE
  5
3
330
0
100
AcDbSymbolTable
 70
     1
  0
STYLE
  5
11
330
3
100
AcDbSymbolTableRecord
100
AcDbTextStyleTableRecord
  2
Standard
 70
     0
 40
0.0
 41
1.0
 50
0.0
 71
     0
 42
0.2
  3
txt
  4

  0
ENDTAB
  0
TABLE
  2
VIEW
  5
6
330
0
100
AcDbSymbolTable
 70
     0
  0
ENDTAB
  0
TABLE
  2
UCS
  5
7
330
0
100
AcDbSymbolTable
 70
     0
  0
ENDTAB
  0
TABLE
  2
APPID
  5
9
330
0
100
AcDbSymbolTable
 70
     1
  0
APPID
  5
12
330
9
100
AcDbSymbolTableRecord
100
AcDbRegAppTableRecord
  2
ACAD
 70
     0
  0
ENDTAB
  0
TABLE
  2
DIMSTYLE
  5
A
330
0
100
AcDbSymbolTable
 70
     1
100
AcDbDimStyleTable
  0
DIMSTYLE
105
27
330
A
100
AcDbSymbolTableRecord
100
AcDbDimStyleTableRecord
  2
Standard
 70
     0
178
     0
340
11
  0
ENDTAB
  0
TABLE
  2
BLOCK_RECORD
  5
1
330
0
100
AcDbSymbolTable
 70
     7
  0
BLOCK_RECORD
  5
1F
330
1
100
AcDbSymbolTableRecord
100
AcDbBlockTableRecord
  2
*Model_Space
340
22
 70
     0
280
     1
281
     0
  0
BLOCK_RECORD
  5
1B
330
1
100
AcDbSymbolTableRecord
100
AcDbBlockTableRecord
  2
*Paper_Space
340
1E
 70
     0
280
     1
281
     0
  0
BLOCK_RECORD
  5
23
330
1
100
AcDbSymbolTableRecord
100
AcDbBlockTableRecord
  2
*Paper_Space0
340
26
 70
     0
280
     1
281
     0
  0
BLOCK_RECORD
  5
6E
330
1
100
AcDbSymbolTableRecord
100
AcDbBlockTableRecord
  2
1_023006_4
340
0
102
{BLKREFS
331
6F
102
}
 70
     0
280
     1
281
     0
  0
BLOCK_RECORD
  5
88
330
1
100
AcDbSymbolTableRecord
100
AcDbBlockTableRecord
  2
2_1_11_16C_1_0_in_023006_4
340
0
102
{BLKREFS
331
89
102
}
 70
     0
280
     1
281
     0
  0
BLOCK_RECORD
  5
C5
330
1
100
AcDbSymbolTableRecord
100
AcDbBlockTableRecord
  2
3_1_11_16C_2_0_in_023006_4
340
0
102
{BLKREFS
331
C6
102
}
 70
     0
280
     1
281
     0
  0
BLOCK_RECORD
  5
FD
330
1
100
AcDbSymbolTableRecord
100
AcDbBlockTableRecord
  2
4_1_11_16I_0_in_023006_4
340
0
102
{BLKREFS
331
FE
102
}
 70
     0
280
     1
281
     0
  0
BLOCK_RECORD
  5
12D
330
1
100
AcDbSymbolTableRecord
100
AcDbBlockTableRecord
  2
5_405015E_Inch_0_in_023006_4
340
0
102
{BLKREFS
331
12E
102
}
 70
     0
280
     1
281
     0
  0
BLOCK_RECORD
  5
16C
330
1
100
AcDbSymbolTableRecord
100
AcDbBlockTableRecord
  2
6_023006H_0_in_023006_4
340
0
102
{BLKREFS
331
16D
102
}
 70
     0
280
     1
281
     0
  0
ENDTAB
  0
ENDSEC
  0
SECTION
  2
BLOCKS
  0
BLOCK
  5
20
330
1F
100
AcDbEntity
  8
0
100
AcDbBlockBegin
  2
*Model_Space
 70
     0
 10
0.0
 20
0.0
 30
0.0
  3
*Model_Space
  1

  0
ENDBLK
  5
21
330
1F
100
AcDbEntity
  8
0
100
AcDbBlockEnd
  0
BLOCK
  5
1C
330
1B
100
AcDbEntity
 67
     1
  8
0
100
AcDbBlockBegin
  2
*Paper_Space
 70
     0
 10
0.0
 20
0.0
 30
0.0
  3
*Paper_Space
  1

  0
ENDBLK
  5
1D
330
1B
100
AcDbEntity
 67
     1
  8
0
100
AcDbBlockEnd
  0
BLOCK
  5
24
330
23
100
AcDbEntity
  8
0
100
AcDbBlockBegin
  2
*Paper_Space0
 70
     0
 10
0.0
 20
0.0
 30
0.0
  3
*Paper_Space0
  1

  0
ENDBLK
  5
25
330
23
100
AcDbEntity
  8
0
100
AcDbBlockEnd
  0
BLOCK
  5
70
330
6E
100
AcDbEntity
  8
0
100
AcDbBlockBegin
  2
1_023006_4
 70
     2
 10
0.0
 20
0.0
 30
0.0
  3
1_023006_4
  1

  0
ATTDEF
  5
73
330
6E
100
AcDbEntity
  8
AM_6
100
AcDbText
 10
8.9375
 20
1.859
 30
0.0
 40
0.5
  1
Type E-Xtra Pillow Block 2-Bolt Base Inch Bore
100
AcDbAttributeDefinition
  3

  2
NN
 70
     8
280
     0
  0
ATTDEF
  5
74
330
6E
100
AcDbEntity
  8
AM_6
100
AcDbText
 10
8.9375
 20
1.359
 30
0.0
 40
0.5
  1
Type E Pillow Block Bearing -(2-Bolt Base)-Inch
100
AcDbAttributeDefinition
  3

  2
NT
 70
     8
280
     0
  0
ATTDEF
  5
75
330
6E
100
AcDbEntity
  8
AM_6
100
AcDbText
 10
8.9375
 20
0.859
 30
0.0
 40
0.5
  1
023006
100
AcDbAttributeDefinition
  3

  2
NB
 70
     8
280
     0
  0
ATTDEF
  5
76
330
6E
100
AcDbEntity
  8
AM_6
100
AcDbText
 10
8.9375
 20
0.359
 30
0.0
 40
0.5
  1
$PN.
100
AcDbAttributeDefinition
  3

  2
NBSYN
 70
     8
280
     0
  0
ATTDEF
  5
77
330
6E
100
AcDbEntity
  8
AM_6
100
AcDbText
 10
8.9375
 20
-0.141
 30
0.0
 40
0.5
  1
023006
100
AcDbAttributeDefinition
  3

  2
LINA
 70
     8
280
     0
  0
ATTDEF
  5
78
330
6E
100
AcDbEntity
  8
AM_6
100
AcDbText
 10
8.9375
 20
-0.641
 30
0.0
 40
0.5
  1
1-11/16
100
AcDbAttributeDefinition
  3

  2
SS
 70
     8
280
     0
  0
ATTDEF
  5
79
330
6E
100
AcDbEntity
  8
AM_6
100
AcDbText
 10
8.9375
 20
-1.141
 30
0.0
 40
0.5
  1
023006
100
AcDbAttributeDefinition
  3

  2
PN
 70
     8
280
     0
  0
ATTDEF
  5
7A
330
6E
100
AcDbEntity
  8
AM_6
100
AcDbText
 10
8.9375
 20
-1.641
 30
0.0
 40
0.5
  1
P2B-E-111R
100
AcDbAttributeDefinition
  3

  2
DESCRIPTION
 70
     8
280
     0
  0
ATTDEF
  5
7B
330
6E
100
AcDbEntity
  8
AM_6
100
AcDbText
 10
8.9375
 20
-2.141
 30
0.0
 40
0.5
  1
3-3/8
100
AcDbAttributeDefinition
  3

  2
A
 70
     8
280
     0
  0
ATTDEF
  5
7C
330
6E
100
AcDbEntity
  8
AM_6
100
AcDbText
 10
8.9375
 20
-2.641
 30
0.0
 40
0.5
  1
7-7/8
100
AcDbAttributeDefinition
  3

  2
B
 70
     8
280
     0
  0
ATTDEF
  5
7D
330
6E
100
AcDbEntity
  8
AM_6
100
AcDbText
 10
8.9375
 20
-3.141
 30
0.0
 40
0.5
  1
2-3/8
100
AcDbAttributeDefinition
  3

  2
C
 70
     8
280
     0
  0
ATTDEF
  5
7E
330
6E
100
AcDbEntity
  8
AM_6
100
AcDbText
 10
8.9375
 20
-3.641
 30
0.0
 40
0.5
  1
6-1/8
100
AcDbAttributeDefinition
  3

  2
DMIN
 70
     8
280
     0
  0
ATTDEF
  5
7F
330
6E
100
AcDbEntity
  8
AM_6
100
AcDbText
 10
8.9375
 20
-4.141
 30
0.0
 40
0.5
  1
6-3/8
100
AcDbAttributeDefinition
  3

  2
DMAX
 70
     8
280
     0
  0
ATTDEF
  5
80
330
6E
100
AcDbEntity
  8
AM_6
100
AcDbText
 10
8.9375
 20
-4.641
 30
0.0
 40
0.5
  1
1/2
100
AcDbAttributeDefinition
  3

  2
F
 70
     8
280
     0
  0
ATTDEF
  5
81
330
6E
100
AcDbEntity
  8
AM_6
100
AcDbText
 10
8.9375
 20
-5.141
 30
0.0
 40
0.5
  1
3/4
100
AcDbAttributeDefinition
  3

  2
G
 70
     8
280
     0
  0
ATTDEF
  5
82
330
6E
100
AcDbEntity
  8
AM_6
100
AcDbText
 10
8.9375
 20
-5.641
 30
0.0
 40
0.5
  1
1-1/4
100
AcDbAttributeDefinition
  3

  2
H
 70
     8
280
     0
  0
ATTDEF
  5
83
330
6E
100
AcDbEntity
  8
AM_6
100
AcDbText
 10
8.9375
 20
-6.141
 30
0.0
 40
0.5
  1
4-1/4
100
AcDbAttributeDefinition
  3

  2
J
 70
     8
280
     0
  0
ATTDEF
  5
84
330
6E
100
AcDbEntity
  8
AM_6
100
AcDbText
 10
8.9375
 20
-6.641
 30
0.0
 40
0.5
  1
4-15/32
100
AcDbAttributeDefinition
  3

  2
J1
 70
     8
280
     0
  0
ATTDEF
  5
85
330
6E
100
AcDbEntity
  8
AM_6
100
AcDbText
 10
8.9375
 20
-7.141
 30
0.0
 40
0.5
  1
3-3/16
100
AcDbAttributeDefinition
  3

  2
L
 70
     8
280
     0
  0
ATTDEF
  5
86
330
6E
100
AcDbEntity
  8
AM_6
100
AcDbText
 10
8.9375
 20
-7.641
 30
0.0
 40
0.5
  1
2-1/8
100
AcDbAttributeDefinition
  3

  2
M
 70
     8
280
     0
  0
ATTDEF
  5
87
330
6E
100
AcDbEntity
  8
AM_6
100
AcDbText
 10
8.9375
 20
-8.141
 30
0.0
 40
0.5
  1
baldor
100
AcDbAttributeDefinition
  3

  2
COMPANY
 70
     8
280
     0
  0
INSERT
  5
89
330
6E
100
AcDbEntity
  8
0
100
AcDbBlockReference
  2
2_1_11_16C_1_0_in_023006_4
 10
0.0
 20
0.0
 30
0.0
  0
INSERT
  5
C6
330
6E
100
AcDbEntity
  8
0
100
AcDbBlockReference
  2
3_1_11_16C_2_0_in_023006_4
 10
0.0
 20
0.0
 30
0.0
  0
INSERT
  5
FE
330
6E
100
AcDbEntity
  8
0
100
AcDbBlockReference
  2
4_1_11_16I_0_in_023006_4
 10
0.0
 20
0.0
 30
0.0
  0
INSERT
  5
12E
330
6E
100
AcDbEntity
  8
0
100
AcDbBlockReference
  2
5_405015E_Inch_0_in_023006_4
 10
0.0
 20
0.0
 30
0.0
  0
INSERT
  5
16D
330
6E
100
AcDbEntity
  8
0
100
AcDbBlockReference
  2
6_023006H_0_in_023006_4
 10
0.0
 20
0.0
 30
0.0
  0
ENDBLK
  5
71
330
6E
100
AcDbEntity
  8
0
100
AcDbBlockEnd
  0
BLOCK
  5
8A
330
88
100
AcDbEntity
  8
0
100
AcDbBlockBegin
  2
2_1_11_16C_1_0_in_023006_4
 70
     2
 10
0.0
 20
0.0
 30
0.0
  3
2_1_11_16C_1_0_in_023006_4
  1

  0
ATTDEF
  5
8C
330
88
100
AcDbEntity
  8
AM_6
100
AcDbText
 10
6.59375
 20
1.69
 30
0.0
 40
0.5
  1
E-Type Collar -Inch
100
AcDbAttributeDefinition
  3

  2
NN
 70
     8
280
     0
  0
ATTDEF
  5
8D
330
88
100
AcDbEntity
  8
AM_6
100
AcDbText
 10
6.59375
 20
1.19
 30
0.0
 40
0.5
  1
E-Type Bearings
100
AcDbAttributeDefinition
  3

  2
NT
 70
     8
280
     0
  0
ATTDEF
  5
8E
330
88
100
AcDbEntity
  8
AM_6
100
AcDbText
 10
6.59375
 20
0.69
 30
0.0
 40
0.5
  1
1-11/16C
100
AcDbAttributeDefinition
  3

  2
NB
 70
     8
280
     0
  0
ATTDEF
  5
8F
330
88
100
AcDbEntity
  8
AM_6
100
AcDbText
 10
6.59375
 20
0.1899999999999999
 30
0.0
 40
0.5
  1
$BORE.C
100
AcDbAttributeDefinition
  3

  2
NBSYN
 70
     8
280
     0
  0
ATTDEF
  5
90
330
88
100
AcDbEntity
  8
AM_6
100
AcDbText
 10
6.59375
 20
-0.3100000000000001
 30
0.0
 40
0.5
  1
1-11/16C
100
AcDbAttributeDefinition
  3

  2
LINA
 70
     8
280
     0
  0
ATTDEF
  5
91
330
88
100
AcDbEntity
  8
AM_6
100
AcDbText
 10
6.59375
 20
-0.81
 30
0.0
 40
0.5
  1
1-11/16
100
AcDbAttributeDefinition
  3

  2
BORE
 70
     8
280
     0
  0
ATTDEF
  5
92
330
88
100
AcDbEntity
  8
AM_6
100
AcDbText
 10
6.59375
 20
-1.31
 30
0.0
 40
0.5
  1
3.18750
100
AcDbAttributeDefinition
  3

  2
L
 70
     8
280
     0
  0
ATTDEF
  5
93
330
88
100
AcDbEntity
  8
AM_6
100
AcDbText
 10
6.59375
 20
-1.81
 30
0.0
 40
0.5
  1
3.38
100
AcDbAttributeDefinition
  3

  2
A
 70
     8
280
     0
  0
ATTDEF
  5
94
330
88
100
AcDbEntity
  8
AM_6
100
AcDbText
 10
6.59375
 20
-2.31
 30
0.0
 40
0.5
  1
1.50
100
AcDbAttributeDefinition
  3

  2
B
 70
     8
280
     0
  0
ATTDEF
  5
95
330
88
100
AcDbEntity
  8
AM_6
100
AcDbText
 10
6.59375
 20
-2.81
 30
0.0
 40
0.5
  1
2.06
100
AcDbAttributeDefinition
  3

  2
C
 70
     8
280
     0
  0
ATTDEF
  5
96
330
88
100
AcDbEntity
  8
AM_6
100
AcDbText
 10
6.59375
 20
-3.31
 30
0.0
 40
0.5
  1
3.25
100
AcDbAttributeDefinition
  3

  2
D
 70
     8
280
     0
  0
ATTDEF
  5
97
330
88
100
AcDbEntity
  8
AM_6
100
AcDbText
 10
6.59375
 20
-3.81
 30
0.0
 40
0.5
  1
0.35
100
AcDbAttributeDefinition
  3

  2
E
 70
     8
280
     0
  0
ATTDEF
  5
98
330
88
100
AcDbEntity
  8
AM_6
100
AcDbText
 10
6.59375
 20
-4.31
 30
0.0
 40
0.5
  1
0.28
100
AcDbAttributeDefinition
  3

  2
F
 70
     8
280
     0
  0
ATTDEF
  5
99
330
88
100
AcDbEntity
  8
AM_6
100
AcDbText
 10
6.59375
 20
-4.81
 30
0.0
 40
0.5
  1
5/16-18
100
AcDbAttributeDefinition
  3

  2
CS
 70
     8
280
     0
  0
ATTDEF
  5
9A
330
88
100
AcDbEntity
  8
AM_6
100
AcDbText
 10
6.59375
 20
-5.31
 30
0.0
 40
0.5
  1
0.3125
100
AcDbAttributeDefinition
  3

  2
NDM
 70
     8
280
     0
  0
ATTDEF
  5
9B
330
88
100
AcDbEntity
  8
AM_6
100
AcDbText
 10
6.59375
 20
-5.81
 30
0.0
 40
0.5
  1
0.2520
100
AcDbAttributeDefinition
  3

  2
KDM
 70
     8
280
     0
  0
ATTDEF
  5
9C
330
88
100
AcDbEntity
  8
AM_6
100
AcDbText
 10
6.59375
 20
-6.31
 30
0.0
 40
0.5
  1
baldor
100
AcDbAttributeDefinition
  3

  2
COMPANY
 70
     8
280
     0
  0
LINE
  5
9F
330
88
100
AcDbEntity
  8
AM_9
100
AcDbLine
 10
0.9667204080673119
 20
1.521639373797339
 30
0.0
 11
0.9588245816941877
 21
1.531487732115532
 31
0.0
  0
LINE
  5
A0
330
88
100
AcDbEntity
  8
AM_9
100
AcDbLine
 10
0.9587910524499942
 20
1.288470447307957
 30
0.0
 11
0.9667204080673119
 21
1.298360626202661
 31
0.0
  0
LWPOLYLINE
  5
A1
330
88
100
AcDbEntity
  8
AM_9
100
AcDbPolyline
 90
       25
 70
     0
 43
0.0
 10
0.9587679794893136
 20
1.53155833126918
 10
0.9510655309076276
 20
1.539196442012869
 10
0.9413932364365533
 20
1.544246449480167
 10
0.9308418471890717
 20
1.545291658032939
 10
0.9194848227458929
 20
1.542075427349383
 10
0.9081847212094737
 20
1.534747146372806
 10
0.8968193741520503
 20
1.523033245786089
 10
0.8866885349176952
 20
1.508147654098444
 10
0.8774732371763143
 20
1.489328395851474
 10
0.870593198466014
 20
1.469403331636061
 10
0.8655035928933515
 20
1.446688340667502
 10
0.8630035182561093
 20
1.425267540522129
 10
0.8626064319130807
 20
1.402656395295419
 10
0.8642121520897913
 20
1.382171739643921
 10
0.8677277332777317
 20
1.361898058575516
 10
0.8728225013389842
 20
1.343302805808238
 10
0.8794753698877835
 20
1.326005404729403
 10
0.8875740211006018
 20
1.31034745347145
 10
0.8967931362996574
 20
1.296999373010244
 10
0.9070729448273568
 20
1.286198321888069
 10
0.917891436375343
 20
1.278710214943634
 10
0.9288787874364755
 20
1.274958311504049
 10
0.9397288270277425
 20
1.275304761947525
 10
0.9497465444100318
 20
1.279846552164755
 10
0.9587686382731576
 20
1.288442490405857
  0
LWPOLYLINE
  5
A2
330
88
100
AcDbEntity
  8
AM_9
100
AcDbPolyline
 90
        3
 70
     0
 43
0.0
 10
0.9623004179770875
 20
1.293336317517563
 10
0.9657844097838679
 20
1.299250141863335
 10
0.9717438702273611
 20
1.312667359787584
  0
LWPOLYLINE
  5
A3
330
88
100
AcDbEntity
  8
AM_9
100
AcDbPolyline
 90
        3
 70
     0
 43
0.0
 10
0.9587686382731576
 20
1.288442490405857
 10
0.9590479468264476
 20
1.288793764097206
 10
0.9623004179770875
 20
1.293336317517563
  0
LINE
  5
A4
330
88
100
AcDbEntity
  8
AM_9
100
AcDbLine
 10
0.9418501574182706
 20
1.2838
 30
0.0
 11
1.41719348658921
 21
1.2838
 31
0.0
  0
LINE
  5
A5
330
88
100
AcDbEntity
  8
AM_9
100
AcDbLine
 10
1.41719348658921
 20
1.5362
 30
0.0
 11
0.9418501574182706
 21
1.5362
 31
0.0
  0
LINE
  5
A6
330
88
100
AcDbEntity
  8
AM_9
100
AcDbLine
 10
1.392323235940168
 20
1.298360626202661
 30
0.0
 11
1.41237470218813
 21
1.273350701328017
 31
0.0
  0
LINE
  5
A7
330
88
100
AcDbEntity
  8
AM_9
100
AcDbLine
 10
1.412306858099848
 20
1.54656467765075
 30
0.0
 11
1.392323235940168
 21
1.521639373797338
 31
0.0
  0
ELLIPSE
  5
A8
330
88
100
AcDbEntity
  8
AM_9
100
AcDbEllipse
 10
1.417193486589224
 20
1.409999999999998
 30
0.0
 11
-2.318256390785900E-17
 21
-0.1261999999999979
 31
0.0
210
0.0
220
0.0
230
1.0
 40
0.4226182617407487
 41
3.42304533494381
 42
5.979590701741799
  0
LWPOLYLINE
  5
A9
330
88
100
AcDbEntity
  8
AM_9
100
AcDbPolyline
 90
        3
 70
     0
 43
0.0
 10
0.9624801175387153
 20
1.526386853247065
 10
0.9595721478697872
 20
1.530531134445214
 10
0.9587679794893136
 20
1.53155833126918
  0
LWPOLYLINE
  5
AA
330
88
100
AcDbEntity
  8
AM_9
100
AcDbPolyline
 90
       13
 70
     0
 43
0.0
 10
0.9717438702273611
 20
1.312667359787584
 10
0.9764041690326177
 20
1.327477477419787
 10
0.9802289229709282
 20
1.344654393636444
 10
0.9832735232795118
 20
1.365322012062167
 10
0.9851491517460844
 20
1.388214106283163
 10
0.9857106606760219
 20
1.409487530474031
 10
0.9851670937811039
 20
1.431438395267772
 10
0.9836335210814259
 20
1.451369843428373
 10
0.9810428477835368
 20
1.470703936932307
 10
0.9774348959803723
 20
1.488475561672248
 10
0.9727220662516906
 20
1.504611883531862
 10
0.9667454101022331
 20
1.518897243092783
 10
0.9624801175387153
 20
1.526386853247065
  0
LWPOLYLINE
  5
AB
330
88
100
AcDbEntity
  8
AM_9
100
AcDbPolyline
 90
       38
 70
     0
 43
0.0
 10
-0.1005665254018351
 20
1.312116833062568
 10
-0.084078186994805
 20
1.299502989187923
 10
-0.0659694526793192
 20
1.289323037174168
 10
-0.0428191912479211
 20
1.280605260310257
 10
-0.0185524795690411
 20
1.275691538561014
 10
0.0071203958177589
 20
1.274759337983454
 10
0.0325960033688433
 20
1.278033471004588
 10
0.0573996321957055
 20
1.285600752480754
 10
0.0805419140967045
 20
1.297240121137571
 10
0.1009460764581396
 20
1.31247660116828
 10
0.1183260913052832
 20
1.331069779287331
 10
0.1313253864009437
 20
1.351401886865825
 10
0.1404348769214452
 20
1.3737605724102
 10
0.1449284950377283
 20
1.395539899785714
 10
0.1455440181786176
 20
1.41777526370562
 10
0.142478790061096
 20
1.438528298899274
 10
0.1360603249944997
 20
1.458490383472098
 10
0.1264001563020502
 20
1.477283698131492
 10
0.113921672099591
 20
1.494326636269272
 10
0.0979695810295429
 20
1.510118201389453
 10
0.0797491640515969
 20
1.523246269160134
 10
0.0581650024440898
 20
1.534094504743316
 10
0.035115453006145
 20
1.54140434658858
 10
0.0099438318529136
 20
1.545086372368504
 10
-0.01549816068208
 20
1.5446442526852
 10
-0.0409915787772803
 20
1.539904798856063
 10
-0.0653143833122697
 20
1.53098522440442
 10
-0.0875690272892905
 20
1.518116433877429
 10
-0.1072252535345293
 20
1.501582906120251
 10
-0.1229487261698202
 20
1.48256210281257
 10
-0.1349825250177814
 20
1.461011188780094
 10
-0.1422807540910798
 20
1.43933959565837
 10
-0.1456061530746962
 20
1.416704484274784
 10
-0.1449220803926889
 20
1.395458653744419
 10
-0.1406937144262211
 20
1.374632304702638
 10
-0.1331838768528588
 20
1.355104663110747
 10
-0.1226840930862125
 20
1.337020782964523
 10
-0.1005665254018351
 20
1.312116833062568
  0
LINE
  5
AC
330
88
100
AcDbEntity
  8
AM_9
100
AcDbLine
 10
-1.03
 20
1.69
 30
0.0
 11
-1.03
 21
1.13
 31
0.0
  0
LINE
  5
AD
330
88
100
AcDbEntity
  8
AM_9
100
AcDbLine
 10
1.03
 20
1.13
 30
0.0
 11
1.03
 21
1.69
 31
0.0
  0
LINE
  5
AE
330
88
100
AcDbEntity
  8
AM_9
100
AcDbLine
 10
-1.59375
 20
1.1875
 30
0.0
 11
-1.59375
 21
1.13
 31
0.0
  0
LINE
  5
AF
330
88
100
AcDbEntity
  8
AM_9
100
AcDbLine
 10
1.59375
 20
1.13
 30
0.0
 11
1.59375
 21
1.1875
 31
0.0
  0
LINE
  5
B0
330
88
100
AcDbEntity
  8
AM_9
100
AcDbLine
 10
1.59375
 20
1.13
 30
0.0
 11
-1.59375
 21
1.13
 31
0.0
  0
ELLIPSE
  5
B1
330
88
100
AcDbEntity
  8
AM_9
100
AcDbEllipse
 10
0.9418501574182707
 20
1.41
 30
0.0
 11
-2.318256390785941E-17
 21
-0.1262000000000001
 31
0.0
210
0.0
220
0.0
230
1.0
 40
0.4226182617406999
 41
0.0
 42
6.283185307179586
  0
LINE
  5
B4
330
88
100
AcDbEntity
  8
AM_7
100
AcDbLine
 10
-0.13251
 20
1.41
 30
0.0
 11
0.13251
 21
1.41
 31
0.0
  0
ELLIPSE
  5
B6
330
88
100
AcDbEntity
  8
AM_4
100
AcDbEllipse
 10
1.417193486589209
 20
1.41
 30
0.0
 11
-2.318256390785941E-17
 21
-0.1262000000000001
 31
0.0
210
0.0
220
0.0
230
1.0
 40
0.4226182617406991
 41
5.979590701742038
 42
9.706230642123161
  0
LWPOLYLINE
  5
B7
330
88
100
AcDbEntity
  8
AM_4
100
AcDbPolyline
 90
       14
 70
     0
 43
0.0
 10
1.412476675118783
 20
1.273223511940657
 10
1.404794798259134
 20
1.284229446524596
 10
1.396101977693651
 20
1.300782669028555
 10
1.388543717920262
 20
1.320314577097021
 10
1.382355436562904
 20
1.342667852795879
 10
1.377908735999207
 20
1.36714403571168
 10
1.37543367306172
 20
1.393444257258941
 10
1.375168948551684
 20
1.42021832858838
 10
1.37721552498281
 20
1.447461597008439
 10
1.381422384651358
 20
1.473084275756936
 10
1.387870101753345
 20
1.497609886466756
 10
1.395806592424484
 20
1.518559562986879
 10
1.405496311353163
 20
1.536901400593611
 10
1.412473886426267
 20
1.546773009345225
  0
LWPOLYLINE
  5
B8
330
88
100
AcDbEntity
  8
AM_4
100
AcDbPolyline
 90
       19
 70
     0
 43
0.0
 10
1.412473886426267
 20
1.546773009345225
 10
1.415580120068481
 20
1.550433912963624
 10
1.426651634957507
 20
1.560247651097061
 10
1.437119704487881
 20
1.565219618922951
 10
1.447789844423847
 20
1.566025087232003
 10
1.457417597671735
 20
1.56274676590925
 10
1.466643708286826
 20
1.555412890510342
 10
1.474795936901688
 20
1.544618204764219
 10
1.482136041851303
 20
1.530163171163254
 10
1.488379146200941
 20
1.512589660610772
 10
1.493521490693757
 20
1.491949076791517
 10
1.497409490529425
 20
1.468825438722636
 10
1.499977412644613
 20
1.443516886619148
 10
1.501102494286342
 20
1.417129486913697
 10
1.500731480738563
 20
1.389804746460742
 10
1.498848059071854
 20
1.363416711546491
 10
1.495334029965689
 20
1.337614756628621
 10
1.491532934021673
 20
1.319149312092224
 10
1.486693082419853
 20
1.302035741290261
  0
CIRCLE
  5
B9
330
88
100
AcDbEntity
  8
AM_4
100
AcDbCircle
 10
0.0
 20
1.41
 30
0.0
 40
0.1262
  0
LWPOLYLINE
  5
BA
330
88
100
AcDbEntity
  8
AM_4
100
AcDbPolyline
 90
       10
 70
     0
 43
0.0
 10
1.486693082419853
 20
1.302035741290261
 10
1.480742039187235
 20
1.286660374216307
 10
1.473671921307599
 20
1.273605643806728
 10
1.464907623586901
 20
1.262850842838766
 10
1.454914443947591
 20
1.256004892053767
 10
1.444979510905796
 20
1.253755993704051
 10
1.434388715647599
 20
1.255683727619192
 10
1.424277573039832
 20
1.261451722489891
 10
1.414174581428974
 20
1.271170150415564
 10
1.412476675118783
 20
1.273223511940657
  0
LWPOLYLINE
  5
BB
330
88
100
AcDbEntity
  8
AM_4
100
AcDbPolyline
 90
       38
 70
     0
 43
0.0
 10
-0.0964986771101055
 20
1.29084951027333
 10
-0.1123223843186948
 20
1.307178609735321
 10
-0.1255957553610621
 20
1.325647004987602
 10
-0.1373242201343504
 20
1.348887287332711
 10
-0.1451613521084078
 20
1.37372381104208
 10
-0.1489491489177956
 20
1.400387277666545
 10
-0.1483257617244295
 20
1.427313924642639
 10
-0.143132138524081
 20
1.454171625897947
 10
-0.1335172143723115
 20
1.47976960305444
 10
-0.1197443357254279
 20
1.503179726787317
 10
-0.1021563857944162
 20
1.52386260766042
 10
-0.081815119764605
 20
1.540622498636584
 10
-0.0588564234266718
 20
1.553566828964734
 10
-0.0350956796402769
 20
1.561841925913577
 10
-0.0102575546369877
 20
1.565879859576699
 10
0.0139029880414995
 20
1.565553023449874
 10
0.0376655852208615
 20
1.561183521067353
 10
0.0601332186896359
 20
1.552969767863824
 10
0.0809679975655645
 20
1.541222479355883
 10
0.1000756660920381
 20
1.525853208639566
 10
0.1164862124681036
 20
1.507627433708658
 10
0.130321745567999
 20
1.486071226220943
 10
0.1405320648812928
 20
1.462567664558427
 10
0.1470339450252398
 20
1.436697724623305
 10
0.1492464899529848
 20
1.410108152414684
 10
0.1469683879501731
 20
1.382917962225475
 10
0.1402071568872694
 20
1.356491165259019
 10
0.1290437536169856
 20
1.331587030362224
 10
0.1138022209065181
 20
1.308963648093419
 10
0.0952603927005365
 20
1.289785863312418
 10
0.07366152151135
 20
1.274137214481603
 10
0.0506342390805147
 20
1.263052410748302
 10
0.0260240987155973
 20
1.256147953907423
 10
0.0017196448083355
 20
1.253777463179809
 10
-0.0226351676017755
 20
1.25556067689302
 10
-0.045829977051927
 20
1.261327242269759
 10
-0.0677645720922511
 20
1.270810563615015
 10
-0.0964986771222808
 20
1.29084951024452
  0
LINE
  5
BC
330
88
100
AcDbEntity
  8
AM_4
100
AcDbLine
 10
-1.59375
 20
1.596666666666667
 30
0.0
 11
-1.59375
 21
1.1875
 31
0.0
  0
LINE
  5
BD
330
88
100
AcDbEntity
  8
AM_4
100
AcDbLine
 10
1.59375
 20
1.1875
 30
0.0
 11
1.59375
 21
1.596666666666667
 31
0.0
  0
LINE
  5
BE
330
88
100
AcDbEntity
  8
AM_4
100
AcDbLine
 10
1.500416666666667
 20
1.69
 30
0.0
 11
-1.500416666666667
 21
1.69
 31
0.0
  0
ARC
  5
BF
330
88
100
AcDbEntity
  8
AM_4
100
AcDbCircle
 10
-1.500416666666667
 20
1.596666666666666
 30
0.0
 40
0.0933333333333335
100
AcDbArc
 50
90.0
 51
180.0
  0
ARC
  5
C0
330
88
100
AcDbEntity
  8
AM_4
100
AcDbCircle
 10
1.500416666666667
 20
1.596666666666666
 30
0.0
 40
0.0933333333333335
100
AcDbArc
 50
0.0
 51
90.0
  0
LINE
  5
C1
330
88
100
AcDbEntity
  8
AM_4
100
AcDbLine
 10
1.59375
 20
1.596666666666667
 30
0.0
 11
-1.59375
 21
1.596666666666667
 31
0.0
  0
ARC
  5
C3
330
88
100
AcDbEntity
  8
AM_5
100
AcDbCircle
 10
0.0
 20
1.41
 30
0.0
 40
0.1562500000000001
100
AcDbArc
 50
75.00000000000004
 51
14.99999999999997
  0
ARC
  5
C4
330
88
100
AcDbEntity
  8
AM_5
100
AcDbCircle
 10
0.0000000000000188
 20
1.410000000000058
 30
0.0
 40
0.1562499999999397
100
AcDbArc
 50
63.85157066747871
 51
75.00000000000124
  0
ENDBLK
  5
8B
330
88
100
AcDbEntity
  8
0
100
AcDbBlockEnd
  0
BLOCK
  5
C7
330
C5
100
AcDbEntity
  8
0
100
AcDbBlockBegin
  2
3_1_11_16C_2_0_in_023006_4
 70
     2
 10
0.0
 20
0.0
 30
0.0
  3
3_1_11_16C_2_0_in_023006_4
  1

  0
ATTDEF
  5
C9
330
C5
100
AcDbEntity
  8
AM_6
100
AcDbText
 10
6.59375
 20
-1.13
 30
0.0
 40
0.5
  1
E-Type Collar -Inch
100
AcDbAttributeDefinition
  3

  2
NN
 70
     8
280
     0
  0
ATTDEF
  5
CA
330
C5
100
AcDbEntity
  8
AM_6
100
AcDbText
 10
6.59375
 20
-1.63
 30
0.0
 40
0.5
  1
E-Type Bearings
100
AcDbAttributeDefinition
  3

  2
NT
 70
     8
280
     0
  0
ATTDEF
  5
CB
330
C5
100
AcDbEntity
  8
AM_6
100
AcDbText
 10
6.59375
 20
-2.13
 30
0.0
 40
0.5
  1
1-11/16C
100
AcDbAttributeDefinition
  3

  2
NB
 70
     8
280
     0
  0
ATTDEF
  5
CC
330
C5
100
AcDbEntity
  8
AM_6
100
AcDbText
 10
6.59375
 20
-2.63
 30
0.0
 40
0.5
  1
$BORE.C
100
AcDbAttributeDefinition
  3

  2
NBSYN
 70
     8
280
     0
  0
ATTDEF
  5
CD
330
C5
100
AcDbEntity
  8
AM_6
100
AcDbText
 10
6.59375
 20
-3.13
 30
0.0
 40
0.5
  1
1-11/16C
100
AcDbAttributeDefinition
  3

  2
LINA
 70
     8
280
     0
  0
ATTDEF
  5
CE
330
C5
100
AcDbEntity
  8
AM_6
100
AcDbText
 10
6.59375
 20
-3.63
 30
0.0
 40
0.5
  1
1-11/16
100
AcDbAttributeDefinition
  3

  2
BORE
 70
     8
280
     0
  0
ATTDEF
  5
CF
330
C5
100
AcDbEntity
  8
AM_6
100
AcDbText
 10
6.59375
 20
-4.13
 30
0.0
 40
0.5
  1
3.18750
100
AcDbAttributeDefinition
  3

  2
L
 70
     8
280
     0
  0
ATTDEF
  5
D0
330
C5
100
AcDbEntity
  8
AM_6
100
AcDbText
 10
6.59375
 20
-4.63
 30
0.0
 40
0.5
  1
3.38
100
AcDbAttributeDefinition
  3

  2
A
 70
     8
280
     0
  0
ATTDEF
  5
D1
330
C5
100
AcDbEntity
  8
AM_6
100
AcDbText
 10
6.59375
 20
-5.13
 30
0.0
 40
0.5
  1
1.50
100
AcDbAttributeDefinition
  3

  2
B
 70
     8
280
     0
  0
ATTDEF
  5
D2
330
C5
100
AcDbEntity
  8
AM_6
100
AcDbText
 10
6.59375
 20
-5.63
 30
0.0
 40
0.5
  1
2.06
100
AcDbAttributeDefinition
  3

  2
C
 70
     8
280
     0
  0
ATTDEF
  5
D3
330
C5
100
AcDbEntity
  8
AM_6
100
AcDbText
 10
6.59375
 20
-6.13
 30
0.0
 40
0.5
  1
3.25
100
AcDbAttributeDefinition
  3

  2
D
 70
     8
280
     0
  0
ATTDEF
  5
D4
330
C5
100
AcDbEntity
  8
AM_6
100
AcDbText
 10
6.59375
 20
-6.63
 30
0.0
 40
0.5
  1
0.35
100
AcDbAttributeDefinition
  3

  2
E
 70
     8
280
     0
  0
ATTDEF
  5
D5
330
C5
100
AcDbEntity
  8
AM_6
100
AcDbText
 10
6.59375
 20
-7.13
 30
0.0
 40
0.5
  1
0.28
100
AcDbAttributeDefinition
  3

  2
F
 70
     8
280
     0
  0
ATTDEF
  5
D6
330
C5
100
AcDbEntity
  8
AM_6
100
AcDbText
 10
6.59375
 20
-7.63
 30
0.0
 40
0.5
  1
5/16-18
100
AcDbAttributeDefinition
  3

  2
CS
 70
     8
280
     0
  0
ATTDEF
  5
D7
330
C5
100
AcDbEntity
  8
AM_6
100
AcDbText
 10
6.59375
 20
-8.129999999999999
 30
0.0
 40
0.5
  1
0.3125
100
AcDbAttributeDefinition
  3

  2
NDM
 70
     8
280
     0
  0
ATTDEF
  5
D8
330
C5
100
AcDbEntity
  8
AM_6
100
AcDbText
 10
6.59375
 20
-8.629999999999999
 30
0.0
 40
0.5
  1
0.2520
100
AcDbAttributeDefinition
  3

  2
KDM
 70
     8
280
     0
  0
ATTDEF
  5
D9
330
C5
100
AcDbEntity
  8
AM_6
100
AcDbText
 10
6.59375
 20
-9.129999999999999
 30
0.0
 40
0.5
  1
baldor
100
AcDbAttributeDefinition
  3

  2
COMPANY
 70
     8
280
     0
  0
LINE
  5
DA
330
C5
100
AcDbEntity
  8
AM_9
100
AcDbLine
 10
0.9667204080673119
 20
-1.298360626202661
 30
0.0
 11
0.9588186057002646
 21
-1.288504814107412
 31
0.0
  0
LINE
  5
DB
330
C5
100
AcDbEntity
  8
AM_9
100
AcDbLine
 10
0.9588039485709549
 20
-1.531513467533361
 30
0.0
 11
0.9667204080673119
 21
-1.521639373797338
 31
0.0
  0
LWPOLYLINE
  5
DC
330
C5
100
AcDbEntity
  8
AM_9
100
AcDbPolyline
 90
       25
 70
     0
 43
0.0
 10
0.9587681927256397
 20
-1.288441934688553
 10
0.9507830359024683
 20
-1.280605260310257
 10
0.9411861948580283
 20
-1.275691538561014
 10
0.9304615446755484
 20
-1.274759337983454
 10
0.9192537850760364
 20
-1.278033471004588
 10
0.9077846982770169
 20
-1.285600752480754
 10
0.8966001711739581
 20
-1.29724012113757
 10
0.8863394900795762
 20
-1.31247660116828
 10
0.8773099536379885
 20
-1.331069779287331
 10
0.8703783002532647
 20
-1.351401886865825
 10
0.8654291956609248
 20
-1.3737605724102
 10
0.8629620940377312
 20
-1.395539899785714
 10
0.8626208703802716
 20
-1.41777526370562
 10
0.8643096398213262
 20
-1.438528298899274
 10
0.8678149661738616
 20
-1.458490383472098
 10
0.8730221968277878
 20
-1.477283698131492
 10
0.8796242678615747
 20
-1.494326636269272
 10
0.8878597638570163
 20
-1.510118201389453
 10
0.8969912772847339
 20
-1.523246269160134
 10
0.9074231362706907
 20
-1.534094504743316
 10
0.9181139245863295
 20
-1.54140434658858
 10
0.9292472675127308
 20
-1.545086372368504
 10
0.9399411462321278
 20
-1.5446442526852
 10
0.9500774323464596
 20
-1.539904798856063
 10
0.9587685337061687
 20
-1.531557640018555
  0
LWPOLYLINE
  5
DD
330
C5
100
AcDbEntity
  8
AM_9
100
AcDbPolyline
 90
       12
 70
     0
 43
0.0
 10
0.963211097536533
 20
-1.525230731823716
 10
0.9671228985571823
 20
-1.518116433877429
 10
0.9737403141308678
 20
-1.501582906120251
 10
0.9787827345822123
 20
-1.48256210281257
 10
0.9824922755808618
 20
-1.461011188780093
 10
0.9846796929994062
 20
-1.43933959565837
 10
0.985658209908501
 20
-1.416704484274784
 10
0.98545879621318
 20
-1.395458653744419
 10
0.9842069558582295
 20
-1.374632304702638
 10
0.9819465546978772
 20
-1.355104663110747
 10
0.9786999673425223
 20
-1.337020782964523
 10
0.971538072778752
 20
-1.312116833062567
  0
LWPOLYLINE
  5
DE
330
C5
100
AcDbEntity
  8
AM_9
100
AcDbPolyline
 90
        3
 70
     0
 43
0.0
 10
0.9587685337061687
 20
-1.531557640018555
 10
0.9592213460049213
 20
-1.53098522440442
 10
0.963211097536533
 20
-1.525230731823716
  0
LINE
  5
DF
330
C5
100
AcDbEntity
  8
AM_9
100
AcDbLine
 10
0.9418501574182705
 20
-1.5362
 30
0.0
 11
1.41719348658921
 21
-1.5362
 31
0.0
  0
LINE
  5
E0
330
C5
100
AcDbEntity
  8
AM_9
100
AcDbLine
 10
1.41719348658921
 20
-1.2838
 30
0.0
 11
0.9418501574182705
 21
-1.2838
 31
0.0
  0
ELLIPSE
  5
E1
330
C5
100
AcDbEntity
  8
AM_9
100
AcDbEllipse
 10
1.417193486589209
 20
-1.41
 30
0.0
 11
-2.318256390785929E-17
 21
-0.1261999999999994
 31
0.0
210
0.0
220
0.0
230
1.0
 40
0.4226182617406943
 41
3.440988769986284
 42
5.977300048589891
  0
LINE
  5
E2
330
C5
100
AcDbEntity
  8
AM_9
100
AcDbLine
 10
1.392323235940168
 20
-1.521639373797338
 30
0.0
 11
1.412298093225979
 21
-1.546553745341149
 31
0.0
  0
LINE
  5
E3
330
C5
100
AcDbEntity
  8
AM_9
100
AcDbLine
 10
1.412423210362353
 20
-1.273290197733011
 30
0.0
 11
1.392323235940168
 21
-1.298360626202661
 31
0.0
  0
LWPOLYLINE
  5
E4
330
C5
100
AcDbEntity
  8
AM_9
100
AcDbPolyline
 90
       39
 70
     0
 43
0.0
 10
-0.1011837417154408
 20
-1.312667359787584
 10
-0.1154451229961465
 20
-1.327477477419786
 10
-0.1275895126737132
 20
-1.344654393636444
 10
-0.1375725029473159
 20
-1.365322012062167
 10
-0.1438745639902258
 20
-1.388214106283163
 10
-0.1457850944573374
 20
-1.409487530474031
 10
-0.1439354379935644
 20
-1.431438395267772
 10
-0.1387727767224051
 20
-1.451369843428373
 10
-0.130229636918921
 20
-1.470703936932307
 10
-0.1186768172277754
 20
-1.488475561672248
 10
-0.1041315660981357
 20
-1.504611883531862
 10
-0.0864699337885847
 20
-1.518897243092783
 10
-0.0662765237808752
 20
-1.530531134445214
 10
-0.0435455198347378
 20
-1.539196442012869
 10
-0.0190623504813151
 20
-1.544246449480167
 10
0.006242112885366
 20
-1.545291658032939
 10
0.0320838252594817
 20
-1.542075427349383
 10
0.0565610929496598
 20
-1.534747146372806
 10
0.0800977413472436
 20
-1.523033245786089
 10
0.1002674196002241
 20
-1.508147654098444
 10
0.1180164255137941
 20
-1.489328395851474
 10
0.1309257165826895
 20
-1.469403331636061
 10
0.1402989398493221
 20
-1.446688340667502
 10
0.1448503976764756
 20
-1.425267540522129
 10
0.1455701751135889
 20
-1.402656395295419
 10
0.1426543100415953
 20
-1.382171739643921
 10
0.1362208359348283
 20
-1.361898058575515
 10
0.126773481698521
 20
-1.343302805808238
 10
0.1142060426877189
 20
-1.326005404729403
 10
0.0985328443793694
 20
-1.31034745347145
 10
0.0801509260258044
 20
-1.296999373010244
 10
0.0589090895114281
 20
-1.286198321888069
 10
0.0356057842945722
 20
-1.278710214943634
 10
0.0108061051736483
 20
-1.274958311504049
 10
-0.0149793067815122
 20
-1.275304761947525
 10
-0.0401264711674594
 20
-1.279846552164755
 10
-0.0648396314262634
 20
-1.288793764097206
 10
-0.0837044041666546
 20
-1.299250141863335
 10
-0.1011837417154407
 20
-1.312667359787584
  0
LWPOLYLINE
  5
E5
330
C5
100
AcDbEntity
  8
AM_9
100
AcDbPolyline
 90
        3
 70
     0
 43
0.0
 10
0.9644247942636391
 20
-1.296799792370671
 10
0.9594602770504526
 20
-1.289323037174168
 10
0.9587681927256397
 20
-1.288441934688553
  0
LWPOLYLINE
  5
E6
330
C5
100
AcDbEntity
  8
AM_9
100
AcDbPolyline
 90
        3
 70
     0
 43
0.0
 10
0.971538072778752
 20
-1.312116833062567
 10
0.9659135475690981
 20
-1.299502989187923
 10
0.9644247942636391
 20
-1.296799792370671
  0
LINE
  5
E7
330
C5
100
AcDbEntity
  8
AM_9
100
AcDbLine
 10
1.03
 20
-1.69
 30
0.0
 11
1.03
 21
-1.13
 31
0.0
  0
LINE
  5
E8
330
C5
100
AcDbEntity
  8
AM_9
100
AcDbLine
 10
-1.03
 20
-1.13
 30
0.0
 11
-1.03
 21
-1.69
 31
0.0
  0
LINE
  5
E9
330
C5
100
AcDbEntity
  8
AM_9
100
AcDbLine
 10
-1.59375
 20
-1.13
 30
0.0
 11
1.59375
 21
-1.13
 31
0.0
  0
LINE
  5
EA
330
C5
100
AcDbEntity
  8
AM_9
100
AcDbLine
 10
1.59375
 20
-1.1875
 30
0.0
 11
1.59375
 21
-1.13
 31
0.0
  0
LINE
  5
EB
330
C5
100
AcDbEntity
  8
AM_9
100
AcDbLine
 10
-1.59375
 20
-1.13
 30
0.0
 11
-1.59375
 21
-1.1875
 31
0.0
  0
ARC
  5
EC
330
C5
100
AcDbEntity
  8
AM_5
100
AcDbCircle
 10
0.0000000000000001
 20
-1.41
 30
0.0
 40
0.1562499999999999
100
AcDbArc
 50
75.00000000000001
 51
14.99999999999994
  0
ELLIPSE
  5
ED
330
C5
100
AcDbEntity
  8
AM_9
100
AcDbEllipse
 10
0.9418501574182703
 20
-1.41
 30
0.0
 11
-2.318256390785929E-17
 21
-0.1261999999999994
 31
0.0
210
0.0
220
0.0
230
1.0
 40
0.4226182617407004
 41
0.0
 42
6.283185307179586
  0
LINE
  5
EE
330
C5
100
AcDbEntity
  8
AM_7
100
AcDbLine
 10
-0.13251
 20
-1.41
 30
0.0
 11
0.13251
 21
-1.41
 31
0.0
  0
ELLIPSE
  5
EF
330
C5
100
AcDbEntity
  8
AM_4
100
AcDbEllipse
 10
1.41719348658921
 20
-1.41
 30
0.0
 11
-2.318256390785941E-17
 21
-0.1262000000000001
 31
0.0
210
0.0
220
0.0
230
1.0
 40
0.4226182617406991
 41
5.977300048589879
 42
9.724174077165882
  0
LWPOLYLINE
  5
F0
330
C5
100
AcDbEntity
  8
AM_4
100
AcDbPolyline
 90
       15
 70
     0
 43
0.0
 10
1.412469598125106
 20
-1.546767659278356
 10
1.408344249386117
 20
-1.541222479355882
 10
1.399283240159242
 20
-1.525853208639566
 10
1.391335558933705
 20
-1.507627433708658
 10
1.38451502484477
 20
-1.486071226220943
 10
1.379410316808001
 20
-1.462567664558427
 10
1.376129964065041
 20
-1.436697724623304
 10
1.375006443257807
 20
-1.410108152414684
 10
1.376163287507714
 20
-1.382917962225475
 10
1.379573665205638
 20
-1.356491165259019
 10
1.385149757490721
 20
-1.331587030362224
 10
1.392646066615423
 20
-1.308963648093419
 10
1.401585776636542
 20
-1.289785863312418
 10
1.411753716344935
 20
-1.274137214481603
 10
1.412474108674615
 20
-1.273226713401366
  0
LWPOLYLINE
  5
F1
330
C5
100
AcDbEntity
  8
AM_4
100
AcDbPolyline
 90
        8
 70
     0
 43
0.0
 10
1.412474108674615
 20
-1.273226713401366
 10
1.422297646823276
 20
-1.263052410748302
 10
1.433237198584817
 20
-1.256147953907423
 10
1.443697960952229
 20
-1.253777463179808
 10
1.453848385772074
 20
-1.25556067689302
 10
1.463197458824012
 20
-1.261327242269759
 10
1.471760328143888
 20
-1.270810563615015
 10
1.482560010928953
 20
-1.290849510248892
  0
LWPOLYLINE
  5
F2
330
C5
100
AcDbEntity
  8
AM_4
100
AcDbPolyline
 90
       19
 70
     0
 43
0.0
 10
1.482560010928953
 20
-1.290849510248892
 10
1.488305712360381
 20
-1.307178609735321
 10
1.49301497603373
 20
-1.325647004987601
 10
1.497092622412375
 20
-1.348887287332711
 10
1.49977200700529
 20
-1.37372381104208
 10
1.50105607980982
 20
-1.400387277666545
 10
1.500844154857959
 20
-1.427313924642639
 10
1.499082651914847
 20
-1.454171625897947
 10
1.495777183424114
 20
-1.47976960305444
 10
1.490951543836946
 20
-1.503179726787317
 10
1.484630869172296
 20
-1.523862607660419
 10
1.477098626506997
 20
-1.540622498636584
 10
1.468316551018665
 20
-1.553566828964733
 10
1.458907386571153
 20
-1.561841925913577
 10
1.448733148524026
 20
-1.565879859576699
 10
1.438495084868227
 20
-1.565553023449874
 10
1.428106434541907
 20
-1.561183521067353
 10
1.417984585061841
 20
-1.552969767863824
 10
1.412469598125106
 20
-1.546767659278356
  0
LINE
  5
F3
330
C5
100
AcDbEntity
  8
AM_4
100
AcDbLine
 10
1.59375
 20
-1.596666666666667
 30
0.0
 11
1.59375
 21
-1.1875
 31
0.0
  0
LINE
  5
F4
330
C5
100
AcDbEntity
  8
AM_4
100
AcDbLine
 10
-1.59375
 20
-1.1875
 30
0.0
 11
-1.59375
 21
-1.596666666666667
 31
0.0
  0
LWPOLYLINE
  5
F5
330
C5
100
AcDbEntity
  8
AM_4
100
AcDbPolyline
 90
       39
 70
     0
 43
0.0
 10
-0.1078408707958413
 20
-1.302035741360839
 10
-0.0915725948497263
 20
-1.286660374216307
 10
-0.0727605875675605
 20
-1.273605643806728
 10
-0.0501514217363862
 20
-1.262850842838766
 10
-0.0252416424697722
 20
-1.256004892053767
 10
-0.0013060493819306
 20
-1.25375599370405
 10
0.0233870515485721
 20
-1.255683727619192
 10
0.0462411705893544
 20
-1.26145172248989
 10
0.0684335563721543
 20
-1.271170150415564
 10
0.0885060115918031
 20
-1.284229446524596
 10
0.1066833832645648
 20
-1.300782669028555
 10
0.1221760824480097
 20
-1.320314577097021
 10
0.134655414533221
 20
-1.342667852795879
 10
0.143513142731111
 20
-1.36714403571168
 10
0.148404859236843
 20
-1.393444257258941
 10
0.1489264538258834
 20
-1.42021832858838
 10
0.1448859546051897
 20
-1.447461597008439
 10
0.1365215069072493
 20
-1.473084275756936
 10
0.1235432962336687
 20
-1.497609886466756
 10
0.1072941926797266
 20
-1.518559562986879
 10
0.0870216489086261
 20
-1.536901400593611
 10
0.0653826807023177
 20
-1.550433912963624
 10
0.0409349908565591
 20
-1.560247651097061
 10
0.0170963338170844
 20
-1.565219618922951
 10
-0.0079977517940663
 20
-1.566025087232003
 10
-0.0313992976286342
 20
-1.56274676590925
 10
-0.0545708938468402
 20
-1.555412890510342
 10
-0.0757157562579924
 20
-1.544618204764219
 10
-0.0953464980001579
 20
-1.530163171163254
 10
-0.1125268499456319
 20
-1.512589660610772
 10
-0.1270406324693655
 20
-1.491949076791517
 10
-0.1382476566515119
 20
-1.468825438722636
 10
-0.1457662842297963
 20
-1.443516886619148
 10
-0.1490907977091018
 20
-1.417129486913697
 10
-0.1479924054864416
 20
-1.389804746460742
 10
-0.1424479029791917
 20
-1.363416711546491
 10
-0.1322393461045042
 20
-1.337614756628621
 10
-0.1213875750378428
 20
-1.319149312092224
 10
-0.107840870875632
 20
-1.302035741310885
  0
CIRCLE
  5
F6
330
C5
100
AcDbEntity
  8
AM_4
100
AcDbCircle
 10
0.0
 20
-1.41
 30
0.0
 40
0.1262
  0
LINE
  5
F7
330
C5
100
AcDbEntity
  8
AM_4
100
AcDbLine
 10
-1.500416666666667
 20
-1.69
 30
0.0
 11
1.500416661090452
 21
-1.69
 31
0.0
  0
LINE
  5
F8
330
C5
100
AcDbEntity
  8
AM_4
100
AcDbLine
 10
-1.59375
 20
-1.596666666666667
 30
0.0
 11
1.59375
 21
-1.596666666666667
 31
0.0
  0
ARC
  5
F9
330
C5
100
AcDbEntity
  8
AM_4
100
AcDbCircle
 10
1.500416666666667
 20
-1.596666666666667
 30
0.0
 40
0.0933333333333333
100
AcDbArc
 50
270.0
 51
0.0
  0
ARC
  5
FA
330
C5
100
AcDbEntity
  8
AM_4
100
AcDbCircle
 10
-1.500416666666667
 20
-1.596666666666667
 30
0.0
 40
0.0933333333333335
100
AcDbArc
 50
180.0
 51
270.0
  0
ARC
  5
FB
330
C5
100
AcDbEntity
  8
AM_5
100
AcDbCircle
 10
0.0
 20
-1.41
 30
0.0
 40
0.15625
100
AcDbArc
 50
165.0
 51
105.0
  0
ARC
  5
FC
330
C5
100
AcDbEntity
  8
AM_5
100
AcDbCircle
 10
-0.0000000000000001
 20
-1.41
 30
0.0
 40
0.1562500000000001
100
AcDbArc
 50
105.0
 51
285.0
  0
ENDBLK
  5
C8
330
C5
100
AcDbEntity
  8
0
100
AcDbBlockEnd
  0
BLOCK
  5
FF
330
FD
100
AcDbEntity
  8
0
100
AcDbBlockBegin
  2
4_1_11_16I_0_in_023006_4
 70
     2
 10
0.0
 20
0.0
 30
0.0
  3
4_1_11_16I_0_in_023006_4
  1

  0
ATTDEF
  5
101
330
FD
100
AcDbEntity
  8
AM_6
100
AcDbText
 10
6.625
 20
1.859
 30
0.0
 40
0.5
  1
E-Type Insert -Inch
100
AcDbAttributeDefinition
  3

  2
NN
 70
     8
280
     0
  0
ATTDEF
  5
102
330
FD
100
AcDbEntity
  8
AM_6
100
AcDbText
 10
6.625
 20
1.359
 30
0.0
 40
0.5
  1
E-Type Bearings
100
AcDbAttributeDefinition
  3

  2
NT
 70
     8
280
     0
  0
ATTDEF
  5
103
330
FD
100
AcDbEntity
  8
AM_6
100
AcDbText
 10
6.625
 20
0.859
 30
0.0
 40
0.5
  1
1-11/16I
100
AcDbAttributeDefinition
  3

  2
NB
 70
     8
280
     0
  0
ATTDEF
  5
104
330
FD
100
AcDbEntity
  8
AM_6
100
AcDbText
 10
6.625
 20
0.359
 30
0.0
 40
0.5
  1
$BORE.I
100
AcDbAttributeDefinition
  3

  2
NBSYN
 70
     8
280
     0
  0
ATTDEF
  5
105
330
FD
100
AcDbEntity
  8
AM_6
100
AcDbText
 10
6.625
 20
-0.141
 30
0.0
 40
0.5
  1
1-11/16I
100
AcDbAttributeDefinition
  3

  2
LINA
 70
     8
280
     0
  0
ATTDEF
  5
106
330
FD
100
AcDbEntity
  8
AM_6
100
AcDbText
 10
6.625
 20
-0.641
 30
0.0
 40
0.5
  1
1-11/16
100
AcDbAttributeDefinition
  3

  2
BORE
 70
     8
280
     0
  0
ATTDEF
  5
107
330
FD
100
AcDbEntity
  8
AM_6
100
AcDbText
 10
6.625
 20
-1.141
 30
0.0
 40
0.5
  1
3.38
100
AcDbAttributeDefinition
  3

  2
A
 70
     8
280
     0
  0
ATTDEF
  5
108
330
FD
100
AcDbEntity
  8
AM_6
100
AcDbText
 10
6.625
 20
-1.641
 30
0.0
 40
0.5
  1
1.50
100
AcDbAttributeDefinition
  3

  2
B
 70
     8
280
     0
  0
ATTDEF
  5
109
330
FD
100
AcDbEntity
  8
AM_6
100
AcDbText
 10
6.625
 20
-2.141
 30
0.0
 40
0.5
  1
2.06
100
AcDbAttributeDefinition
  3

  2
C
 70
     8
280
     0
  0
ATTDEF
  5
10A
330
FD
100
AcDbEntity
  8
AM_6
100
AcDbText
 10
6.625
 20
-2.641
 30
0.0
 40
0.5
  1
3.25
100
AcDbAttributeDefinition
  3

  2
D
 70
     8
280
     0
  0
ATTDEF
  5
10B
330
FD
100
AcDbEntity
  8
AM_6
100
AcDbText
 10
6.625
 20
-3.141
 30
0.0
 40
0.5
  1
0.35
100
AcDbAttributeDefinition
  3

  2
E
 70
     8
280
     0
  0
ATTDEF
  5
10C
330
FD
100
AcDbEntity
  8
AM_6
100
AcDbText
 10
6.625
 20
-3.641
 30
0.0
 40
0.5
  1
0.28
100
AcDbAttributeDefinition
  3

  2
F
 70
     8
280
     0
  0
ATTDEF
  5
10D
330
FD
100
AcDbEntity
  8
AM_6
100
AcDbText
 10
6.625
 20
-4.141
 30
0.0
 40
0.5
  1
baldor
100
AcDbAttributeDefinition
  3

  2
COMPANY
 70
     8
280
     0
  0
LINE
  5
10E
330
FD
100
AcDbEntity
  8
AM_9
100
AcDbLine
 10
0.933406967096689
 20
-1.234999985
 30
0.0
 11
0.7646445925504048
 21
-1.234999985
 31
0.0
  0
LINE
  5
10F
330
FD
100
AcDbEntity
  8
AM_9
100
AcDbLine
 10
0.7645849627382628
 20
-1.584999995
 30
0.0
 11
0.9334721012774541
 21
-1.584999995
 31
0.0
  0
LWPOLYLINE
  5
110
330
FD
100
AcDbEntity
  8
AM_9
100
AcDbPolyline
 90
       21
 70
     0
 43
0.0
 10
0.7646919890473451
 20
-1.584999994566415
 10
0.7723200200360817
 20
-1.584022496978225
 10
0.7831703367183179
 20
-1.578721220285889
 10
0.792994321661799
 20
-1.568625082505071
 10
0.801177453754549
 20
-1.55447198922409
 10
0.8080803314057222
 20
-1.535931044746168
 10
0.8134502719353142
 20
-1.514071307254709
 10
0.8175362782720845
 20
-1.48856129034346
 10
0.8202094893997937
 20
-1.461458440961657
 10
0.8217057911185739
 20
-1.431997307830308
 10
0.8219969918388921
 20
-1.403275587657385
 10
0.8211515425742206
 20
-1.373906661128934
 10
0.8192120617724532
 20
-1.346662629856638
 10
0.8159985206938123
 20
-1.32044079857906
 10
0.8115302400633102
 20
-1.297046728784414
 10
0.8054970654230693
 20
-1.276184979527064
 10
0.7980314124156126
 20
-1.259298429298927
 10
0.7887693651081996
 20
-1.246284164189024
 10
0.7783826955848996
 20
-1.238302679509296
 10
0.7663797722163431
 20
-1.235045743361459
 10
0.7647042165115894
 20
-1.234999985788636
  0
LWPOLYLINE
  5
111
330
FD
100
AcDbEntity
  8
AM_9
100
AcDbPolyline
 90
       11
 70
     0
 43
0.0
 10
0.7647042165115894
 20
-1.234999985788636
 10
0.7539952552108524
 20
-1.236731463748781
 10
0.7406776119556003
 20
-1.243292181912771
 10
0.7276650701564533
 20
-1.254132269247995
 10
0.7147029779924413
 20
-1.26954721153666
 10
0.7028283894552348
 20
-1.288636693212739
 10
0.6921610509205479
 20
-1.311715083396881
 10
0.6837190641920863
 20
-1.337194799188225
 10
0.6776115925704235
 20
-1.365601765775491
 10
0.6750086167305205
 20
-1.387418282212434
 10
0.6741103910549419
 20
-1.40999999
  0
LWPOLYLINE
  5
112
330
FD
100
AcDbEntity
  8
AM_9
100
AcDbPolyline
 90
       11
 70
     0
 43
0.0
 10
0.9930334456599413
 20
-1.443167447026607
 10
0.9927961127968477
 20
-1.447439832916952
 10
0.9904517085347827
 20
-1.475189392959298
 10
0.986764272738104
 20
-1.501128414503806
 10
0.981620023083993
 20
-1.524735947406816
 10
0.9750265886903533
 20
-1.545151782990281
 10
0.9668591854601607
 20
-1.561931204251621
 10
0.9572524579673861
 20
-1.57440907163009
 10
0.9463564324889124
 20
-1.582128049136432
 10
0.9343731424105852
 20
-1.584987662239814
 10
0.9335019628891394
 20
-1.584999994609254
  0
LWPOLYLINE
  5
113
330
FD
100
AcDbEntity
  8
AM_9
100
AcDbPolyline
 90
       10
 70
     0
 43
0.0
 10
0.9334910682432999
 20
-1.234999985566771
 10
0.9413906078551408
 20
-1.236040582583733
 10
0.9526098264372277
 20
-1.241614353994253
 10
0.9626452492260287
 20
-1.2517929839953
 10
0.9713534976058056
 20
-1.266420967717919
 10
0.978631853256608
 20
-1.284992807105194
 10
0.9845091840343067
 20
-1.307350544529248
 10
0.9889297833757936
 20
-1.332622801815771
 10
0.99192683880771
 20
-1.360179780743919
 10
0.9931440961666184
 20
-1.379038767394484
  0
LWPOLYLINE
  5
114
330
FD
100
AcDbEntity
  8
AM_9
100
AcDbPolyline
 90
       10
 70
     0
 43
0.0
 10
0.9335019628891394
 20
-1.584999994609254
 10
0.921756740980353
 20
-1.582885424062273
 10
0.9087646734514537
 20
-1.576022135288609
 10
0.895851361884348
 20
-1.564554491115448
 10
0.8834879434300219
 20
-1.548867174374054
 10
0.8720518127680634
 20
-1.529085393668289
 10
0.8621811596876167
 20
-1.505966529185131
 10
0.8543161662586588
 20
-1.47990986657823
 10
0.8488916617276124
 20
-1.451833074720056
 10
0.8459665277242596
 20
-1.40999999
  0
LINE
  5
115
330
FD
100
AcDbEntity
  8
AM_9
100
AcDbLine
 10
0.9334069670966894
 20
1.584999995
 30
0.0
 11
0.764644592550405
 21
1.584999995
 31
0.0
  0
LINE
  5
116
330
FD
100
AcDbEntity
  8
AM_9
100
AcDbLine
 10
0.7645849627382628
 20
1.234999985
 30
0.0
 11
0.9334721012774545
 21
1.234999985
 31
0.0
  0
LWPOLYLINE
  5
117
330
FD
100
AcDbEntity
  8
AM_9
100
AcDbPolyline
 90
       21
 70
     0
 43
0.0
 10
0.7646919890473451
 20
1.234999985433585
 10
0.7723200200360817
 20
1.235977483021774
 10
0.7831703367183179
 20
1.24127875971411
 10
0.792994321661799
 20
1.251374897494929
 10
0.801177453754549
 20
1.26552799077591
 10
0.8080803314057222
 20
1.284068935253832
 10
0.8134502719353142
 20
1.305928672745291
 10
0.8175362782720845
 20
1.33143868965654
 10
0.8202094893997937
 20
1.358541539038343
 10
0.8217057911185739
 20
1.388002672169692
 10
0.8219969918388921
 20
1.416724392342615
 10
0.8211515425742206
 20
1.446093318871066
 10
0.8192120617724532
 20
1.473337350143362
 10
0.8159985206938123
 20
1.49955918142094
 10
0.8115302400633102
 20
1.522953251215586
 10
0.8054970654230693
 20
1.543815000472936
 10
0.7980314124156126
 20
1.560701550701073
 10
0.7887693651081996
 20
1.573715815810976
 10
0.7783826955848996
 20
1.581697300490704
 10
0.7663797722163431
 20
1.584954236638541
 10
0.7647042165115894
 20
1.584999994211364
  0
LWPOLYLINE
  5
118
330
FD
100
AcDbEntity
  8
AM_9
100
AcDbPolyline
 90
       11
 70
     0
 43
0.0
 10
0.7647042165115894
 20
1.584999994211364
 10
0.7539952552108524
 20
1.583268516251219
 10
0.7406776119556003
 20
1.576707798087229
 10
0.7276650701564533
 20
1.565867710752005
 10
0.7147029779924413
 20
1.55045276846334
 10
0.7028283894552348
 20
1.531363286787261
 10
0.6921610509205479
 20
1.508284896603119
 10
0.6837190641920863
 20
1.482805180811775
 10
0.6776115925704235
 20
1.454398214224509
 10
0.6750086167305205
 20
1.432581697787566
 10
0.6741103910549419
 20
1.40999999
  0
LWPOLYLINE
  5
119
330
FD
100
AcDbEntity
  8
AM_9
100
AcDbPolyline
 90
       11
 70
     0
 43
0.0
 10
0.9929917442317191
 20
1.376040270787494
 10
0.9927961127968481
 20
1.372560147083048
 10
0.9904517085347833
 20
1.344810587040702
 10
0.9867642727381044
 20
1.318871565496194
 10
0.9816200230839934
 20
1.295264032593184
 10
0.9750265886903537
 20
1.274848197009719
 10
0.9668591854601613
 20
1.258068775748378
 10
0.9572524579673867
 20
1.245590908369909
 10
0.946356432488913
 20
1.237871930863567
 10
0.9343731424105857
 20
1.235012317760186
 10
0.93350196288914
 20
1.234999985390745
  0
LWPOLYLINE
  5
11A
330
FD
100
AcDbEntity
  8
AM_9
100
AcDbPolyline
 90
       10
 70
     0
 43
0.0
 10
0.9334910682433003
 20
1.584999994433229
 10
0.9413906078551412
 20
1.583959397416267
 10
0.9526098264372282
 20
1.578385626005747
 10
0.9626452492260292
 20
1.5682069960047
 10
0.9713534976058061
 20
1.553579012282081
 10
0.9786318532566084
 20
1.535007172894806
 10
0.9845091840343072
 20
1.512649435470752
 10
0.9889297833757942
 20
1.487377178184229
 10
0.9919268388077105
 20
1.459820199256081
 10
0.9928248398315936
 20
1.446950750273159
  0
LWPOLYLINE
  5
11B
330
FD
100
AcDbEntity
  8
AM_9
100
AcDbPolyline
 90
       10
 70
     0
 43
0.0
 10
0.93350196288914
 20
1.234999985390745
 10
0.9217567409803534
 20
1.237114555937727
 10
0.9087646734514542
 20
1.243977844711391
 10
0.8958513618843487
 20
1.255445488884552
 10
0.8834879434300225
 20
1.271132805625946
 10
0.872051812768064
 20
1.290914586331711
 10
0.8621811596876171
 20
1.314033450814869
 10
0.8543161662586595
 20
1.34009011342177
 10
0.8488916617276129
 20
1.368166905279944
 10
0.8459665277242601
 20
1.40999999
  0
LWPOLYLINE
  5
11C
330
FD
100
AcDbEntity
  8
AM_9
100
AcDbPolyline
 90
       11
 70
     0
 43
0.0
 10
0.6741103910549419
 20
1.40999999
 10
0.6755544839832683
 20
1.381392058890697
 10
0.6799700699459834
 20
1.352784127781395
 10
0.6868604535614015
 20
1.326593155615397
 10
0.696237368319801
 20
1.3020302846423
 10
0.7072874166731985
 20
1.280810291247548
 10
0.7199802960270897
 20
1.262669689611309
 10
0.7331794403670839
 20
1.249001365697252
 10
0.7469699345372233
 20
1.239613961304195
 10
0.7598454798690631
 20
1.23536631878686
 10
0.7646919890473451
 20
1.234999985433585
  0
LWPOLYLINE
  5
11D
330
FD
100
AcDbEntity
  8
AM_9
100
AcDbPolyline
 90
       11
 70
     0
 43
0.0
 10
0.6741103910549419
 20
-1.40999999
 10
0.6755544839832683
 20
-1.438607921109303
 10
0.6799700699459834
 20
-1.467215852218605
 10
0.6868604535614015
 20
-1.493406824384603
 10
0.696237368319801
 20
-1.517969695357699
 10
0.7072874166731985
 20
-1.539189688752452
 10
0.7199802960270897
 20
-1.557330290388691
 10
0.7331794403670839
 20
-1.570998614302747
 10
0.7469699345372233
 20
-1.580386018695805
 10
0.7598454798690631
 20
-1.58463366121314
 10
0.7646919890473451
 20
-1.584999994566415
  0
LINE
  5
11E
330
FD
100
AcDbEntity
  8
AM_9
100
AcDbLine
 10
0.84375
 20
-1.69
 30
0.0
 11
0.84375
 21
1.69
 31
0.0
  0
LINE
  5
11F
330
FD
100
AcDbEntity
  8
AM_9
100
AcDbLine
 10
-0.84375
 20
1.69
 30
0.0
 11
-0.84375
 21
-1.69
 31
0.0
  0
LWPOLYLINE
  5
120
330
FD
100
AcDbEntity
  8
AM_9
100
AcDbPolyline
 90
       38
 70
     0
 43
0.0
 10
-0.175000005
 20
-1.40999999
 10
-0.1726263690378035
 20
-1.38127476654005
 10
-0.1653010825696664
 20
-1.352549543080099
 10
-0.1536562773408699
 20
-1.326245884526025
 10
-0.1373710428496999
 20
-1.301583209304455
 10
-0.1175946500573113
 20
-1.280398678170611
 10
-0.0938853115346675
 20
-1.262316036816052
 10
-0.0680387490798641
 20
-1.248768075126898
 10
-0.0394227875046923
 20
-1.239498243453638
 10
-0.0107628719445046
 20
-1.235331268308032
 10
0.0190558736714258
 20
-1.236040582583733
 10
0.0472026512568565
 20
-1.241486158329351
 10
0.0748033755991585
 20
-1.2517929839953
 10
0.0996967156193428
 20
-1.266175212424243
 10
0.1224671628425539
 20
-1.284992807105194
 10
0.1414768910395146
 20
-1.306998577136907
 10
0.156964239553799
 20
-1.332622801815771
 10
0.1676323623797339
 20
-1.35975665379519
 10
0.1737572550922732
 20
-1.38918129520905
 10
0.1748167443500403
 20
-1.418006714976709
 10
0.1709481205288727
 20
-1.447439832916952
 10
0.162553860381262
 20
-1.474816995678674
 10
0.1494008433625933
 20
-1.501128414503806
 10
0.132398191321982
 20
-1.524436525619827
 10
0.1111710151141572
 20
-1.545151782990281
 10
0.0871896010224024
 20
-1.561733227043023
 10
0.0599554470215204
 20
-1.57440907163009
 10
0.0319026262633967
 20
-1.582067488928467
 10
0.0020775740881093
 20
-1.584987662239814
 10
-0.0265972567671944
 20
-1.582967003278428
 10
-0.0553321698812544
 20
-1.576022135288609
 10
-0.0816982224249434
 20
-1.564759164857598
 10
-0.1064936939636448
 20
-1.548867174374054
 10
-0.1279391838386944
 20
-1.529400856783658
 10
-0.1463401008159712
 20
-1.505966529185131
 10
-0.1602526325185529
 20
-1.480314252570788
 10
-0.1699264392989056
 20
-1.451833074720056
 10
-0.175000005
 20
-1.40999999
  0
LWPOLYLINE
  5
121
330
FD
100
AcDbEntity
  8
AM_9
100
AcDbPolyline
 90
       11
 70
     0
 43
0.0
 10
0.8459665277242596
 20
-1.40999999
 10
0.8473908169837009
 20
-1.380861189372001
 10
0.851537810960157
 20
-1.352549543080099
 10
0.858232032272148
 20
-1.325893991257417
 10
0.8671019490617243
 20
-1.301583209304455
 10
0.8778622293213704
 20
-1.28013155653054
 10
0.8899333206720896
 20
-1.262316036816052
 10
0.9028958023103453
 20
-1.248616531941367
 10
0.9161522209719506
 20
-1.239498243453638
 10
0.9290782495408496
 20
-1.235323628800678
 10
0.9334910682432999
 20
-1.234999985566771
  0
LINE
  5
122
330
FD
100
AcDbEntity
  8
AM_9
100
AcDbLine
 10
1.03
 20
-1.69
 30
0.0
 11
1.03
 21
-0.7499999999999999
 31
0.0
  0
LINE
  5
123
330
FD
100
AcDbEntity
  8
AM_9
100
AcDbLine
 10
-1.03
 20
-0.7499999999999999
 30
0.0
 11
-1.03
 21
-1.69
 31
0.0
  0
LWPOLYLINE
  5
124
330
FD
100
AcDbEntity
  8
AM_9
100
AcDbPolyline
 90
       38
 70
     0
 43
0.0
 10
-0.175000005
 20
1.40999999
 10
-0.1726263690378035
 20
1.43872521345995
 10
-0.1653010825696664
 20
1.467450436919901
 10
-0.1536562773408699
 20
1.493754095473975
 10
-0.1373710428496999
 20
1.518416770695545
 10
-0.1175946500573113
 20
1.539601301829389
 10
-0.0938853115346675
 20
1.557683943183948
 10
-0.0680387490798641
 20
1.571231904873102
 10
-0.0394227875046923
 20
1.580501736546362
 10
-0.0107628719445046
 20
1.584668711691968
 10
0.0190558736714258
 20
1.583959397416267
 10
0.0472026512568565
 20
1.578513821670648
 10
0.0748033755991585
 20
1.5682069960047
 10
0.0996967156193428
 20
1.553824767575757
 10
0.1224671628425539
 20
1.535007172894806
 10
0.1414768910395146
 20
1.513001402863093
 10
0.1569642395537992
 20
1.487377178184229
 10
0.167632362379734
 20
1.46024332620481
 10
0.1737572550922732
 20
1.430818684790949
 10
0.1748167443500403
 20
1.401993265023291
 10
0.1709481205288726
 20
1.372560147083048
 10
0.1625538603812618
 20
1.345182984321326
 10
0.1494008433625931
 20
1.318871565496194
 10
0.132398191321982
 20
1.295563454380173
 10
0.1111710151141572
 20
1.274848197009719
 10
0.0871896010224024
 20
1.258266752956976
 10
0.0599554470215202
 20
1.245590908369909
 10
0.0319026262633966
 20
1.237932491071533
 10
0.0020775740881092
 20
1.235012317760186
 10
-0.0265972567671945
 20
1.237032976721572
 10
-0.0553321698812545
 20
1.243977844711391
 10
-0.0816982224249435
 20
1.255240815142402
 10
-0.1064936939636449
 20
1.271132805625946
 10
-0.1279391838386944
 20
1.290599123216342
 10
-0.1463401008159713
 20
1.314033450814869
 10
-0.1602526325185529
 20
1.339685727429212
 10
-0.1699264392989056
 20
1.368166905279944
 10
-0.175000005
 20
1.40999999
  0
LWPOLYLINE
  5
125
330
FD
100
AcDbEntity
  8
AM_9
100
AcDbPolyline
 90
       11
 70
     0
 43
0.0
 10
0.8459665277242601
 20
1.40999999
 10
0.8473908169837013
 20
1.439138790627999
 10
0.8515378109601575
 20
1.467450436919901
 10
0.8582320322721483
 20
1.494105988742582
 10
0.8671019490617248
 20
1.518416770695545
 10
0.8778622293213709
 20
1.53986842346946
 10
0.8899333206720903
 20
1.557683943183948
 10
0.9028958023103457
 20
1.571383448058633
 10
0.9161522209719511
 20
1.580501736546362
 10
0.9290782495408499
 20
1.584676351199322
 10
0.9334910682433003
 20
1.584999994433229
  0
LINE
  5
126
330
FD
100
AcDbEntity
  8
AM_9
100
AcDbLine
 10
1.03
 20
0.7500000000000002
 30
0.0
 11
1.03
 21
1.69
 31
0.0
  0
LINE
  5
127
330
FD
100
AcDbEntity
  8
AM_9
100
AcDbLine
 10
-1.03
 20
1.69
 30
0.0
 11
-1.03
 21
0.7500000000000002
 31
0.0
  0
LINE
  5
128
330
FD
100
AcDbEntity
  8
AM_9
100
AcDbLine
 10
-1.625
 20
-0.7499999999999997
 30
0.0
 11
1.625
 21
-0.7499999999999997
 31
0.0
  0
LINE
  5
129
330
FD
100
AcDbEntity
  8
AM_9
100
AcDbLine
 10
-1.625
 20
0.7500000000000002
 30
0.0
 11
1.625
 21
0.7500000000000002
 31
0.0
  0
LINE
  5
12A
330
FD
100
AcDbEntity
  8
AM_9
100
AcDbLine
 10
1.625
 20
-0.7499999999999997
 30
0.0
 11
1.625
 21
0.7500000000000002
 31
0.0
  0
LINE
  5
12B
330
FD
100
AcDbEntity
  8
AM_9
100
AcDbLine
 10
-1.625
 20
0.7500000000000002
 30
0.0
 11
-1.625
 21
-0.7499999999999997
 31
0.0
  0
LINE
  5
12C
330
FD
100
AcDbEntity
  8
AM_7
100
AcDbLine
 10
0.0
 20
-1.859
 30
0.0
 11
0.0
 21
1.859
 31
0.0
  0
ENDBLK
  5
100
330
FD
100
AcDbEntity
  8
0
100
AcDbBlockEnd
  0
BLOCK
  5
12F
330
12D
100
AcDbEntity
  8
0
100
AcDbBlockBegin
  2
5_405015E_Inch_0_in_023006_4
 70
     2
 10
0.0
 20
0.0
 30
0.0
  3
5_405015E_Inch_0_in_023006_4
  1

  0
ATTDEF
  5
131
330
12D
100
AcDbEntity
  8
AM_6
100
AcDbText
 10
6.365484171481428
 20
0.2187500000000001
 30
0.0
 40
0.5
  1
405015E -Inch
100
AcDbAttributeDefinition
  3

  2
NN
 70
     8
280
     0
  0
ATTDEF
  5
132
330
12D
100
AcDbEntity
  8
AM_6
100
AcDbText
 10
6.365484171481428
 20
-0.2812499999999999
 30
0.0
 40
0.5
  1
Grease Fitting
100
AcDbAttributeDefinition
  3

  2
NT
 70
     8
280
     0
  0
ATTDEF
  5
133
330
12D
100
AcDbEntity
  8
AM_6
100
AcDbText
 10
6.365484171481428
 20
-0.7812499999999999
 30
0.0
 40
0.5
  1
405015E-Inch
100
AcDbAttributeDefinition
  3

  2
NB
 70
     8
280
     0
  0
ATTDEF
  5
134
330
12D
100
AcDbEntity
  8
AM_6
100
AcDbText
 10
6.365484171481428
 20
-1.28125
 30
0.0
 40
0.5
  1
$MN.-Inch
100
AcDbAttributeDefinition
  3

  2
NBSYN
 70
     8
280
     0
  0
ATTDEF
  5
135
330
12D
100
AcDbEntity
  8
AM_6
100
AcDbText
 10
6.365484171481428
 20
-1.78125
 30
0.0
 40
0.5
  1
405015E
100
AcDbAttributeDefinition
  3

  2
LINA
 70
     8
280
     0
  0
ATTDEF
  5
136
330
12D
100
AcDbEntity
  8
AM_6
100
AcDbText
 10
6.365484171481428
 20
-2.28125
 30
0.0
 40
0.5
  1
405015E
100
AcDbAttributeDefinition
  3

  2
MN
 70
     8
280
     0
  0
ATTDEF
  5
137
330
12D
100
AcDbEntity
  8
AM_6
100
AcDbText
 10
6.365484171481428
 20
-2.78125
 30
0.0
 40
0.5
  1
1/8 x 27PTF
100
AcDbAttributeDefinition
  3

  2
T
 70
     8
280
     0
  0
ATTDEF
  5
138
330
12D
100
AcDbEntity
  8
AM_6
100
AcDbText
 10
6.365484171481428
 20
-3.28125
 30
0.0
 40
0.5
  1
baldor
100
AcDbAttributeDefinition
  3

  2
COMPANY
 70
     8
280
     0
  0
ELLIPSE
  5
139
330
12D
100
AcDbEntity
  8
AM_9
100
AcDbEllipse
 10
0.9565625000000001
 20
0.0000000000000001
 30
0.0
 11
9.913691727296317E-18
 21
0.161902872472269
 31
0.0
210
0.0
220
0.0
230
1.0
 40
0.866025403784439
 41
0.0
 42
6.283185307179586
  0
LINE
  5
13A
330
12D
100
AcDbEntity
  8
AM_9
100
AcDbLine
 10
1.275375009327771
 20
-0.0663665071481186
 30
0.0
 11
1.253125
 21
-0.1093749999999999
 31
0.0
  0
LINE
  5
13B
330
12D
100
AcDbEntity
  8
AM_9
100
AcDbLine
 10
1.312346299848307
 20
0.0000000000000001
 30
0.0
 11
1.288915375671809
 21
-0.0414482188645851
 31
0.0
  0
LINE
  5
13C
330
12D
100
AcDbEntity
  8
AM_9
100
AcDbLine
 10
1.288898290782646
 20
0.0414791583210983
 30
0.0
 11
1.312346299848307
 21
0.0000000000000001
 31
0.0
  0
LINE
  5
13D
330
12D
100
AcDbEntity
  8
AM_9
100
AcDbLine
 10
1.253125
 20
0.1093750000000001
 30
0.0
 11
1.274395078905593
 21
0.068203121552596
 31
0.0
  0
LWPOLYLINE
  5
13E
330
12D
100
AcDbEntity
  8
AM_9
100
AcDbPolyline
 90
        3
 70
     0
 43
0.0
 10
1.303125
 20
-0.1093749999999999
 10
1.329272059607483
 20
-0.0546874999999999
 10
1.353278700151693
 20
0.0000000000000001
  0
LWPOLYLINE
  5
13F
330
12D
100
AcDbEntity
  8
AM_9
100
AcDbPolyline
 90
        3
 70
     0
 43
0.0
 10
1.353278700151693
 20
0.0000000000000001
 10
1.329384432388115
 20
0.0544416102741497
 10
1.303125
 20
0.109375
  0
LWPOLYLINE
  5
140
330
12D
100
AcDbEntity
  8
AM_9
100
AcDbPolyline
 90
        3
 70
     0
 43
0.0
 10
1.202971299848307
 20
0.2187500000000001
 10
1.226865567611885
 20
0.1643083897258505
 10
1.253125
 20
0.1093750000000001
  0
LWPOLYLINE
  5
141
330
12D
100
AcDbEntity
  8
AM_9
100
AcDbPolyline
 90
        3
 70
     0
 43
0.0
 10
1.253125
 20
-0.1093749999999999
 10
1.226977940392517
 20
-0.1640624999999999
 10
1.202971299848307
 20
-0.2187499999999999
  0
LINE
  5
142
330
12D
100
AcDbEntity
  8
AM_9
100
AcDbLine
 10
1.353278700151693
 20
0.0000000000000001
 30
0.0
 11
1.312346299848307
 21
0.0000000000000001
 31
0.0
  0
LINE
  5
143
330
12D
100
AcDbEntity
  8
AM_9
100
AcDbLine
 10
0.9656092106261547
 20
-0.1983264404626879
 30
0.0
 11
1.07941739783229
 21
-0.2054502516015134
 31
0.0
  0
LINE
  5
144
330
12D
100
AcDbEntity
  8
AM_9
100
AcDbLine
 10
1.07941739783229
 20
0.2054502516015136
 30
0.0
 11
0.9656092106261547
 21
0.198326440462688
 31
0.0
  0
ELLIPSE
  5
145
330
12D
100
AcDbEntity
  8
AM_9
100
AcDbEllipse
 10
1.139062499997003
 20
-0.0000000000008559
 30
0.0
 11
-4.018372309733541E-17
 21
-0.2187500000017032
 31
0.0
210
0.0
220
0.0
230
1.0
 40
0.8660254037912216
 41
1.032970329623025
 42
2.108622323973491
  0
ELLIPSE
  5
146
330
12D
100
AcDbEntity
  8
AM_9
100
AcDbEllipse
 10
1.1390625
 20
0.0000000000000002
 30
0.0
 11
-3.926523799766204E-17
 21
-0.2137500000000002
 31
0.0
210
0.0
220
0.0
230
1.0
 40
0.8660254037844395
 41
0.9862868522353478
 42
2.155305801354444
  0
ELLIPSE
  5
147
330
12D
100
AcDbEntity
  8
AM_9
100
AcDbEllipse
 10
1.148221599270443
 20
-0.0000000000000008
 30
0.0
 11
-3.169399141454418E-17
 21
-0.1725340532830134
 31
0.0
210
0.0
220
0.0
230
1.0
 40
0.8660254037844402
 41
0.6732704101474951
 42
2.468322243442306
  0
LINE
  5
148
330
12D
100
AcDbEntity
  8
AM_9
100
AcDbLine
 10
1.2590625
 20
0.0703562363973517
 30
0.0
 11
1.251823404853149
 21
0.0796165180238022
 31
0.0
  0
LINE
  5
149
330
12D
100
AcDbEntity
  8
AM_9
100
AcDbLine
 10
1.251823404853149
 20
-0.0796165180238018
 30
0.0
 11
1.2590625
 21
-0.0703562363973514
 31
0.0
  0
ELLIPSE
  5
14A
330
12D
100
AcDbEntity
  8
AM_9
100
AcDbEllipse
 10
1.175439060809287
 20
0.0000000000000004
 30
0.0
 11
-2.182689656893360E-17
 21
-0.1188200907348978
 31
0.0
210
0.0
220
0.0
230
1.0
 40
0.8660254037844362
 41
0.0521714424105753
 42
3.089421211179218
  0
LINE
  5
14B
330
12D
100
AcDbEntity
  8
AM_9
100
AcDbLine
 10
1.1915625
 20
-0.1049999999999999
 30
0.0
 11
1.2065625
 21
-0.1049999999999999
 31
0.0
  0
LINE
  5
14C
330
12D
100
AcDbEntity
  8
AM_9
100
AcDbLine
 10
1.2065625
 20
0.1050000000000001
 30
0.0
 11
1.1915625
 21
0.1050000000000001
 31
0.0
  0
ELLIPSE
  5
14D
330
12D
100
AcDbEntity
  8
AM_9
100
AcDbEllipse
 10
1.2065625
 20
0.0000000000000003
 30
0.0
 11
-1.928818708657079E-17
 21
-0.1049999999999999
 31
0.0
210
0.0
220
0.0
230
1.0
 40
0.8660254037844376
 41
5.235987755982991
 42
10.47197551196598
  0
ELLIPSE
  5
14E
330
12D
100
AcDbEntity
  8
AM_9
100
AcDbEllipse
 10
1.191562499999995
 20
-0.0000000000000026
 30
0.0
 11
-1.928818708657030E-17
 21
-0.1049999999999972
 31
0.0
210
0.0
220
0.0
230
1.0
 40
0.8660254037844275
 41
5.858105981271275
 42
9.849857286677668
  0
ELLIPSE
  5
14F
330
12D
100
AcDbEntity
  8
AM_9
100
AcDbEllipse
 10
1.236562500000002
 20
0.0000000000000011
 30
0.0
 11
-2.479909768273344E-17
 21
-0.1349999999999975
 31
0.0
210
0.0
220
0.0
230
1.0
 40
0.8660254037844374
 41
0.7751090107151022
 42
2.366483642874681
  0
ELLIPSE
  5
150
330
12D
100
AcDbEntity
  8
AM_9
100
AcDbEllipse
 10
1.0890625
 20
0.0000000000000001
 30
0.0
 11
-3.779601035290911E-17
 21
-0.2057518972230697
 31
0.0
210
0.0
220
0.0
230
1.0
 40
0.8660254037844374
 41
0.0
 42
6.283185307179586
  0
ELLIPSE
  5
151
330
12D
100
AcDbEntity
  8
AM_9
100
AcDbEllipse
 10
0.974919877154473
 20
-0.0000000000000002
 30
0.0
 11
-3.648546613377890E-17
 21
-0.1986176267812156
 31
0.0
210
0.0
220
0.0
230
1.0
 40
0.8660254037844394
 41
0.0
 42
6.283185307179586
  0
ELLIPSE
  5
152
330
12D
100
AcDbEntity
  8
AM_9
100
AcDbEllipse
 10
1.0890625
 20
0.0000000000000001
 30
0.0
 11
-4.018372309702253E-17
 21
-0.21875
 31
0.0
210
0.0
220
0.0
230
1.0
 40
0.8660254037844377
 41
0.0
 42
6.283185307179586
  0
LWPOLYLINE
  5
153
330
12D
100
AcDbEntity
  8
AM_4
100
AcDbPolyline
 90
        3
 70
     0
 43
0.0
 10
1.303125
 20
0.109375
 10
1.274584559607483
 20
0.1640625000000001
 10
1.243903700151693
 20
0.2187500000000001
  0
LWPOLYLINE
  5
154
330
12D
100
AcDbEntity
  8
AM_4
100
AcDbPolyline
 90
        3
 70
     0
 43
0.0
 10
1.243903700151693
 20
-0.2187499999999999
 10
1.274451042662265
 20
-0.1643083897258503
 10
1.303125
 20
-0.1093749999999999
  0
ELLIPSE
  5
155
330
12D
100
AcDbEntity
  8
AM_4
100
AcDbEllipse
 10
1.1390625
 20
-0.0000000000000002
 30
0.0
 11
-4.018372309702258E-17
 21
-0.2187500000000003
 31
0.0
210
0.0
220
0.0
230
1.0
 40
0.8660254037844388
 41
2.108622323974791
 42
7.316155636794592
  0
ELLIPSE
  5
156
330
12D
100
AcDbEntity
  8
AM_4
100
AcDbEllipse
 10
1.1390625
 20
0.0000000000000001
 30
0.0
 11
-3.926523799766198E-17
 21
-0.2137499999999999
 31
0.0
210
0.0
220
0.0
230
1.0
 40
0.8660254037844385
 41
2.155305801354445
 42
7.269472159414935
  0
LINE
  5
157
330
12D
100
AcDbEntity
  8
AM_4
100
AcDbLine
 10
1.243903700151693
 20
-0.2187499999999999
 30
0.0
 11
0.9842212998483073
 21
-0.2187499999999999
 31
0.0
  0
LWPOLYLINE
  5
158
330
12D
100
AcDbEntity
  8
AM_4
100
AcDbPolyline
 90
        3
 70
     0
 43
0.0
 10
0.9750000000000001
 20
-0.1093749999999999
 10
1.001147059607483
 20
-0.1640624999999999
 10
1.025153700151693
 20
-0.2187499999999999
  0
LWPOLYLINE
  5
159
330
12D
100
AcDbEntity
  8
AM_4
100
AcDbPolyline
 90
        3
 70
     0
 43
0.0
 10
0.915778700151693
 20
0.0000000000000001
 10
0.9463260426622649
 20
-0.0544416102741494
 10
0.9750000000000001
 20
-0.1093749999999999
  0
LWPOLYLINE
  5
15A
330
12D
100
AcDbEntity
  8
AM_4
100
AcDbPolyline
 90
        3
 70
     0
 43
0.0
 10
0.9250000000000002
 20
-0.1093749999999999
 10
0.8988529403925174
 20
-0.0546874999999999
 10
0.8748462998483074
 20
0.0000000000000001
  0
LWPOLYLINE
  5
15B
330
12D
100
AcDbEntity
  8
AM_4
100
AcDbPolyline
 90
        3
 70
     0
 43
0.0
 10
0.9842212998483073
 20
-0.2187499999999999
 10
0.9536739573377353
 20
-0.1643083897258503
 10
0.9250000000000002
 20
-0.1093749999999999
  0
LINE
  5
15C
330
12D
100
AcDbEntity
  8
AM_4
100
AcDbLine
 10
0.915778700151693
 20
0.0000000000000001
 30
0.0
 11
0.8748462998483074
 21
0.0000000000000001
 31
0.0
  0
LWPOLYLINE
  5
15D
330
12D
100
AcDbEntity
  8
AM_4
100
AcDbPolyline
 90
        3
 70
     0
 43
0.0
 10
0.9750000000000001
 20
0.109375
 10
0.9464595596074827
 20
0.0546875000000001
 10
0.915778700151693
 20
0.0000000000000001
  0
LWPOLYLINE
  5
15E
330
12D
100
AcDbEntity
  8
AM_4
100
AcDbPolyline
 90
        3
 70
     0
 43
0.0
 10
1.025153700151693
 20
0.2187500000000001
 10
1.001259432388115
 20
0.1643083897258505
 10
0.9750000000000001
 20
0.109375
  0
LINE
  5
15F
330
12D
100
AcDbEntity
  8
AM_4
100
AcDbLine
 10
1.243903700151693
 20
0.2187500000000001
 30
0.0
 11
0.9842212998483073
 21
0.2187500000000001
 31
0.0
  0
LWPOLYLINE
  5
160
330
12D
100
AcDbEntity
  8
AM_4
100
AcDbPolyline
 90
        3
 70
     0
 43
0.0
 10
0.9250000000000002
 20
0.1093750000000001
 10
0.9535404403925173
 20
0.1640625000000001
 10
0.9842212998483073
 20
0.2187500000000001
  0
LWPOLYLINE
  5
161
330
12D
100
AcDbEntity
  8
AM_4
100
AcDbPolyline
 90
        3
 70
     0
 43
0.0
 10
0.8748462998483074
 20
0.0000000000000001
 10
0.8987405676118849
 20
0.0544416102741497
 10
0.9250000000000002
 20
0.1093750000000001
  0
ELLIPSE
  5
162
330
12D
100
AcDbEntity
  8
AM_4
100
AcDbEllipse
 10
1.148221599270441
 20
0.0000000000000002
 30
0.0
 11
-3.169399141454458E-17
 21
-0.1725340532830155
 31
0.0
210
0.0
220
0.0
230
1.0
 40
0.8660254037844385
 41
2.468322243442294
 42
6.956455717327087
  0
ELLIPSE
  5
163
330
12D
100
AcDbEntity
  8
AM_4
100
AcDbEllipse
 10
1.175439060809287
 20
0.0000000000000001
 30
0.0
 11
-2.182689656893355E-17
 21
-0.1188200907348975
 31
0.0
210
0.0
220
0.0
230
1.0
 40
0.8660254037844438
 41
3.089421211179212
 42
6.335356749590169
  0
ELLIPSE
  5
164
330
12D
100
AcDbEntity
  8
AM_4
100
AcDbEllipse
 10
1.1915625
 20
0.0000000000000002
 30
0.0
 11
-1.928818708657083E-17
 21
-0.1050000000000001
 31
0.0
210
0.0
220
0.0
230
1.0
 40
0.86602540378444
 41
3.566671979498146
 42
5.858105981271235
  0
LINE
  5
165
330
12D
100
AcDbEntity
  8
AM_4
100
AcDbLine
 10
1.1278125
 20
-0.0524999999999999
 30
0.0
 11
1.1353125
 21
-0.0674999999999999
 31
0.0
  0
LINE
  5
166
330
12D
100
AcDbEntity
  8
AM_4
100
AcDbLine
 10
1.1353125
 20
0.0675000000000002
 30
0.0
 11
1.1278125
 21
0.0525000000000002
 31
0.0
  0
ELLIPSE
  5
167
330
12D
100
AcDbEntity
  8
AM_4
100
AcDbEllipse
 10
1.236562500000004
 20
0.0000000000000001
 30
0.0
 11
-2.479909768273440E-17
 21
-0.1350000000000027
 31
0.0
210
0.0
220
0.0
230
1.0
 40
0.8660254037844485
 41
2.366483642874702
 42
7.058294317894678
  0
ELLIPSE
  5
168
330
12D
100
AcDbEntity
  8
AM_4
100
AcDbEllipse
 10
1.2065625
 20
0.0000000000000001
 30
0.0
 11
-1.928818708657088E-17
 21
-0.1050000000000004
 31
0.0
210
0.0
220
0.0
230
1.0
 40
0.8660254037844335
 41
4.188790204786393
 42
5.235987755982988
  0
LINE
  5
169
330
12D
100
AcDbEntity
  8
AM_4
100
AcDbLine
 10
1.338789347792107
 20
0.0733474205218688
 30
0.0
 11
1.318377810731619
 21
0.0964365416902992
 31
0.0
  0
LINE
  5
16A
330
12D
100
AcDbEntity
  8
AM_4
100
AcDbLine
 10
1.318377810731619
 20
-0.0964365416902989
 30
0.0
 11
1.338789347792107
 21
-0.0733474205218686
 31
0.0
  0
ELLIPSE
  5
16B
330
12D
100
AcDbEntity
  8
AM_4
100
AcDbEllipse
 10
1.276562499999998
 20
-0.0000000000000003
 30
0.0
 11
-1.886162459184680E-17
 21
-0.1026779019331887
 31
0.0
210
0.0
220
0.0
230
1.0
 40
0.8660254037844491
 41
0.0
 42
6.283185307179586
  0
ENDBLK
  5
130
330
12D
100
AcDbEntity
  8
0
100
AcDbBlockEnd
  0
BLOCK
  5
16E
330
16C
100
AcDbEntity
  8
0
100
AcDbBlockBegin
  2
6_023006H_0_in_023006_4
 70
     2
 10
0.0
 20
0.0
 30
0.0
  3
6_023006H_0_in_023006_4
  1

  0
ATTDEF
  5
170
330
16C
100
AcDbEntity
  8
AM_6
100
AcDbText
 10
8.9375
 20
1.1875
 30
0.0
 40
0.5
  1
P2B-E-Housing
100
AcDbAttributeDefinition
  3

  2
NN
 70
     8
280
     0
  0
ATTDEF
  5
171
330
16C
100
AcDbEntity
  8
AM_6
100
AcDbText
 10
8.9375
 20
0.6875
 30
0.0
 40
0.5
  1
Type E Pillow Block -Inch (2-Bolt Base)
100
AcDbAttributeDefinition
  3

  2
NT
 70
     8
280
     0
  0
ATTDEF
  5
172
330
16C
100
AcDbEntity
  8
AM_6
100
AcDbText
 10
8.9375
 20
0.1875
 30
0.0
 40
0.5
  1
023006H
100
AcDbAttributeDefinition
  3

  2
NB
 70
     8
280
     0
  0
ATTDEF
  5
173
330
16C
100
AcDbEntity
  8
AM_6
100
AcDbText
 10
8.9375
 20
-0.3125
 30
0.0
 40
0.5
  1
$PN.H
100
AcDbAttributeDefinition
  3

  2
NBSYN
 70
     8
280
     0
  0
ATTDEF
  5
174
330
16C
100
AcDbEntity
  8
AM_6
100
AcDbText
 10
8.9375
 20
-0.8125
 30
0.0
 40
0.5
  1
023006
100
AcDbAttributeDefinition
  3

  2
LINA
 70
     8
280
     0
  0
ATTDEF
  5
175
330
16C
100
AcDbEntity
  8
AM_6
100
AcDbText
 10
8.9375
 20
-1.3125
 30
0.0
 40
0.5
  1
1-11/16
100
AcDbAttributeDefinition
  3

  2
SS
 70
     8
280
     0
  0
ATTDEF
  5
176
330
16C
100
AcDbEntity
  8
AM_6
100
AcDbText
 10
8.9375
 20
-1.8125
 30
0.0
 40
0.5
  1
3.25
100
AcDbAttributeDefinition
  3

  2
BORE
 70
     8
280
     0
  0
ATTDEF
  5
177
330
16C
100
AcDbEntity
  8
AM_6
100
AcDbText
 10
8.9375
 20
-2.3125
 30
0.0
 40
0.5
  1
023006
100
AcDbAttributeDefinition
  3

  2
PN
 70
     8
280
     0
  0
ATTDEF
  5
178
330
16C
100
AcDbEntity
  8
AM_6
100
AcDbText
 10
8.9375
 20
-2.8125
 30
0.0
 40
0.5
  1
P2B-E-111R
100
AcDbAttributeDefinition
  3

  2
DESCRIPTION
 70
     8
280
     0
  0
ATTDEF
  5
179
330
16C
100
AcDbEntity
  8
AM_6
100
AcDbText
 10
8.9375
 20
-3.3125
 30
0.0
 40
0.5
  1
3-3/8
100
AcDbAttributeDefinition
  3

  2
A
 70
     8
280
     0
  0
ATTDEF
  5
17A
330
16C
100
AcDbEntity
  8
AM_6
100
AcDbText
 10
8.9375
 20
-3.8125
 30
0.0
 40
0.5
  1
7-7/8
100
AcDbAttributeDefinition
  3

  2
B
 70
     8
280
     0
  0
ATTDEF
  5
17B
330
16C
100
AcDbEntity
  8
AM_6
100
AcDbText
 10
8.9375
 20
-4.3125
 30
0.0
 40
0.5
  1
2-3/8
100
AcDbAttributeDefinition
  3

  2
C
 70
     8
280
     0
  0
ATTDEF
  5
17C
330
16C
100
AcDbEntity
  8
AM_6
100
AcDbText
 10
8.9375
 20
-4.8125
 30
0.0
 40
0.5
  1
6-1/8
100
AcDbAttributeDefinition
  3

  2
DMIN
 70
     8
280
     0
  0
ATTDEF
  5
17D
330
16C
100
AcDbEntity
  8
AM_6
100
AcDbText
 10
8.9375
 20
-5.3125
 30
0.0
 40
0.5
  1
6-3/8
100
AcDbAttributeDefinition
  3

  2
DMAX
 70
     8
280
     0
  0
ATTDEF
  5
17E
330
16C
100
AcDbEntity
  8
AM_6
100
AcDbText
 10
8.9375
 20
-5.8125
 30
0.0
 40
0.5
  1
1/2
100
AcDbAttributeDefinition
  3

  2
F
 70
     8
280
     0
  0
ATTDEF
  5
17F
330
16C
100
AcDbEntity
  8
AM_6
100
AcDbText
 10
8.9375
 20
-6.3125
 30
0.0
 40
0.5
  1
0.5000000
100
AcDbAttributeDefinition
  3

  2
F1
 70
     8
280
     0
  0
ATTDEF
  5
180
330
16C
100
AcDbEntity
  8
AM_6
100
AcDbText
 10
8.9375
 20
-6.8125
 30
0.0
 40
0.5
  1
3/4
100
AcDbAttributeDefinition
  3

  2
G
 70
     8
280
     0
  0
ATTDEF
  5
181
330
16C
100
AcDbEntity
  8
AM_6
100
AcDbText
 10
8.9375
 20
-7.3125
 30
0.0
 40
0.5
  1
1-1/4
100
AcDbAttributeDefinition
  3

  2
H
 70
     8
280
     0
  0
ATTDEF
  5
182
330
16C
100
AcDbEntity
  8
AM_6
100
AcDbText
 10
8.9375
 20
-7.8125
 30
0.0
 40
0.5
  1
4-1/4
100
AcDbAttributeDefinition
  3

  2
J
 70
     8
280
     0
  0
ATTDEF
  5
183
330
16C
100
AcDbEntity
  8
AM_6
100
AcDbText
 10
8.9375
 20
-8.3125
 30
0.0
 40
0.5
  1
4-15/32
100
AcDbAttributeDefinition
  3

  2
J1
 70
     8
280
     0
  0
ATTDEF
  5
184
330
16C
100
AcDbEntity
  8
AM_6
100
AcDbText
 10
8.9375
 20
-8.8125
 30
0.0
 40
0.5
  1
3-3/16
100
AcDbAttributeDefinition
  3

  2
L
 70
     8
280
     0
  0
ATTDEF
  5
185
330
16C
100
AcDbEntity
  8
AM_6
100
AcDbText
 10
8.9375
 20
-9.3125
 30
0.0
 40
0.5
  1
2-1/8
100
AcDbAttributeDefinition
  3

  2
M
 70
     8
280
     0
  0
ATTDEF
  5
186
330
16C
100
AcDbEntity
  8
AM_6
100
AcDbText
 10
8.9375
 20
-9.8125
 30
0.0
 40
0.5
  1
baldor
100
AcDbAttributeDefinition
  3

  2
COMPANY
 70
     8
280
     0
  0
LINE
  5
187
330
16C
100
AcDbEntity
  8
AM_9
100
AcDbLine
 10
1.625
 20
-1.1875
 30
0.0
 11
1.625
 21
1.1875
 31
0.0
  0
LINE
  5
188
330
16C
100
AcDbEntity
  8
AM_9
100
AcDbLine
 10
-1.625
 20
1.1875
 30
0.0
 11
-1.625
 21
-1.1875
 31
0.0
  0
LINE
  5
189
330
16C
100
AcDbEntity
  8
AM_9
100
AcDbLine
 10
1.072287473405409
 20
0.4998718836972577
 30
0.0
 11
1.06251301480773
 21
0.5000000197741526
 31
0.0
  0
LWPOLYLINE
  5
18A
330
16C
100
AcDbEntity
  8
AM_9
100
AcDbPolyline
 90
       11
 70
     0
 43
0.0
 10
1.423076769275397
 20
0.2311567516240579
 10
1.414324971758656
 20
0.2519947196704393
 10
1.390978504300948
 20
0.2980931053390097
 10
1.363543177598074
 20
0.340660474337585
 10
1.332387210079594
 20
0.3789562635514064
 10
1.296805219740103
 20
0.4132757501072002
 10
1.257682504279606
 20
0.4424708243358172
 10
1.215630733512858
 20
0.4659750968245227
 10
1.171216527662206
 20
0.4833555828685935
 10
1.124551773323515
 20
0.4946904380080699
 10
1.078324115830377
 20
0.4996643692995503
  0
LWPOLYLINE
  5
18B
330
16C
100
AcDbEntity
  8
AM_9
100
AcDbPolyline
 90
       11
 70
     0
 43
0.0
 10
1.42435319774225
 20
-0.227902814076806
 10
1.424544840797711
 20
-0.2274090158565712
 10
1.441773102678405
 20
-0.1756740497132254
 10
1.454469540117387
 20
-0.1214436881975552
 10
1.462443094306716
 20
-0.065770675331864
 10
1.465573075136303
 20
-0.0105319690393471
 10
1.464141912579595
 20
0.0450216417052082
 10
1.458171209758246
 20
0.0998169774215112
 10
1.447819600189123
 20
0.1525663432131887
 10
1.433137139179872
 20
0.2035936060056854
 10
1.423076769275397
 20
0.2311567516240579
  0
LWPOLYLINE
  5
18C
330
16C
100
AcDbEntity
  8
AM_9
100
AcDbPolyline
 90
       11
 70
     0
 43
0.0
 10
1.062489256396409
 20
-0.5000000198461005
 10
1.106638665219883
 20
-0.4973588042058411
 10
1.152420003988819
 20
-0.4887371800092064
 10
1.196568309041929
 20
-0.4742654059941177
 10
1.238336166995344
 20
-0.4542301348485087
 10
1.277701846888664
 20
-0.4285292353094817
 10
1.314112717533524
 20
-0.3976238250200522
 10
1.347046349368144
 20
-0.3620700003852341
 10
1.376953743173688
 20
-0.3211054723126689
 10
1.402906578320627
 20
-0.2759472395361237
 10
1.42435319774225
 20
-0.227902814076806
  0
ELLIPSE
  5
18D
330
16C
100
AcDbEntity
  8
AM_9
100
AcDbEllipse
 10
1.064062499884439
 20
-0.0000000000054381
 30
0.0
 11
-9.184851361099090E-17
 21
-0.5000000200054384
 31
0.0
210
0.0
220
0.0
230
1.0
 40
0.8660254037843825
 41
3.128012726141657
 42
3.143320414401107
  0
ELLIPSE
  5
18E
330
16C
100
AcDbEntity
  8
AM_9
100
AcDbEllipse
 10
1.064062499880469
 20
0.0000000000000002
 30
0.0
 11
-9.184851360999194E-17
 21
-0.5000000200000003
 31
0.0
210
0.0
220
0.0
230
1.0
 40
0.8660254037844375
 41
0.0550813351702795
 42
2.986503917740431
  0
ELLIPSE
  5
18F
330
16C
100
AcDbEntity
  8
AM_9
100
AcDbEllipse
 10
1.064062499880484
 20
0.0000000000004373
 30
0.0
 11
-9.184851361007221E-17
 21
-0.5000000200004373
 31
0.0
210
0.0
220
0.0
230
1.0
 40
0.8660254037844387
 41
0.0014958296968821
 42
0.0394357829268004
  0
LINE
  5
190
330
16C
100
AcDbEntity
  8
AM_7
100
AcDbLine
 10
3.0625
 20
-0.3281250000000001
 30
0.0
 11
3.0625
 21
0.3281249999999999
 31
0.0
  0
LINE
  5
191
330
16C
100
AcDbEntity
  8
AM_7
100
AcDbLine
 10
-3.1875
 20
-0.3281250000000001
 30
0.0
 11
-3.1875
 21
0.3281249999999999
 31
0.0
  0
LINE
  5
192
330
16C
100
AcDbEntity
  8
AM_7
100
AcDbLine
 10
2.614062501696875
 20
0.0000000000000002
 30
0.0
 11
3.860937501696875
 21
0.0000000000000002
 31
0.0
  0
LINE
  5
193
330
16C
100
AcDbEntity
  8
AM_7
100
AcDbLine
 10
3.237500001696875
 20
-0.6234374999999999
 30
0.0
 11
3.237500001696875
 21
0.6234375000000001
 31
0.0
  0
LINE
  5
194
330
16C
100
AcDbEntity
  8
AM_7
100
AcDbLine
 10
-3.0625
 20
-0.3281250000000001
 30
0.0
 11
-3.0625
 21
0.3281249999999999
 31
0.0
  0
LINE
  5
195
330
16C
100
AcDbEntity
  8
AM_7
100
AcDbLine
 10
-3.860937501696875
 20
0.0
 30
0.0
 11
-2.614062501696874
 21
0.0
 31
0.0
  0
LINE
  5
196
330
16C
100
AcDbEntity
  8
AM_7
100
AcDbLine
 10
-3.237500001696874
 20
-0.6234375
 30
0.0
 11
-3.237500001696874
 21
0.6234375
 31
0.0
  0
LINE
  5
197
330
16C
100
AcDbEntity
  8
AM_7
100
AcDbLine
 10
3.187499999999999
 20
-0.328125
 30
0.0
 11
3.187499999999999
 21
0.328125
 31
0.0
  0
LWPOLYLINE
  5
198
330
16C
100
AcDbEntity
  8
AM_4
100
AcDbPolyline
 90
       18
 70
     0
 43
0.0
 10
-3.839222865041322
 20
1.185721895329604
 10
-3.849339732026966
 20
1.183492454194245
 10
-3.8592237926813
 20
1.18038975369908
 10
-3.868799823334584
 20
1.176437407268339
 10
-3.877994944611383
 20
1.171665494644851
 10
-3.886739176086613
 20
1.166110332965041
 10
-3.894965968878837
 20
1.159814200363591
 10
-3.902612712127433
 20
1.152825014211306
 10
-3.90962120949905
 20
1.145195966434992
 10
-3.915938122096842
 20
1.136985118694771
 10
-3.921515374401684
 20
1.128254960499791
 10
-3.9263105201559
 20
1.119071933625331
 10
-3.930287065404912
 20
1.109505926450767
 10
-3.933414746238272
 20
1.099629742066812
 10
-3.93566975911629
 20
1.089518544200031
 10
-3.937034942029354
 20
1.079249285171497
 10
-3.937499905111173
 20
1.068900120243167
 10
-3.9375
 20
1.068750000000002
  0
LWPOLYLINE
  5
199
330
16C
100
AcDbEntity
  8
AM_4
100
AcDbPolyline
 90
       18
 70
     0
 43
0.0
 10
-3.9375
 20
-1.068750000000002
 10
-3.937048120398394
 20
-1.079099744451286
 10
-3.935695920670199
 20
-1.08937072109795
 10
-3.933453691871827
 20
-1.099484761605926
 10
-3.930338498718326
 20
-1.109364892019924
 10
-3.926374049710601
 20
-1.118935918581709
 10
-3.921590516699401
 20
-1.128125000000001
 10
-3.916024305259317
 20
-1.136862201816688
 10
-3.909717777620378
 20
-1.145081028650278
 10
-3.902718930265901
 20
-1.152718930265904
 10
-3.895081028650276
 20
-1.15971777762038
 10
-3.886862201816686
 20
-1.166024305259319
 10
-3.878124999999998
 20
-1.171590516699403
 10
-3.868935918581707
 20
-1.176374049710603
 10
-3.859364892019922
 20
-1.180338498718327
 10
-3.849484761605923
 20
-1.183453691871827
 10
-3.839370721097947
 20
-1.1856959206702
 10
-3.839222865041324
 20
-1.185721895329604
  0
LINE
  5
19A
330
16C
100
AcDbEntity
  8
AM_4
100
AcDbLine
 10
-3.9375
 20
-1.068750000000001
 30
0.0
 11
-3.9375
 21
1.068750000000001
 31
0.0
  0
LWPOLYLINE
  5
19B
330
16C
100
AcDbEntity
  8
AM_4
100
AcDbPolyline
 90
       18
 70
     0
 43
0.0
 10
3.9375
 20
1.068750000000001
 10
3.937048120398395
 20
1.079099744451285
 10
3.9356959206702
 20
1.089370721097948
 10
3.933453691871827
 20
1.099484761605925
 10
3.930338498718327
 20
1.109364892019924
 10
3.926374049710602
 20
1.118935918581708
 10
3.921590516699402
 20
1.128125
 10
3.916024305259318
 20
1.136862201816687
 10
3.909717777620379
 20
1.145081028650277
 10
3.902718930265902
 20
1.152718930265903
 10
3.895081028650277
 20
1.159717777620379
 10
3.886862201816687
 20
1.166024305259318
 10
3.878125
 20
1.171590516699402
 10
3.868935918581708
 20
1.176374049710602
 10
3.859364892019923
 20
1.180338498718327
 10
3.849484761605924
 20
1.183453691871827
 10
3.839370721097948
 20
1.1856959206702
 10
3.839222853365014
 20
1.185721897373235
  0
LWPOLYLINE
  5
19C
330
16C
100
AcDbEntity
  8
AM_4
100
AcDbPolyline
 90
       18
 70
     0
 43
0.0
 10
3.839222853365013
 20
-1.185721897373235
 10
3.849339720573203
 20
-1.183492457247757
 10
3.859223781537252
 20
-1.180389757739234
 10
3.868799812585066
 20
-1.176437412264386
 10
3.877994934338203
 20
-1.171665500558769
 10
3.886739166367959
 20
-1.166110339751821
 10
3.894965959788672
 20
-1.159814207971582
 10
3.90261270373494
 20
-1.152825022582607
 10
3.909621201868098
 20
-1.145195975505891
 10
3.91593811528551
 20
-1.136985128396234
 10
3.92151536846181
 20
-1.128254970757984
 10
3.926310515132689
 20
-1.119071944362182
 10
3.930287061336594
 20
-1.109505937584564
 10
3.933414743155808
 20
-1.099629753512818
 10
3.935669757043143
 20
-1.089518555871136
 10
3.937034940981299
 20
-1.079249296978877
 10
3.937499905096187
 20
-1.06890013209696
 10
3.9375
 20
-1.06875
  0
LINE
  5
19D
330
16C
100
AcDbEntity
  8
AM_4
100
AcDbLine
 10
3.9375
 20
-1.068750000000001
 30
0.0
 11
3.9375
 21
1.06875
 31
0.0
  0
ARC
  5
19E
330
16C
100
AcDbEntity
  8
AM_4
100
AcDbCircle
 10
3.237500001696875
 20
0.0
 30
0.0
 40
0.59375
100
AcDbArc
 50
270.0
 51
90.0
  0
LINE
  5
19F
330
16C
100
AcDbEntity
  8
AM_4
100
AcDbLine
 10
3.187499999999999
 20
0.3124999999999999
 30
0.0
 11
3.0625
 21
0.3124999999999999
 31
0.0
  0
LINE
  5
1A0
330
16C
100
AcDbEntity
  8
AM_4
100
AcDbLine
 10
3.0625
 20
-0.3125000000000001
 30
0.0
 11
3.187499999999999
 21
-0.3125000000000001
 31
0.0
  0
ARC
  5
1A1
330
16C
100
AcDbEntity
  8
AM_4
100
AcDbCircle
 10
3.0625
 20
0.0
 30
0.0
 40
0.3125
100
AcDbArc
 50
90.0
 51
270.0
  0
LINE
  5
1A2
330
16C
100
AcDbEntity
  8
AM_4
100
AcDbLine
 10
3.237500001696875
 20
0.59375
 30
0.0
 11
2.565599739254476
 21
0.59375
 31
0.0
  0
LINE
  5
1A3
330
16C
100
AcDbEntity
  8
AM_4
100
AcDbLine
 10
2.565599739254477
 20
-0.59375
 30
0.0
 11
3.237500001696875
 21
-0.59375
 31
0.0
  0
ARC
  5
1A4
330
16C
100
AcDbEntity
  8
AM_4
100
AcDbCircle
 10
3.187499999999999
 20
-0.0000000000000001
 30
0.0
 40
0.3125
100
AcDbArc
 50
270.0
 51
90.0
  0
ARC
  5
1A5
330
16C
100
AcDbEntity
  8
AM_4
100
AcDbCircle
 10
-3.0625
 20
0.0
 30
0.0
 40
0.3124999999999999
100
AcDbArc
 50
270.0
 51
90.0
  0
LINE
  5
1A6
330
16C
100
AcDbEntity
  8
AM_4
100
AcDbLine
 10
-3.1875
 20
-0.3124999999999999
 30
0.0
 11
-3.0625
 21
-0.3124999999999999
 31
0.0
  0
LINE
  5
1A7
330
16C
100
AcDbEntity
  8
AM_4
100
AcDbLine
 10
-3.237500001696875
 20
-0.5937499999999999
 30
0.0
 11
-2.565599739254476
 21
-0.5937500000000001
 31
0.0
  0
ARC
  5
1A8
330
16C
100
AcDbEntity
  8
AM_4
100
AcDbCircle
 10
-3.237500001696874
 20
0.0
 30
0.0
 40
0.5937499999999999
100
AcDbArc
 50
90.0
 51
270.0
  0
ARC
  5
1A9
330
16C
100
AcDbEntity
  8
AM_4
100
AcDbCircle
 10
-3.1875
 20
-0.0000000000000001
 30
0.0
 40
0.3124999999999999
100
AcDbArc
 50
90.0
 51
270.0
  0
LINE
  5
1AA
330
16C
100
AcDbEntity
  8
AM_4
100
AcDbLine
 10
-3.0625
 20
0.3124999999999998
 30
0.0
 11
-3.1875
 21
0.3124999999999998
 31
0.0
  0
LINE
  5
1AB
330
16C
100
AcDbEntity
  8
AM_4
100
AcDbLine
 10
-2.565599739254475
 20
0.5937499999999999
 30
0.0
 11
-3.237500001696875
 21
0.5937499999999999
 31
0.0
  0
LINE
  5
1AC
330
16C
100
AcDbEntity
  8
AM_4
100
AcDbLine
 10
-3.818750000000001
 20
1.1875
 30
0.0
 11
3.81875
 21
1.1875
 31
0.0
  0
LINE
  5
1AD
330
16C
100
AcDbEntity
  8
AM_4
100
AcDbLine
 10
-3.81875
 20
-1.1875
 30
0.0
 11
3.818750000000001
 21
-1.1875
 31
0.0
  0
LINE
  5
1AE
330
16C
100
AcDbEntity
  8
AM_4
100
AcDbLine
 10
-3.839222865041317
 20
1.185721895329605
 30
0.0
 11
-3.818750000000001
 21
1.1875
 31
0.0
  0
LINE
  5
1AF
330
16C
100
AcDbEntity
  8
AM_4
100
AcDbLine
 10
-3.839222865041318
 20
-1.185721895329604
 30
0.0
 11
-3.839222865041318
 21
1.185721895329604
 31
0.0
  0
LINE
  5
1B0
330
16C
100
AcDbEntity
  8
AM_4
100
AcDbLine
 10
-3.81875
 20
-1.1875
 30
0.0
 11
-3.839222865041318
 21
-1.185721895329605
 31
0.0
  0
LINE
  5
1B1
330
16C
100
AcDbEntity
  8
AM_4
100
AcDbLine
 10
-2.565599739254476
 20
-0.5937500000000001
 30
0.0
 11
-2.565599739254475
 21
0.5937499999999999
 31
0.0
  0
LINE
  5
1B2
330
16C
100
AcDbEntity
  8
AM_4
100
AcDbLine
 10
3.81875
 20
1.1875
 30
0.0
 11
3.839222853365008
 21
1.185721897373236
 31
0.0
  0
LINE
  5
1B3
330
16C
100
AcDbEntity
  8
AM_4
100
AcDbLine
 10
3.839222853365008
 20
-1.185721897373236
 30
0.0
 11
3.818749999999998
 21
-1.1875
 31
0.0
  0
LINE
  5
1B4
330
16C
100
AcDbEntity
  8
AM_4
100
AcDbLine
 10
3.839222853365008
 20
-1.185721897373235
 30
0.0
 11
3.839222853365008
 21
1.185721897373235
 31
0.0
  0
LINE
  5
1B5
330
16C
100
AcDbEntity
  8
AM_4
100
AcDbLine
 10
2.565599739254476
 20
0.59375
 30
0.0
 11
2.565599739254477
 21
-0.59375
 31
0.0
  0
LINE
  5
1B6
330
16C
100
AcDbEntity
  8
AM_4
100
AcDbLine
 10
2.175435576086618
 20
-1.1875
 30
0.0
 11
2.175435576086618
 21
1.1875
 31
0.0
  0
LINE
  5
1B7
330
16C
100
AcDbEntity
  8
AM_4
100
AcDbLine
 10
-2.175435587618709
 20
-1.1875
 30
0.0
 11
-2.175435587618709
 21
1.1875
 31
0.0
  0
LINE
  5
1B8
330
16C
100
AcDbEntity
  8
AM_4
100
AcDbLine
 10
1.062464614253578
 20
-0.50000002
 30
0.0
 11
1.06406249988047
 21
-0.50000002
 31
0.0
  0
LINE
  5
1B9
330
16C
100
AcDbEntity
  8
AM_4
100
AcDbLine
 10
1.06406249988047
 20
0.5000000200000002
 30
0.0
 11
1.062423490081503
 21
0.5000000200000002
 31
0.0
  0
LWPOLYLINE
  5
1BA
330
16C
100
AcDbEntity
  8
AM_4
100
AcDbPolyline
 90
       15
 70
     0
 43
0.0
 10
1.06251301480773
 20
0.5000000197741526
 10
1.028685930884949
 20
0.4984497079376939
 10
0.9804482830596501
 20
0.4911303647995446
 10
0.9327303150043447
 20
0.4779304975653517
 10
0.8862278225097364
 20
0.459006204386214
 10
0.8412131830663861
 20
0.434585461804916
 10
0.7985629662700096
 20
0.4051221229331609
 10
0.757937031719149
 20
0.3700264021853273
 10
0.720721533414946
 20
0.3302596625718176
 10
0.6876983686709673
 20
0.2865273701675334
 10
0.658940097999442
 20
0.2383810255689502
 10
0.6353343212943219
 20
0.1869590691669346
 10
0.6174585850308363
 20
0.1332311905375286
 10
0.6041641603896466
 20
0.0672546459474499
 10
0.5996567559825067
 20
0.0000000000000001
  0
ELLIPSE
  5
1BB
330
16C
100
AcDbEntity
  8
AM_4
100
AcDbEllipse
 10
1.06406249988047
 20
0.0000000000000006
 30
0.0
 11
-9.184851360999202E-17
 21
-0.5000000200000008
 31
0.0
210
0.0
220
0.0
230
1.0
 40
0.8660254037844385
 41
3.143320414391853
 42
6.284681136876468
  0
ELLIPSE
  5
1BC
330
16C
100
AcDbEntity
  8
AM_4
100
AcDbEllipse
 10
1.08906249988047
 20
0.0000000000000001
 30
0.0
 11
2.755455420546226E-17
 21
0.4500000200000002
 31
0.0
210
0.0
220
0.0
230
1.0
 40
0.8660254037844387
 41
0.0
 42
6.283185307179586
  0
LWPOLYLINE
  5
1BD
330
16C
100
AcDbEntity
  8
AM_4
100
AcDbPolyline
 90
       47
 70
     0
 43
0.0
 10
1.064723641282322
 20
-0.4999994559894385
 10
1.069195556926891
 20
-0.4999660210608322
 10
1.099911020447419
 20
-0.4983390206702547
 10
1.130437945077517
 20
-0.4942822516758072
 10
1.160630755118359
 20
-0.4878174469502062
 10
1.190347054981885
 20
-0.4789763051466476
 10
1.219446384149008
 20
-0.4678005131137418
 10
1.247790402599031
 20
-0.4543418986364306
 10
1.275243234554668
 20
-0.4386626622100023
 10
1.301671997711983
 20
-0.4208356032952273
 10
1.326947509978734
 20
-0.400944257307137
 10
1.350945134638144
 20
-0.3790828757596092
 10
1.373545703917174
 20
-0.3553562088094143
 10
1.394636453184348
 20
-0.329879080206486
 10
1.41411190307792
 20
-0.3027757725430872
 10
1.431874641509428
 20
-0.2741792606224594
 10
1.447835976860876
 20
-0.2442303404833929
 10
1.46191645298092
 20
-0.2130767017151059
 10
1.474046232250176
 20
-0.1808719837605307
 10
1.484165363314489
 20
-0.1477748462791146
 10
1.49222395503793
 20
-0.1139480723514866
 10
1.498182278871437
 20
-0.0795577134477629
 10
1.502010819683767
 20
-0.044772277660216
 10
1.503690291606411
 20
-0.0097619578412961
 10
1.503211631690983
 20
0.0253021064495854
 10
1.500575992740269
 20
0.0602484285701743
 10
1.495794783387639
 20
0.0949056917542316
 10
1.488889583087718
 20
0.1291040871222371
 10
1.479892121568752
 20
0.1626756036738377
 10
1.468844263525254
 20
0.1954547308449976
 10
1.455797987406736
 20
0.2272791854080722
 10
1.440815349972181
 20
0.2579906736822318
 10
1.423968423019183
 20
0.287435699645059
 10
1.405339182565376
 20
0.3154664270159291
 10
1.385019324552067
 20
0.3419415979680861
 10
1.363109976270851
 20
0.3667275021736112
 10
1.339721271141322
 20
0.3896989774182611
 10
1.314971758351078
 20
0.4107404081716076
 10
1.288987629911264
 20
0.4297466737724127
 10
1.261901766252739
 20
0.4466239870384419
 10
1.233852625830776
 20
0.4612905613666563
 10
1.204983030162599
 20
0.4736770531309912
 10
1.175438917374179
 20
0.4837267474026886
 10
1.145368148574929
 20
0.4913954862766891
 10
1.114919447937992
 20
0.4966513746064292
 10
1.084241538422286
 20
0.4994743299934556
 10
1.063302825036899
 20
0.4999992753467365
  0
LINE
  5
1BE
330
16C
100
AcDbEntity
  8
AM_4
100
AcDbLine
 10
-2.122340978919554
 20
-1.1875
 30
0.0
 11
-2.122340978919554
 21
1.1875
 31
0.0
  0
LINE
  5
1BF
330
16C
100
AcDbEntity
  8
AM_4
100
AcDbLine
 10
2.122340978919555
 20
-1.1875
 30
0.0
 11
2.122340978919555
 21
1.1875
 31
0.0
  0
LWPOLYLINE
  5
1C0
330
16C
100
AcDbEntity
  8
AM_4
100
AcDbPolyline
 90
       16
 70
     0
 43
0.0
 10
0.5996567559825067
 20
0.0000000000000001
 10
0.6027139265514267
 20
-0.0551725614855435
 10
0.6117329690432765
 20
-0.1098134709208805
 10
0.6264851796356902
 20
-0.1628868573764616
 10
0.6468110150830956
 20
-0.2138292434982812
 10
0.6723438961794195
 20
-0.2622718240572557
 10
0.7025087519438691
 20
-0.3073646917110975
 10
0.737621432326379
 20
-0.3493737695074356
 10
0.7767017703728507
 20
-0.387162551931476
 10
0.8189328679852691
 20
-0.4200514358962673
 10
0.864432055786416
 20
-0.4479727602331308
 10
0.9121481305210151
 20
-0.4702821482348926
 10
0.9610805884113147
 20
-0.4865239334273102
 10
1.009785623398064
 20
-0.4962996502051972
 10
1.05862833714226
 20
-0.4999372433364132
 10
1.062489256396409
 20
-0.5000000198461005
  0
ENDBLK
  5
16F
330
16C
100
AcDbEntity
  8
0
100
AcDbBlockEnd
  0
ENDSEC
  0
SECTION
  2
ENTITIES
  0
INSERT
  5
6F
330
1F
100
AcDbEntity
  8
0
100
AcDbBlockReference
  2
1_023006_4
 10
0.0
 20
0.0
 30
0.0
  0
POINT
  5
1C2
330
1F
100
AcDbEntity
  8
ConnectionPoints
100
AcDbPoint
 10
0.0
 20
-1.69
 30
0.0000000000000001
  0
POINT
  5
1C3
330
1F
100
AcDbEntity
  8
ConnectionPoints
100
AcDbPoint
 10
0.0
 20
-1.69
 30
0.0000000000000001
  0
POINT
  5
1C4
330
1F
100
AcDbEntity
  8
ConnectionPoints
100
AcDbPoint
 10
0.0
 20
1.69
 30
-0.0000000000000001
  0
POINT
  5
1C5
330
1F
100
AcDbEntity
  8
ConnectionPoints
100
AcDbPoint
 10
0.0
 20
0.0
 30
0.0
  0
POINT
  5
1C6
330
1F
100
AcDbEntity
  8
ConnectionPoints
100
AcDbPoint
 10
1.0890625
 20
0.0000000000000001
 30
1.88631158261798
  0
POINT
  5
1C7
330
1F
100
AcDbEntity
  8
ConnectionPoints
100
AcDbPoint
 10
1.0890625
 20
0.0000000000000001
 30
1.88631158261798
  0
POINT
  5
1C8
330
1F
100
AcDbEntity
  8
ConnectionPoints
100
AcDbPoint
 10
0.0
 20
0.0
 30
0.0
  0
ENDSEC
  0
SECTION
  2
OBJECTS
  0
DICTIONARY
  5
C
330
0
100
AcDbDictionary
281
     1
  3
ACAD_DETAILVIEWSTYLE
350
1D0
  3
ACAD_GROUP
350
D
  3
ACAD_LAYOUT
350
1A
  3
ACAD_MATERIAL
350
43
  3
ACAD_MLEADERSTYLE
350
6B
  3
ACAD_MLINESTYLE
350
17
  3
ACAD_PLOTSETTINGS
350
19
  3
ACAD_PLOTSTYLENAME
350
E
  3
ACAD_SCALELIST
350
47
  3
ACAD_SECTIONVIEWSTYLE
350
1D1
  3
ACAD_TABLESTYLE
350
69
  3
ACAD_VISUALSTYLE
350
2A
  3
ACDB_RECOMPOSE_DATA
350
1CD
  3
AcDbVariableDictionary
350
1C9
  0
SUN
  5
6D
330
29
100
AcDbSun
 90
        1
290
     0
 63
     7
421
 16777215
 40
1.0
291
     1
 91
  2455826
 92
 54000000
292
     0
 70
     2
 71
   256
280
     1
  0
DICTIONARY
  5
1D0
102
{ACAD_REACTORS
330
C
102
}
330
C
100
AcDbDictionary
281
     1
  0
DICTIONARY
  5
D
102
{ACAD_REACTORS
330
C
102
}
330
C
100
AcDbDictionary
281
     1
  0
DICTIONARY
  5
1A
102
{ACAD_REACTORS
330
C
102
}
330
C
100
AcDbDictionary
281
     1
  3
Layout1
350
1E
  3
Layout2
350
26
  3
Model
350
22
  0
DICTIONARY
  5
43
102
{ACAD_REACTORS
330
C
102
}
330
C
100
AcDbDictionary
281
     1
  3
ByBlock
350
45
  3
ByLayer
350
44
  3
Global
350
46
  0
DICTIONARY
  5
6B
102
{ACAD_REACTORS
330
C
102
}
330
C
100
AcDbDictionary
281
     1
  3
Standard
350
6C
  0
DICTIONARY
  5
17
102
{ACAD_REACTORS
330
C
102
}
330
C
100
AcDbDictionary
281
     1
  3
Standard
350
18
  0
DICTIONARY
  5
19
102
{ACAD_REACTORS
330
C
102
}
330
C
100
AcDbDictionary
281
     1
  0
ACDBDICTIONARYWDFLT
  5
E
102
{ACAD_REACTORS
330
C
102
}
330
C
100
AcDbDictionary
281
     1
  3
Normal
350
F
100
AcDbDictionaryWithDefault
340
F
  0
DICTIONARY
  5
47
102
{ACAD_REACTORS
330
C
102
}
330
C
100
AcDbDictionary
281
     1
  3
A0
350
48
  3
A1
350
49
  3
A2
350
4A
  3
A3
350
4B
  3
A4
350
4C
  3
A5
350
4D
  3
A6
350
4E
  3
A7
350
4F
  3
A8
350
50
  3
A9
350
51
  3
B0
350
52
  3
B1
350
53
  3
B2
350
54
  3
B3
350
55
  3
B4
350
56
  3
B5
350
57
  3
B6
350
58
  3
B7
350
59
  3
B8
350
5A
  3
B9
350
5B
  3
C0
350
5C
  3
C1
350
5D
  3
C2
350
5E
  3
C3
350
5F
  3
C4
350
60
  3
C5
350
61
  3
C6
350
62
  3
C7
350
63
  3
C8
350
64
  3
C9
350
65
  3
D0
350
66
  3
D1
350
67
  3
D2
350
68
  0
DICTIONARY
  5
1D1
102
{ACAD_REACTORS
330
C
102
}
330
C
100
AcDbDictionary
281
     1
  0
DICTIONARY
  5
69
102
{ACAD_REACTORS
330
C
102
}
330
C
100
AcDbDictionary
281
     1
  3
Standard
350
6A
  0
DICTIONARY
  5
2A
102
{ACAD_REACTORS
330
C
102
}
330
C
100
AcDbDictionary
281
     1
  3
2dWireframe
350
2F
  3
Basic
350
32
  3
Brighten
350
36
  3
ColorChange
350
3A
  3
Conceptual
350
34
  3
Dim
350
35
  3
EdgeColorOff
350
3D
  3
Facepattern
350
39
  3
Flat
350
2B
  3
FlatWithEdges
350
2C
  3
Gouraud
350
2D
  3
GouraudWithEdges
350
2E
  3
Hidden
350
31
  3
JitterOff
350
3B
  3
Linepattern
350
38
  3
OverhangOff
350
3C
  3
Realistic
350
33
  3
Shaded
350
42
  3
Shaded with edges
350
41
  3
Shades of Gray
350
3E
  3
Sketchy
350
3F
  3
Thicken
350
37
  3
Wireframe
350
30
  3
X-Ray
350
40
  0
XRECORD
  5
1CD
102
{ACAD_REACTORS
330
C
102
}
330
C
100
AcDbXrecord
280
     1
 90
        1
330
6A
  0
DICTIONARY
  5
1C9
102
{ACAD_REACTORS
330
C
102
}
330
C
100
AcDbDictionary
281
     1
  3
CANNOSCALE
350
1CA
  3
CMLEADERSTYLE
350
1CF
  3
CTABLESTYLE
350
1CE
  0
LAYOUT
  5
1E
102
{ACAD_REACTORS
330
1A
102
}
330
1A
100
AcDbPlotSettings
  1

  2
none_device
  4

  6

 40
0.0
 41
0.0
 42
0.0
 43
0.0
 44
0.0
 45
0.0
 46
0.0
 47
0.0
 48
0.0
 49
0.0
140
0.0
141
0.0
142
1.0
143
1.0
 70
   688
 72
     0
 73
     0
 74
     5
  7

 75
    16
 76
     0
 77
     2
 78
   300
147
1.0
148
0.0
149
0.0
100
AcDbLayout
  1
Layout1
 70
     1
 71
     1
 10
0.0
 20
0.0
 11
12.0
 21
9.0
 12
0.0
 22
0.0
 32
0.0
 14
1.000000000000000E+20
 24
1.000000000000000E+20
 34
1.000000000000000E+20
 15
-1.000000000000000E+20
 25
-1.000000000000000E+20
 35
-1.000000000000000E+20
146
0.0
 13
0.0
 23
0.0
 33
0.0
 16
1.0
 26
0.0
 36
0.0
 17
0.0
 27
1.0
 37
0.0
 76
     0
330
1B
  0
LAYOUT
  5
26
102
{ACAD_REACTORS
330
1A
102
}
330
1A
100
AcDbPlotSettings
  1

  2
none_device
  4

  6

 40
0.0
 41
0.0
 42
0.0
 43
0.0
 44
0.0
 45
0.0
 46
0.0
 47
0.0
 48
0.0
 49
0.0
140
0.0
141
0.0
142
1.0
143
1.0
 70
   688
 72
     0
 73
     0
 74
     5
  7

 75
    16
 76
     0
 77
     2
 78
   300
147
1.0
148
0.0
149
0.0
100
AcDbLayout
  1
Layout2
 70
     1
 71
     2
 10
0.0
 20
0.0
 11
0.0
 21
0.0
 12
0.0
 22
0.0
 32
0.0
 14
0.0
 24
0.0
 34
0.0
 15
0.0
 25
0.0
 35
0.0
146
0.0
 13
0.0
 23
0.0
 33
0.0
 16
1.0
 26
0.0
 36
0.0
 17
0.0
 27
1.0
 37
0.0
 76
     0
330
23
  0
LAYOUT
  5
22
102
{ACAD_REACTORS
330
1A
102
}
330
1A
100
AcDbPlotSettings
  1

  2
none_device
  4
Letter_(8.50_x_11.00_Inches)
  6

 40
6.35
 41
6.35
 42
6.35000508
 43
6.35000508
 44
215.9
 45
279.4
 46
0.0
 47
0.0
 48
0.0
 49
0.0
140
0.0
141
0.0
142
1.0
143
1.0
 70
  1712
 72
     0
 73
     0
 74
     0
  7

 75
     0
 76
     0
 77
     2
 78
   300
147
1.0
148
0.0
149
0.0
100
AcDbLayout
  1
Model
 70
     1
 71
     0
 10
0.0
 20
0.0
 11
12.0
 21
9.0
 12
0.0
 22
0.0
 32
0.0
 14
1.000000000000000E+20
 24
1.000000000000000E+20
 34
1.000000000000000E+20
 15
-1.000000000000000E+20
 25
-1.000000000000000E+20
 35
-1.000000000000000E+20
146
0.0
 13
0.0
 23
0.0
 33
0.0
 16
1.0
 26
0.0
 36
0.0
 17
0.0
 27
1.0
 37
0.0
 76
     0
330
1F
331
29
  0
MATERIAL
  5
45
102
{ACAD_REACTORS
330
43
102
}
330
43
100
AcDbMaterial
  1
ByBlock
 72
     1
 94
      127
  0
MATERIAL
  5
44
102
{ACAD_REACTORS
330
43
102
}
330
43
100
AcDbMaterial
  1
ByLayer
 72
     1
 94
      127
  0
MATERIAL
  5
46
102
{ACAD_REACTORS
330
43
102
}
330
43
100
AcDbMaterial
  1
Global
 72
     1
 94
      127
  0
MLEADERSTYLE
  5
6C
102
{ACAD_REACTORS
330
6B
102
}
330
6B
100
AcDbMLeaderStyle
179
     2
170
     2
171
     1
172
     0
 90
        2
 40
0.0
 41
0.0
173
     1
 91
-1056964608
340
14
 92
       -2
290
     1
 42
0.09
291
     1
 43
0.36
  3
Standard
341
0
 44
0.18
300

342
11
174
     1
178
     6
175
     1
176
     0
 93
-1056964608
 45
0.18
292
     0
297
     0
 46
0.18
343
0
 94
-1056964608
 47
1.0
 49
1.0
140
1.0
293
     1
141
0.0
294
     1
177
     0
142
1.0
295
     0
296
     0
143
0.125
271
     0
272
     9
273
     9
298
     0
  0
MLINESTYLE
  5
18
102
{ACAD_REACTORS
330
17
102
}
330
17
100
AcDbMlineStyle
  2
Standard
 70
     0
  3

 62
   256
 51
90.0
 52
90.0
 71
     2
 49
0.5
 62
   256
  6
BYLAYER
 49
-0.5
 62
   256
  6
BYLAYER
  0
ACDBPLACEHOLDER
  5
F
102
{ACAD_REACTORS
330
E
102
}
330
E
  0
SCALE
  5
48
102
{ACAD_REACTORS
330
47
102
}
330
47
100
AcDbScale
 70
     0
300
1:1
140
1.0
141
1.0
290
     1
  0
SCALE
  5
49
102
{ACAD_REACTORS
330
47
102
}
330
47
100
AcDbScale
 70
     0
300
1:2
140
1.0
141
2.0
290
     0
  0
SCALE
  5
4A
102
{ACAD_REACTORS
330
47
102
}
330
47
100
AcDbScale
 70
     0
300
1:4
140
1.0
141
4.0
290
     0
  0
SCALE
  5
4B
102
{ACAD_REACTORS
330
47
102
}
330
47
100
AcDbScale
 70
     0
300
1:5
140
1.0
141
5.0
290
     0
  0
SCALE
  5
4C
102
{ACAD_REACTORS
330
47
102
}
330
47
100
AcDbScale
 70
     0
300
1:8
140
1.0
141
8.0
290
     0
  0
SCALE
  5
4D
102
{ACAD_REACTORS
330
47
102
}
330
47
100
AcDbScale
 70
     0
300
1:10
140
1.0
141
10.0
290
     0
  0
SCALE
  5
4E
102
{ACAD_REACTORS
330
47
102
}
330
47
100
AcDbScale
 70
     0
300
1:16
140
1.0
141
16.0
290
     0
  0
SCALE
  5
4F
102
{ACAD_REACTORS
330
47
102
}
330
47
100
AcDbScale
 70
     0
300
1:20
140
1.0
141
20.0
290
     0
  0
SCALE
  5
50
102
{ACAD_REACTORS
330
47
102
}
330
47
100
AcDbScale
 70
     0
300
1:30
140
1.0
141
30.0
290
     0
  0
SCALE
  5
51
102
{ACAD_REACTORS
330
47
102
}
330
47
100
AcDbScale
 70
     0
300
1:40
140
1.0
141
40.0
290
     0
  0
SCALE
  5
52
102
{ACAD_REACTORS
330
47
102
}
330
47
100
AcDbScale
 70
     0
300
1:50
140
1.0
141
50.0
290
     0
  0
SCALE
  5
53
102
{ACAD_REACTORS
330
47
102
}
330
47
100
AcDbScale
 70
     0
300
1:100
140
1.0
141
100.0
290
     0
  0
SCALE
  5
54
102
{ACAD_REACTORS
330
47
102
}
330
47
100
AcDbScale
 70
     0
300
2:1
140
2.0
141
1.0
290
     0
  0
SCALE
  5
55
102
{ACAD_REACTORS
330
47
102
}
330
47
100
AcDbScale
 70
     0
300
4:1
140
4.0
141
1.0
290
     0
  0
SCALE
  5
56
102
{ACAD_REACTORS
330
47
102
}
330
47
100
AcDbScale
 70
     0
300
8:1
140
8.0
141
1.0
290
     0
  0
SCALE
  5
57
102
{ACAD_REACTORS
330
47
102
}
330
47
100
AcDbScale
 70
     0
300
10:1
140
10.0
141
1.0
290
     0
  0
SCALE
  5
58
102
{ACAD_REACTORS
330
47
102
}
330
47
100
AcDbScale
 70
     0
300
100:1
140
100.0
141
1.0
290
     0
  0
SCALE
  5
59
102
{ACAD_REACTORS
330
47
102
}
330
47
100
AcDbScale
 70
     0
300
1/128" = 1'-0"
140
0.0078125
141
12.0
290
     0
  0
SCALE
  5
5A
102
{ACAD_REACTORS
330
47
102
}
330
47
100
AcDbScale
 70
     0
300
1/64" = 1'-0"
140
0.015625
141
12.0
290
     0
  0
SCALE
  5
5B
102
{ACAD_REACTORS
330
47
102
}
330
47
100
AcDbScale
 70
     0
300
1/32" = 1'-0"
140
0.03125
141
12.0
290
     0
  0
SCALE
  5
5C
102
{ACAD_REACTORS
330
47
102
}
330
47
100
AcDbScale
 70
     0
300
1/16" = 1'-0"
140
0.0625
141
12.0
290
     0
  0
SCALE
  5
5D
102
{ACAD_REACTORS
330
47
102
}
330
47
100
AcDbScale
 70
     0
300
3/32" = 1'-0"
140
0.09375
141
12.0
290
     0
  0
SCALE
  5
5E
102
{ACAD_REACTORS
330
47
102
}
330
47
100
AcDbScale
 70
     0
300
1/8" = 1'-0"
140
0.125
141
12.0
290
     0
  0
SCALE
  5
5F
102
{ACAD_REACTORS
330
47
102
}
330
47
100
AcDbScale
 70
     0
300
3/16" = 1'-0"
140
0.1875
141
12.0
290
     0
  0
SCALE
  5
60
102
{ACAD_REACTORS
330
47
102
}
330
47
100
AcDbScale
 70
     0
300
1/4" = 1'-0"
140
0.25
141
12.0
290
     0
  0
SCALE
  5
61
102
{ACAD_REACTORS
330
47
102
}
330
47
100
AcDbScale
 70
     0
300
3/8" = 1'-0"
140
0.375
141
12.0
290
     0
  0
SCALE
  5
62
102
{ACAD_REACTORS
330
47
102
}
330
47
100
AcDbScale
 70
     0
300
1/2" = 1'-0"
140
0.5
141
12.0
290
     0
  0
SCALE
  5
63
102
{ACAD_REACTORS
330
47
102
}
330
47
100
AcDbScale
 70
     0
300
3/4" = 1'-0"
140
0.75
141
12.0
290
     0
  0
SCALE
  5
64
102
{ACAD_REACTORS
330
47
102
}
330
47
100
AcDbScale
 70
     0
300
1" = 1'-0"
140
1.0
141
12.0
290
     0
  0
SCALE
  5
65
102
{ACAD_REACTORS
330
47
102
}
330
47
100
AcDbScale
 70
     0
300
1-1/2" = 1'-0"
140
1.5
141
12.0
290
     0
  0
SCALE
  5
66
102
{ACAD_REACTORS
330
47
102
}
330
47
100
AcDbScale
 70
     0
300
3" = 1'-0"
140
3.0
141
12.0
290
     0
  0
SCALE
  5
67
102
{ACAD_REACTORS
330
47
102
}
330
47
100
AcDbScale
 70
     0
300
6" = 1'-0"
140
6.0
141
12.0
290
     0
  0
SCALE
  5
68
102
{ACAD_REACTORS
330
47
102
}
330
47
100
AcDbScale
 70
     0
300
1'-0" = 1'-0"
140
12.0
141
12.0
290
     0
  0
TABLESTYLE
  5
6A
102
{ACAD_REACTORS
330
69
102
}
102
{ACAD_XDICTIONARY
360
1CB
102
}
330
69
100
AcDbTableStyle
  3
Standard
 70
     0
 71
     0
 40
0.06
 41
0.06
280
     0
281
     0
  7
Standard
140
0.18
170
     2
 62
     0
 63
   257
283
     0
 90
        4
 91
        0
  1

274
    -2
284
     1
 64
     0
275
    -2
285
     1
 65
     0
276
    -2
286
     1
 66
     0
277
    -2
287
     1
 67
     0
278
    -2
288
     1
 68
     0
279
    -2
289
     1
 69
     0
  7
Standard
140
0.25
170
     5
 62
     0
 63
   257
283
     0
 90
        4
 91
        0
  1

274
    -2
284
     1
 64
     0
275
    -2
285
     1
 65
     0
276
    -2
286
     1
 66
     0
277
    -2
287
     1
 67
     0
278
    -2
288
     1
 68
     0
279
    -2
289
     1
 69
     0
  7
Standard
140
0.18
170
     5
 62
     0
 63
   257
283
     0
 90
        4
 91
        0
  1

274
    -2
284
     1
 64
     0
275
    -2
285
     1
 65
     0
276
    -2
286
     1
 66
     0
277
    -2
287
     1
 67
     0
278
    -2
288
     1
 68
     0
279
    -2
289
     1
 69
     0
  0
VISUALSTYLE
  5
2F
102
{ACAD_REACTORS
330
2A
102
}
330
2A
100
AcDbVisualStyle
  2
2dWireframe
 70
     4
177
     3
291
     0
 70
    58
 90
        0
176
     1
 90
        2
176
     1
 90
        0
176
     1
 90
        0
176
     1
 40
0.6
176
     1
 40
30.0
176
     1
 62
     7
420
 16777215
176
     1
 90
        1
176
     1
 90
        4
176
     1
 62
     7
176
     1
 62
   257
176
     1
 90
        1
176
     1
 90
        1
176
     1
 40
1.0
176
     1
 90
        0
176
     1
 62
   257
176
     1
 40
1.0
176
     1
 90
        1
176
     1
 90
        6
176
     1
 90
        2
176
     1
 62
     7
176
     1
 90
        5
176
     1
 90
        0
176
     1
 90
        0
176
     1
290
     0
176
     1
 90
        1
176
     1
 40
0.0
176
     1
 90
        0
176
     1
290
     1
176
     1
290
     1
176
     1
290
     0
176
     1
290
     0
176
     1
290
     0
176
     1
290
     0
176
     1
290
     0
176
     1
290
     0
176
     1
290
     0
176
     1
 90
       50
176
     1
 40
0.0
176
     1
 40
1.0
176
     1
 90
        0
176
     1
 62
    18
420
        0
176
     1
 90
       50
176
     1
 90
        3
176
     1
 62
     5
420
      255
176
     1
290
     0
176
     1
 90
       50
176
     1
 90
       50
176
     1
 90
       50
176
     1
290
     0
176
     1
 90
       50
176
     1
 62
   256
176
     0
 40
1.0
176
     0
 90
        2
176
     1
  1
strokes_ogs.tif
176
     1
290
     0
176
     1
 40
1.0
176
     1
 40
1.0
176
     1
  0
VISUALSTYLE
  5
32
102
{ACAD_REACTORS
330
2A
102
}
330
2A
100
AcDbVisualStyle
  2
Basic
 70
     7
177
     3
291
     1
 70
    58
 90
        1
176
     1
 90
        0
176
     1
 90
        1
176
     1
 90
        0
176
     1
 40
0.6
176
     1
 40
30.0
176
     1
 62
     7
420
 16777215
176
     1
 90
        0
176
     1
 90
        4
176
     1
 62
     7
176
     1
 62
   257
176
     1
 90
        1
176
     1
 90
        1
176
     1
 40
1.0
176
     1
 90
        8
176
     1
 62
     7
176
     1
 40
1.0
176
     1
 90
        1
176
     1
 90
        6
176
     1
 90
        2
176
     1
 62
     7
176
     1
 90
        5
176
     1
 90
        0
176
     1
 90
        0
176
     1
290
     0
176
     1
 90
        1
176
     1
 40
0.0
176
     1
 90
        0
176
     1
290
     0
176
     1
290
     1
176
     1
290
     1
176
     1
290
     0
176
     1
290
     0
176
     1
290
     0
176
     1
290
     0
176
     1
290
     0
176
     1
290
     0
176
     1
 90
       50
176
     1
 40
0.0
176
     1
 40
1.0
176
     1
 90
        0
176
     1
 62
    18
420
        0
176
     1
 90
       50
176
     1
 90
        3
176
     1
 62
     5
420
      255
176
     1
290
     0
176
     1
 90
       50
176
     1
 90
       50
176
     1
 90
       50
176
     1
290
     0
176
     1
 90
       50
176
     1
 62
   256
176
     0
 40
1.0
176
     0
 90
        2
176
     1
  1
strokes_ogs.tif
176
     1
290
     0
176
     1
 40
1.0
176
     1
 40
1.0
176
     1
  0
VISUALSTYLE
  5
36
102
{ACAD_REACTORS
330
2A
102
}
330
2A
100
AcDbVisualStyle
  2
Brighten
 70
    12
177
     3
291
     1
 70
    58
 90
        2
176
     1
 90
        2
176
     1
 90
        0
176
     1
 90
        0
176
     1
 40
0.6
176
     1
 40
30.0
176
     1
 62
     7
420
 16777215
176
     1
 90
        1
176
     1
 90
        4
176
     1
 62
     7
176
     1
 62
   257
176
     1
 90
        1
176
     1
 90
        1
176
     1
 40
1.0
176
     1
 90
        8
176
     1
 62
     7
176
     1
 40
1.0
176
     1
 90
        1
176
     1
 90
        6
176
     1
 90
        2
176
     1
 62
     7
176
     1
 90
        5
176
     1
 90
        0
176
     1
 90
        0
176
     1
290
     0
176
     1
 90
        1
176
     1
 40
50.0
176
     1
 90
        0
176
     1
290
     0
176
     1
290
     1
176
     1
290
     1
176
     1
290
     0
176
     1
290
     0
176
     1
290
     0
176
     1
290
     0
176
     1
290
     0
176
     1
290
     0
176
     1
 90
       50
176
     1
 40
0.0
176
     1
 40
1.0
176
     1
 90
        0
176
     1
 62
    18
420
        0
176
     1
 90
       50
176
     1
 90
        3
176
     1
 62
     5
420
      255
176
     1
290
     0
176
     1
 90
       50
176
     1
 90
       50
176
     1
 90
       50
176
     1
290
     0
176
     1
 90
       50
176
     1
 62
   256
176
     0
 40
1.0
176
     0
 90
        2
176
     1
  1
strokes_ogs.tif
176
     1
290
     0
176
     1
 40
1.0
176
     1
 40
1.0
176
     1
  0
VISUALSTYLE
  5
3A
102
{ACAD_REACTORS
330
2A
102
}
330
2A
100
AcDbVisualStyle
  2
ColorChange
 70
    16
177
     3
291
     1
 70
    58
 90
        2
176
     1
 90
        2
176
     1
 90
        3
176
     1
 90
        0
176
     1
 40
0.6
176
     1
 40
30.0
176
     1
 62
     8
420
  8421504
176
     1
 90
        1
176
     1
 90
        4
176
     1
 62
     7
176
     1
 62
   257
176
     1
 90
        1
176
     1
 90
        1
176
     1
 40
1.0
176
     1
 90
        8
176
     1
 62
     8
420
  8421504
176
     1
 40
1.0
176
     1
 90
        1
176
     1
 90
        6
176
     1
 90
        2
176
     1
 62
     7
176
     1
 90
        5
176
     1
 90
        0
176
     1
 90
        0
176
     1
290
     0
176
     1
 90
        1
176
     1
 40
0.0
176
     1
 90
        0
176
     1
290
     0
176
     1
290
     1
176
     1
290
     1
176
     1
290
     0
176
     1
290
     0
176
     1
290
     0
176
     1
290
     0
176
     1
290
     0
176
     1
290
     0
176
     1
 90
       50
176
     1
 40
0.0
176
     1
 40
1.0
176
     1
 90
        0
176
     1
 62
    18
420
        0
176
     1
 90
       50
176
     1
 90
        3
176
     1
 62
     5
420
      255
176
     1
290
     0
176
     1
 90
       50
176
     1
 90
       50
176
     1
 90
       50
176
     1
290
     0
176
     1
 90
       50
176
     1
 62
   256
176
     0
 40
1.0
176
     0
 90
        2
176
     1
  1
strokes_ogs.tif
176
     1
290
     0
176
     1
 40
1.0
176
     1
 40
1.0
176
     1
  0
VISUALSTYLE
  5
34
102
{ACAD_REACTORS
330
2A
102
}
330
2A
100
AcDbVisualStyle
  2
Conceptual
 70
     9
177
     3
291
     0
 70
    58
 90
        3
176
     1
 90
        2
176
     1
 90
        0
176
     1
 90
        0
176
     1
 40
0.6
176
     1
 40
30.0
176
     1
 62
     7
420
 16777215
176
     1
 90
        2
176
     1
 90
        2
176
     1
 62
     7
176
     1
 62
   257
176
     1
 90
        1
176
     1
 90
        1
176
     1
 40
179.0
176
     1
 90
        8
176
     1
 62
     7
176
     1
 40
1.0
176
     1
 90
        1
176
     1
 90
        6
176
     1
 90
        2
176
     1
 62
     7
176
     1
 90
        3
176
     1
 90
        0
176
     1
 90
        0
176
     1
290
     0
176
     1
 90
        1
176
     1
 40
0.0
176
     1
 90
        0
176
     1
290
     0
176
     1
290
     1
176
     1
290
     1
176
     1
290
     0
176
     1
290
     0
176
     1
290
     0
176
     1
290
     0
176
     1
290
     0
176
     1
290
     0
176
     1
 90
       50
176
     1
 40
0.0
176
     1
 40
1.0
176
     1
 90
        0
176
     1
 62
    18
420
        0
176
     1
 90
       50
176
     1
 90
        3
176
     1
 62
     5
420
      255
176
     1
290
     0
176
     1
 90
       50
176
     1
 90
       50
176
     1
 90
       50
176
     1
290
     0
176
     1
 90
       50
176
     1
 62
   256
176
     0
 40
1.0
176
     0
 90
        2
176
     1
  1
strokes_ogs.tif
176
     1
290
     0
176
     1
 40
1.0
176
     1
 40
1.0
176
     1
  0
VISUALSTYLE
  5
35
102
{ACAD_REACTORS
330
2A
102
}
330
2A
100
AcDbVisualStyle
  2
Dim
 70
    11
177
     3
291
     1
 70
    58
 90
        2
176
     1
 90
        2
176
     1
 90
        0
176
     1
 90
        0
176
     1
 40
0.6
176
     1
 40
30.0
176
     1
 62
     7
420
 16777215
176
     1
 90
        1
176
     1
 90
        4
176
     1
 62
     7
176
     1
 62
   257
176
     1
 90
        1
176
     1
 90
        1
176
     1
 40
1.0
176
     1
 90
        8
176
     1
 62
     7
176
     1
 40
1.0
176
     1
 90
        1
176
     1
 90
        6
176
     1
 90
        2
176
     1
 62
     7
176
     1
 90
        5
176
     1
 90
        0
176
     1
 90
        0
176
     1
290
     0
176
     1
 90
        1
176
     1
 40
-50.0
176
     1
 90
        0
176
     1
290
     0
176
     1
290
     1
176
     1
290
     1
176
     1
290
     0
176
     1
290
     0
176
     1
290
     0
176
     1
290
     0
176
     1
290
     0
176
     1
290
     0
176
     1
 90
       50
176
     1
 40
0.0
176
     1
 40
1.0
176
     1
 90
        0
176
     1
 62
    18
420
        0
176
     1
 90
       50
176
     1
 90
        3
176
     1
 62
     5
420
      255
176
     1
290
     0
176
     1
 90
       50
176
     1
 90
       50
176
     1
 90
       50
176
     1
290
     0
176
     1
 90
       50
176
     1
 62
   256
176
     0
 40
1.0
176
     0
 90
        2
176
     1
  1
strokes_ogs.tif
176
     1
290
     0
176
     1
 40
1.0
176
     1
 40
1.0
176
     1
  0
VISUALSTYLE
  5
3D
102
{ACAD_REACTORS
330
2A
102
}
330
2A
100
AcDbVisualStyle
  2
EdgeColorOff
 70
    22
177
     3
291
     1
 70
    58
 90
        2
176
     0
 90
        2
176
     0
 90
        0
176
     0
 90
        0
176
     0
 40
0.6
176
     0
 40
30.0
176
     0
 62
     7
420
 16777215
176
     0
 90
        1
176
     0
 90
        4
176
     0
 62
     7
176
     0
 62
   257
176
     0
 90
        1
176
     0
 90
        1
176
     0
 40
1.0
176
     0
 90
        8
176
     2
 62
     7
176
     0
 40
1.0
176
     0
 90
        1
176
     0
 90
        6
176
     0
 90
        2
176
     0
 62
     7
176
     0
 90
        5
176
     0
 90
        0
176
     0
 90
        0
176
     0
290
     0
176
     0
 90
        1
176
     0
 40
0.0
176
     0
 90
        0
176
     0
290
     0
176
     0
290
     1
176
     0
290
     1
176
     0
290
     0
176
     0
290
     0
176
     0
290
     0
176
     0
290
     0
176
     0
290
     0
176
     0
290
     0
176
     0
 90
       50
176
     0
 40
0.0
176
     0
 40
1.0
176
     0
 90
        0
176
     0
 62
    18
420
        0
176
     0
 90
       50
176
     0
 90
        3
176
     0
 62
     5
420
      255
176
     0
290
     0
176
     0
 90
       50
176
     0
 90
       50
176
     0
 90
       50
176
     0
290
     0
176
     0
 90
       50
176
     0
 62
   256
176
     0
 40
1.0
176
     0
 90
        2
176
     0
  1
strokes_ogs.tif
176
     0
290
     0
176
     0
 40
1.0
176
     0
 40
1.0
176
     0
  0
VISUALSTYLE
  5
39
102
{ACAD_REACTORS
330
2A
102
}
330
2A
100
AcDbVisualStyle
  2
Facepattern
 70
    15
177
     3
291
     1
 70
    58
 90
        2
176
     1
 90
        2
176
     1
 90
        0
176
     1
 90
        0
176
     1
 40
0.6
176
     1
 40
30.0
176
     1
 62
     7
420
 16777215
176
     1
 90
        1
176
     1
 90
        4
176
     1
 62
     7
176
     1
 62
   257
176
     1
 90
        1
176
     1
 90
        1
176
     1
 40
1.0
176
     1
 90
        8
176
     1
 62
     7
176
     1
 40
1.0
176
     1
 90
        1
176
     1
 90
        6
176
     1
 90
        2
176
     1
 62
     7
176
     1
 90
        5
176
     1
 90
        0
176
     1
 90
        0
176
     1
290
     0
176
     1
 90
        1
176
     1
 40
0.0
176
     1
 90
        0
176
     1
290
     0
176
     1
290
     1
176
     1
290
     1
176
     1
290
     0
176
     1
290
     0
176
     1
290
     0
176
     1
290
     0
176
     1
290
     0
176
     1
290
     0
176
     1
 90
       50
176
     1
 40
0.0
176
     1
 40
1.0
176
     1
 90
        0
176
     1
 62
    18
420
        0
176
     1
 90
       50
176
     1
 90
        3
176
     1
 62
     5
420
      255
176
     1
290
     0
176
     1
 90
       50
176
     1
 90
       50
176
     1
 90
       50
176
     1
290
     0
176
     1
 90
       50
176
     1
 62
   256
176
     0
 40
1.0
176
     0
 90
        2
176
     1
  1
strokes_ogs.tif
176
     1
290
     0
176
     1
 40
1.0
176
     1
 40
1.0
176
     1
  0
VISUALSTYLE
  5
2B
102
{ACAD_REACTORS
330
2A
102
}
330
2A
100
AcDbVisualStyle
  2
Flat
 70
     0
177
     3
291
     1
 70
    58
 90
        2
176
     1
 90
        1
176
     1
 90
        1
176
     1
 90
        2
176
     1
 40
0.6
176
     1
 40
30.0
176
     1
 62
     7
420
 16777215
176
     1
 90
        0
176
     1
 90
        0
176
     1
 62
     7
176
     1
 62
   257
176
     1
 90
        1
176
     1
 90
        1
176
     1
 40
1.0
176
     1
 90
        8
176
     1
 62
     7
176
     1
 40
1.0
176
     1
 90
        1
176
     1
 90
        6
176
     1
 90
        2
176
     1
 62
     7
176
     1
 90
        5
176
     1
 90
        0
176
     1
 90
        0
176
     1
290
     0
176
     1
 90
       13
176
     1
 40
0.0
176
     1
 90
        0
176
     1
290
     0
176
     1
290
     1
176
     1
290
     1
176
     1
290
     0
176
     1
290
     0
176
     1
290
     0
176
     1
290
     0
176
     1
290
     0
176
     1
290
     0
176
     1
 90
       50
176
     1
 40
0.0
176
     1
 40
1.0
176
     1
 90
        0
176
     1
 62
    18
420
        0
176
     1
 90
       50
176
     1
 90
        3
176
     1
 62
     5
420
      255
176
     1
290
     0
176
     1
 90
       50
176
     1
 90
       50
176
     1
 90
       50
176
     1
290
     0
176
     1
 90
       50
176
     1
 62
   256
176
     0
 40
1.0
176
     0
 90
        2
176
     1
  1
strokes_ogs.tif
176
     1
290
     0
176
     1
 40
1.0
176
     1
 40
1.0
176
     1
  0
VISUALSTYLE
  5
2C
102
{ACAD_REACTORS
330
2A
102
}
330
2A
100
AcDbVisualStyle
  2
FlatWithEdges
 70
     1
177
     3
291
     1
 70
    58
 90
        2
176
     1
 90
        1
176
     1
 90
        1
176
     1
 90
        2
176
     1
 40
0.6
176
     1
 40
30.0
176
     1
 62
     7
420
 16777215
176
     1
 90
        1
176
     1
 90
        0
176
     1
 62
     7
176
     1
 62
   257
176
     1
 90
        1
176
     1
 90
        1
176
     1
 40
1.0
176
     1
 90
        0
176
     1
 62
   257
176
     1
 40
1.0
176
     1
 90
        1
176
     1
 90
        6
176
     1
 90
        2
176
     1
 62
     7
176
     1
 90
        5
176
     1
 90
        0
176
     1
 90
        0
176
     1
290
     0
176
     1
 90
       13
176
     1
 40
0.0
176
     1
 90
        0
176
     1
290
     0
176
     1
290
     1
176
     1
290
     1
176
     1
290
     0
176
     1
290
     0
176
     1
290
     0
176
     1
290
     0
176
     1
290
     0
176
     1
290
     0
176
     1
 90
       50
176
     1
 40
0.0
176
     1
 40
1.0
176
     1
 90
        0
176
     1
 62
    18
420
        0
176
     1
 90
       50
176
     1
 90
        3
176
     1
 62
     5
420
      255
176
     1
290
     0
176
     1
 90
       50
176
     1
 90
       50
176
     1
 90
       50
176
     1
290
     0
176
     1
 90
       50
176
     1
 62
   256
176
     0
 40
1.0
176
     0
 90
        2
176
     1
  1
strokes_ogs.tif
176
     1
290
     0
176
     1
 40
1.0
176
     1
 40
1.0
176
     1
  0
VISUALSTYLE
  5
2D
102
{ACAD_REACTORS
330
2A
102
}
330
2A
100
AcDbVisualStyle
  2
Gouraud
 70
     2
177
     3
291
     1
 70
    58
 90
        2
176
     1
 90
        2
176
     1
 90
        1
176
     1
 90
        2
176
     1
 40
0.6
176
     1
 40
30.0
176
     1
 62
     7
420
 16777215
176
     1
 90
        0
176
     1
 90
        0
176
     1
 62
     7
176
     1
 62
   257
176
     1
 90
        1
176
     1
 90
        1
176
     1
 40
1.0
176
     1
 90
        0
176
     1
 62
     7
176
     1
 40
1.0
176
     1
 90
        1
176
     1
 90
        6
176
     1
 90
        2
176
     1
 62
     7
176
     1
 90
        5
176
     1
 90
        0
176
     1
 90
        0
176
     1
290
     0
176
     1
 90
       13
176
     1
 40
0.0
176
     1
 90
        0
176
     1
290
     0
176
     1
290
     1
176
     1
290
     1
176
     1
290
     0
176
     1
290
     0
176
     1
290
     0
176
     1
290
     0
176
     1
290
     0
176
     1
290
     0
176
     1
 90
       50
176
     1
 40
0.0
176
     1
 40
1.0
176
     1
 90
        0
176
     1
 62
    18
420
        0
176
     1
 90
       50
176
     1
 90
        3
176
     1
 62
     5
420
      255
176
     1
290
     0
176
     1
 90
       50
176
     1
 90
       50
176
     1
 90
       50
176
     1
290
     0
176
     1
 90
       50
176
     1
 62
   256
176
     0
 40
1.0
176
     0
 90
        2
176
     1
  1
strokes_ogs.tif
176
     1
290
     0
176
     1
 40
1.0
176
     1
 40
1.0
176
     1
  0
VISUALSTYLE
  5
2E
102
{ACAD_REACTORS
330
2A
102
}
330
2A
100
AcDbVisualStyle
  2
GouraudWithEdges
 70
     3
177
     3
291
     1
 70
    58
 90
        2
176
     1
 90
        2
176
     1
 90
        1
176
     1
 90
        2
176
     1
 40
0.6
176
     1
 40
30.0
176
     1
 62
     7
420
 16777215
176
     1
 90
        1
176
     1
 90
        0
176
     1
 62
     7
176
     1
 62
   257
176
     1
 90
        1
176
     1
 90
        1
176
     1
 40
1.0
176
     1
 90
        0
176
     1
 62
   257
176
     1
 40
1.0
176
     1
 90
        1
176
     1
 90
        6
176
     1
 90
        2
176
     1
 62
     7
176
     1
 90
        5
176
     1
 90
        0
176
     1
 90
        0
176
     1
290
     0
176
     1
 90
       13
176
     1
 40
0.0
176
     1
 90
        0
176
     1
290
     0
176
     1
290
     1
176
     1
290
     1
176
     1
290
     0
176
     1
290
     0
176
     1
290
     0
176
     1
290
     0
176
     1
290
     0
176
     1
290
     0
176
     1
 90
       50
176
     1
 40
0.0
176
     1
 40
1.0
176
     1
 90
        0
176
     1
 62
    18
420
        0
176
     1
 90
       50
176
     1
 90
        3
176
     1
 62
     5
420
      255
176
     1
290
     0
176
     1
 90
       50
176
     1
 90
       50
176
     1
 90
       50
176
     1
290
     0
176
     1
 90
       50
176
     1
 62
   256
176
     0
 40
1.0
176
     0
 90
        2
176
     1
  1
strokes_ogs.tif
176
     1
290
     0
176
     1
 40
1.0
176
     1
 40
1.0
176
     1
  0
VISUALSTYLE
  5
31
102
{ACAD_REACTORS
330
2A
102
}
330
2A
100
AcDbVisualStyle
  2
Hidden
 70
     6
177
     3
291
     0
 70
    58
 90
        1
176
     1
 90
        2
176
     1
 90
        2
176
     1
 90
        0
176
     1
 40
0.6
176
     1
 40
30.0
176
     1
 62
     7
420
 16777215
176
     1
 90
        2
176
     1
 90
        2
176
     1
 62
     7
176
     1
 62
   257
176
     1
 90
        2
176
     1
 90
        1
176
     1
 40
40.0
176
     1
 90
        0
176
     1
 62
   257
176
     1
 40
1.0
176
     1
 90
        1
176
     1
 90
        6
176
     1
 90
        2
176
     1
 62
     7
176
     1
 90
        3
176
     1
 90
        0
176
     1
 90
        0
176
     1
290
     0
176
     1
 90
        1
176
     1
 40
0.0
176
     1
 90
        0
176
     1
290
     0
176
     1
290
     1
176
     1
290
     1
176
     1
290
     0
176
     1
290
     0
176
     1
290
     0
176
     1
290
     0
176
     1
290
     0
176
     1
290
     0
176
     1
 90
       50
176
     1
 40
0.0
176
     1
 40
1.0
176
     1
 90
        0
176
     1
 62
    18
420
        0
176
     1
 90
       50
176
     1
 90
        3
176
     1
 62
     5
420
      255
176
     1
290
     0
176
     1
 90
       50
176
     1
 90
       50
176
     1
 90
       50
176
     1
290
     0
176
     1
 90
       50
176
     1
 62
   256
176
     0
 40
1.0
176
     0
 90
        2
176
     1
  1
strokes_ogs.tif
176
     1
290
     0
176
     1
 40
1.0
176
     1
 40
1.0
176
     1
  0
VISUALSTYLE
  5
3B
102
{ACAD_REACTORS
330
2A
102
}
330
2A
100
AcDbVisualStyle
  2
JitterOff
 70
    20
177
     3
291
     1
 70
    58
 90
        2
176
     0
 90
        2
176
     0
 90
        0
176
     0
 90
        0
176
     0
 40
0.6
176
     0
 40
30.0
176
     0
 62
     7
420
 16777215
176
     0
 90
        1
176
     0
 90
        4
176
     0
 62
     7
176
     0
 62
   257
176
     0
 90
        1
176
     0
 90
        1
176
     0
 40
1.0
176
     0
 90
       10
176
     2
 62
     7
176
     0
 40
1.0
176
     0
 90
        1
176
     0
 90
        6
176
     0
 90
        2
176
     0
 62
     7
176
     0
 90
        5
176
     0
 90
        0
176
     0
 90
        0
176
     0
290
     0
176
     0
 90
        1
176
     0
 40
0.0
176
     0
 90
        0
176
     0
290
     0
176
     0
290
     1
176
     0
290
     1
176
     0
290
     0
176
     0
290
     0
176
     0
290
     0
176
     0
290
     0
176
     0
290
     0
176
     0
290
     0
176
     0
 90
       50
176
     0
 40
0.0
176
     0
 40
1.0
176
     0
 90
        0
176
     0
 62
    18
420
        0
176
     0
 90
       50
176
     0
 90
        3
176
     0
 62
     5
420
      255
176
     0
290
     0
176
     0
 90
       50
176
     0
 90
       50
176
     0
 90
       50
176
     0
290
     0
176
     0
 90
       50
176
     0
 62
   256
176
     0
 40
1.0
176
     0
 90
        2
176
     0
  1
strokes_ogs.tif
176
     0
290
     0
176
     0
 40
1.0
176
     0
 40
1.0
176
     0
  0
VISUALSTYLE
  5
38
102
{ACAD_REACTORS
330
2A
102
}
330
2A
100
AcDbVisualStyle
  2
Linepattern
 70
    14
177
     3
291
     1
 70
    58
 90
        2
176
     1
 90
        2
176
     1
 90
        0
176
     1
 90
        0
176
     1
 40
0.6
176
     1
 40
30.0
176
     1
 62
     7
420
 16777215
176
     1
 90
        1
176
     1
 90
        4
176
     1
 62
     7
176
     1
 62
   257
176
     1
 90
        7
176
     1
 90
        7
176
     1
 40
1.0
176
     1
 90
        8
176
     1
 62
     7
176
     1
 40
1.0
176
     1
 90
        1
176
     1
 90
        6
176
     1
 90
        2
176
     1
 62
     7
176
     1
 90
        5
176
     1
 90
        0
176
     1
 90
        0
176
     1
290
     0
176
     1
 90
        1
176
     1
 40
0.0
176
     1
 90
        0
176
     1
290
     0
176
     1
290
     1
176
     1
290
     1
176
     1
290
     0
176
     1
290
     0
176
     1
290
     0
176
     1
290
     0
176
     1
290
     0
176
     1
290
     0
176
     1
 90
       50
176
     1
 40
0.0
176
     1
 40
1.0
176
     1
 90
        0
176
     1
 62
    18
420
        0
176
     1
 90
       50
176
     1
 90
        3
176
     1
 62
     5
420
      255
176
     1
290
     0
176
     1
 90
       50
176
     1
 90
       50
176
     1
 90
       50
176
     1
290
     0
176
     1
 90
       50
176
     1
 62
   256
176
     0
 40
1.0
176
     0
 90
        2
176
     1
  1
strokes_ogs.tif
176
     1
290
     0
176
     1
 40
1.0
176
     1
 40
1.0
176
     1
  0
VISUALSTYLE
  5
3C
102
{ACAD_REACTORS
330
2A
102
}
330
2A
100
AcDbVisualStyle
  2
OverhangOff
 70
    21
177
     3
291
     1
 70
    58
 90
        2
176
     0
 90
        2
176
     0
 90
        0
176
     0
 90
        0
176
     0
 40
0.6
176
     0
 40
30.0
176
     0
 62
     7
420
 16777215
176
     0
 90
        1
176
     0
 90
        4
176
     0
 62
     7
176
     0
 62
   257
176
     0
 90
        1
176
     0
 90
        1
176
     0
 40
1.0
176
     0
 90
        9
176
     2
 62
     7
176
     0
 40
1.0
176
     0
 90
        1
176
     0
 90
        6
176
     0
 90
        2
176
     0
 62
     7
176
     0
 90
        5
176
     0
 90
        0
176
     0
 90
        0
176
     0
290
     0
176
     0
 90
        1
176
     0
 40
0.0
176
     0
 90
        0
176
     0
290
     0
176
     0
290
     1
176
     0
290
     1
176
     0
290
     0
176
     0
290
     0
176
     0
290
     0
176
     0
290
     0
176
     0
290
     0
176
     0
290
     0
176
     0
 90
       50
176
     0
 40
0.0
176
     0
 40
1.0
176
     0
 90
        0
176
     0
 62
    18
420
        0
176
     0
 90
       50
176
     0
 90
        3
176
     0
 62
     5
420
      255
176
     0
290
     0
176
     0
 90
       50
176
     0
 90
       50
176
     0
 90
       50
176
     0
290
     0
176
     0
 90
       50
176
     0
 62
   256
176
     0
 40
1.0
176
     0
 90
        2
176
     0
  1
strokes_ogs.tif
176
     0
290
     0
176
     0
 40
1.0
176
     0
 40
1.0
176
     0
  0
VISUALSTYLE
  5
33
102
{ACAD_REACTORS
330
2A
102
}
330
2A
100
AcDbVisualStyle
  2
Realistic
 70
     8
177
     3
291
     0
 70
    58
 90
        2
176
     1
 90
        3
176
     1
 90
        0
176
     1
 90
        2
176
     1
 40
0.6
176
     1
 40
30.0
176
     1
 62
     7
420
 16777215
176
     1
 90
        0
176
     1
 90
        0
176
     1
 62
     7
176
     1
 62
   257
176
     1
 90
        1
176
     1
 90
        1
176
     1
 40
1.0
176
     1
 90
        8
176
     1
 62
   257
176
     1
 40
1.0
176
     1
 90
        1
176
     1
 90
        6
176
     1
 90
        2
176
     1
 62
     7
176
     1
 90
        3
176
     1
 90
        0
176
     1
 90
        0
176
     1
290
     0
176
     1
 90
       13
176
     1
 40
0.0
176
     1
 90
        0
176
     1
290
     0
176
     1
290
     1
176
     1
290
     1
176
     1
290
     0
176
     1
290
     0
176
     1
290
     0
176
     1
290
     0
176
     1
290
     0
176
     1
290
     0
176
     1
 90
       50
176
     1
 40
0.0
176
     1
 40
1.0
176
     1
 90
        0
176
     1
 62
    18
420
        0
176
     1
 90
       50
176
     1
 90
        3
176
     1
 62
     5
420
      255
176
     1
290
     0
176
     1
 90
       50
176
     1
 90
       50
176
     1
 90
       50
176
     1
290
     0
176
     1
 90
       50
176
     1
 62
   256
176
     0
 40
1.0
176
     0
 90
        2
176
     1
  1
strokes_ogs.tif
176
     1
290
     0
176
     1
 40
1.0
176
     1
 40
1.0
176
     1
  0
VISUALSTYLE
  5
42
102
{ACAD_REACTORS
330
2A
102
}
330
2A
100
AcDbVisualStyle
  2
Shaded
 70
    27
177
     3
291
     0
 70
    58
 90
        2
176
     1
 90
        2
176
     1
 90
        1
176
     1
 90
        2
176
     1
 40
0.6
176
     1
 40
30.0
176
     1
 62
     7
420
 16777215
176
     1
 90
        0
176
     1
 90
        4
176
     1
 62
     7
176
     1
 62
   257
176
     1
 90
        1
176
     1
 90
        1
176
     1
 40
1.0
176
     1
 90
        8
176
     1
 62
   257
176
     1
 40
1.0
176
     1
 90
        1
176
     1
 90
        6
176
     1
 90
        2
176
     1
 62
     8
420
  7895160
176
     1
 90
        3
176
     1
 90
        0
176
     1
 90
        0
176
     1
290
     0
176
     1
 90
        5
176
     1
 40
0.0
176
     1
 90
        0
176
     1
290
     0
176
     1
290
     1
176
     1
290
     1
176
     1
290
     0
176
     1
290
     0
176
     1
290
     0
176
     1
290
     0
176
     1
290
     0
176
     1
290
     0
176
     1
 90
       50
176
     1
 40
0.0
176
     1
 40
1.0
176
     1
 90
        0
176
     1
 62
    18
420
        0
176
     1
 90
       50
176
     1
 90
        3
176
     1
 62
     5
420
      255
176
     1
290
     0
176
     1
 90
       50
176
     1
 90
       50
176
     1
 90
       50
176
     1
290
     0
176
     1
 90
       50
176
     1
 62
   256
176
     0
 40
1.0
176
     0
 90
        2
176
     1
  1
strokes_ogs.tif
176
     1
290
     0
176
     1
 40
1.0
176
     1
 40
1.0
176
     1
  0
VISUALSTYLE
  5
41
102
{ACAD_REACTORS
330
2A
102
}
330
2A
100
AcDbVisualStyle
  2
Shaded with edges
 70
    26
177
     3
291
     0
 70
    58
 90
        2
176
     1
 90
        2
176
     1
 90
        1
176
     1
 90
        2
176
     1
 40
0.6
176
     1
 40
30.0
176
     1
 62
     7
420
 16777215
176
     1
 90
        1
176
     1
 90
       10
176
     1
 62
     7
176
     1
 62
   257
176
     1
 90
        2
176
     1
 90
        1
176
     1
 40
1.0
176
     1
 90
        8
176
     1
 62
   257
176
     1
 40
1.0
176
     1
 90
        1
176
     1
 90
        6
176
     1
 90
        2
176
     1
 62
     7
176
     1
 90
        3
176
     1
 90
        0
176
     1
 90
        0
176
     1
290
     0
176
     1
 90
        5
176
     1
 40
0.0
176
     1
 90
        0
176
     1
290
     0
176
     1
290
     1
176
     1
290
     1
176
     1
290
     0
176
     1
290
     0
176
     1
290
     0
176
     1
290
     0
176
     1
290
     0
176
     1
290
     0
176
     1
 90
       50
176
     1
 40
0.0
176
     1
 40
1.0
176
     1
 90
        0
176
     1
 62
    18
420
        0
176
     1
 90
       50
176
     1
 90
        3
176
     1
 62
     5
420
      255
176
     1
290
     0
176
     1
 90
       50
176
     1
 90
       50
176
     1
 90
       50
176
     1
290
     0
176
     1
 90
       50
176
     1
 62
   256
176
     0
 40
1.0
176
     0
 90
        2
176
     1
  1
strokes_ogs.tif
176
     1
290
     0
176
     1
 40
1.0
176
     1
 40
1.0
176
     1
  0
VISUALSTYLE
  5
3E
102
{ACAD_REACTORS
330
2A
102
}
330
2A
100
AcDbVisualStyle
  2
Shades of Gray
 70
    23
177
     3
291
     0
 70
    58
 90
        2
176
     1
 90
        2
176
     1
 90
        3
176
     1
 90
        0
176
     1
 40
0.6
176
     1
 40
30.0
176
     1
 62
     7
420
 16777215
176
     1
 90
        2
176
     1
 90
        2
176
     1
 62
     7
176
     1
 62
     7
176
     1
 90
        1
176
     1
 90
        1
176
     1
 40
40.0
176
     1
 90
        8
176
     1
 62
     7
176
     1
 40
1.0
176
     1
 90
        1
176
     1
 90
        6
176
     1
 90
        2
176
     1
 62
     7
176
     1
 90
        3
176
     1
 90
        0
176
     1
 90
        0
176
     1
290
     0
176
     1
 90
        1
176
     1
 40
0.0
176
     1
 90
        0
176
     1
290
     0
176
     1
290
     1
176
     1
290
     1
176
     1
290
     0
176
     1
290
     0
176
     1
290
     0
176
     1
290
     0
176
     1
290
     0
176
     1
290
     0
176
     1
 90
       50
176
     1
 40
0.0
176
     1
 40
1.0
176
     1
 90
        0
176
     1
 62
    18
420
        0
176
     1
 90
       50
176
     1
 90
        3
176
     1
 62
     5
420
      255
176
     1
290
     0
176
     1
 90
       50
176
     1
 90
       50
176
     1
 90
       50
176
     1
290
     0
176
     1
 90
       50
176
     1
 62
   256
176
     0
 40
1.0
176
     0
 90
        2
176
     1
  1
strokes_ogs.tif
176
     1
290
     0
176
     1
 40
1.0
176
     1
 40
1.0
176
     1
  0
VISUALSTYLE
  5
3F
102
{ACAD_REACTORS
330
2A
102
}
330
2A
100
AcDbVisualStyle
  2
Sketchy
 70
    24
177
     3
291
     0
 70
    58
 90
        1
176
     1
 90
        2
176
     1
 90
        2
176
     1
 90
        0
176
     1
 40
0.6
176
     1
 40
30.0
176
     1
 62
     7
420
 16777215
176
     1
 90
        2
176
     1
 90
        2
176
     1
 62
     7
176
     1
 62
     7
176
     1
 90
        1
176
     1
 90
        1
176
     1
 40
40.0
176
     1
 90
       11
176
     1
 62
     7
176
     1
 40
1.0
176
     1
 90
        1
176
     1
 90
        6
176
     1
 90
        2
176
     1
 62
     7
176
     1
 90
        6
176
     1
 90
        0
176
     1
 90
        0
176
     1
290
     0
176
     1
 90
        1
176
     1
 40
0.0
176
     1
 90
        0
176
     1
290
     0
176
     1
290
     1
176
     1
290
     1
176
     1
290
     0
176
     1
290
     0
176
     1
290
     0
176
     1
290
     0
176
     1
290
     0
176
     1
290
     0
176
     1
 90
       50
176
     1
 40
0.0
176
     1
 40
1.0
176
     1
 90
        0
176
     1
 62
    18
420
        0
176
     1
 90
       50
176
     1
 90
        3
176
     1
 62
     5
420
      255
176
     1
290
     0
176
     1
 90
       50
176
     1
 90
       50
176
     1
 90
       50
176
     1
290
     0
176
     1
 90
       50
176
     1
 62
   256
176
     0
 40
1.0
176
     0
 90
        2
176
     1
  1
strokes_ogs.tif
176
     1
290
     0
176
     1
 40
1.0
176
     1
 40
1.0
176
     1
  0
VISUALSTYLE
  5
37
102
{ACAD_REACTORS
330
2A
102
}
330
2A
100
AcDbVisualStyle
  2
Thicken
 70
    13
177
     3
291
     1
 70
    58
 90
        2
176
     1
 90
        2
176
     1
 90
        0
176
     1
 90
        0
176
     1
 40
0.6
176
     1
 40
30.0
176
     1
 62
     7
420
 16777215
176
     1
 90
        1
176
     1
 90
        4
176
     1
 62
     7
176
     1
 62
   257
176
     1
 90
        1
176
     1
 90
        1
176
     1
 40
1.0
176
     1
 90
       12
176
     1
 62
     7
176
     1
 40
1.0
176
     1
 90
        1
176
     1
 90
        6
176
     1
 90
        2
176
     1
 62
     7
176
     1
 90
        5
176
     1
 90
        0
176
     1
 90
        0
176
     1
290
     0
176
     1
 90
        1
176
     1
 40
0.0
176
     1
 90
        0
176
     1
290
     0
176
     1
290
     1
176
     1
290
     1
176
     1
290
     0
176
     1
290
     0
176
     1
290
     0
176
     1
290
     0
176
     1
290
     0
176
     1
290
     0
176
     1
 90
       50
176
     1
 40
0.0
176
     1
 40
1.0
176
     1
 90
        0
176
     1
 62
    18
420
        0
176
     1
 90
       50
176
     1
 90
        3
176
     1
 62
     5
420
      255
176
     1
290
     0
176
     1
 90
       50
176
     1
 90
       50
176
     1
 90
       50
176
     1
290
     0
176
     1
 90
       50
176
     1
 62
   256
176
     0
 40
1.0
176
     0
 90
        2
176
     1
  1
strokes_ogs.tif
176
     1
290
     0
176
     1
 40
1.0
176
     1
 40
1.0
176
     1
  0
VISUALSTYLE
  5
30
102
{ACAD_REACTORS
330
2A
102
}
330
2A
100
AcDbVisualStyle
  2
Wireframe
 70
     5
177
     3
291
     0
 70
    58
 90
        0
176
     1
 90
        2
176
     1
 90
        0
176
     1
 90
        0
176
     1
 40
0.6
176
     1
 40
30.0
176
     1
 62
     7
420
 16777215
176
     1
 90
        1
176
     1
 90
        4
176
     1
 62
     7
176
     1
 62
   257
176
     1
 90
        1
176
     1
 90
        1
176
     1
 40
1.0
176
     1
 90
        0
176
     1
 62
   257
176
     1
 40
1.0
176
     1
 90
        1
176
     1
 90
        6
176
     1
 90
        2
176
     1
 62
     7
176
     1
 90
        3
176
     1
 90
        0
176
     1
 90
        0
176
     1
290
     0
176
     1
 90
        1
176
     1
 40
0.0
176
     1
 90
        0
176
     1
290
     0
176
     1
290
     1
176
     1
290
     1
176
     1
290
     0
176
     1
290
     0
176
     1
290
     0
176
     1
290
     0
176
     1
290
     0
176
     1
290
     0
176
     1
 90
       50
176
     1
 40
0.0
176
     1
 40
1.0
176
     1
 90
        0
176
     1
 62
    18
420
        0
176
     1
 90
       50
176
     1
 90
        3
176
     1
 62
     5
420
      255
176
     1
290
     0
176
     1
 90
       50
176
     1
 90
       50
176
     1
 90
       50
176
     1
290
     0
176
     1
 90
       50
176
     1
 62
   256
176
     0
 40
1.0
176
     0
 90
        2
176
     1
  1
strokes_ogs.tif
176
     1
290
     0
176
     1
 40
1.0
176
     1
 40
1.0
176
     1
  0
VISUALSTYLE
  5
40
102
{ACAD_REACTORS
330
2A
102
}
330
2A
100
AcDbVisualStyle
  2
X-Ray
 70
    25
177
     3
291
     0
 70
    58
 90
        2
176
     1
 90
        2
176
     1
 90
        1
176
     1
 90
        1
176
     1
 40
0.5
176
     1
 40
30.0
176
     1
 62
     7
420
 16777215
176
     1
 90
        1
176
     1
 90
        0
176
     1
 62
     7
176
     1
 62
   257
176
     1
 90
        1
176
     1
 90
        1
176
     1
 40
1.0
176
     1
 90
        8
176
     1
 62
     7
176
     1
 40
1.0
176
     1
 90
        1
176
     1
 90
        6
176
     1
 90
        2
176
     1
 62
     7
176
     1
 90
        3
176
     1
 90
        0
176
     1
 90
        0
176
     1
290
     0
176
     1
 90
       13
176
     1
 40
0.0
176
     1
 90
        0
176
     1
290
     0
176
     1
290
     1
176
     1
290
     1
176
     1
290
     0
176
     1
290
     0
176
     1
290
     0
176
     1
290
     0
176
     1
290
     0
176
     1
290
     0
176
     1
 90
       50
176
     1
 40
0.0
176
     1
 40
1.0
176
     1
 90
        0
176
     1
 62
    18
420
        0
176
     1
 90
       50
176
     1
 90
        3
176
     1
 62
     5
420
      255
176
     1
290
     0
176
     1
 90
       50
176
     1
 90
       50
176
     1
 90
       50
176
     1
290
     0
176
     1
 90
       50
176
     1
 62
   256
176
     0
 40
1.0
176
     0
 90
        2
176
     1
  1
strokes_ogs.tif
176
     1
290
     0
176
     1
 40
1.0
176
     1
 40
1.0
176
     1
  0
DICTIONARYVAR
  5
1CA
102
{ACAD_REACTORS
330
1C9
102
}
330
1C9
100
DictionaryVariables
280
     0
  1
1:1
  0
DICTIONARYVAR
  5
1CF
102
{ACAD_REACTORS
330
1C9
102
}
330
1C9
100
DictionaryVariables
280
     0
  1
Standard
  0
DICTIONARYVAR
  5
1CE
102
{ACAD_REACTORS
330
1C9
102
}
330
1C9
100
DictionaryVariables
280
     0
  1
Standard
  0
DICTIONARY
  5
1CB
330
6A
100
AcDbDictionary
280
     1
281
     1
  3
ACAD_ROUNDTRIP_2008_TABLESTYLE_CELLSTYLEMAP
360
1CC
  0
CELLSTYLEMAP
  5
1CC
102
{ACAD_REACTORS
330
1CB
102
}
330
1CB
100
AcDbCellStyleMap
 90
        3
300
CELLSTYLE
  1
TABLEFORMAT_BEGIN
 90
        5
170
     1
 91
        0
 92
    32768
 62
   257
 93
        1
300
CONTENTFORMAT
  1
CONTENTFORMAT_BEGIN
 90
        0
 91
        0
 92
        4
 93
        0
300

 40
0.0
140
1.0
 94
        5
 62
     0
340
11
144
0.25
309
CONTENTFORMAT_END
171
     1
301
MARGIN
  1
CELLMARGIN_BEGIN
 40
0.06
 40
0.06
 40
0.06
 40
0.06
 40
0.06
 40
0.06
309
CELLMARGIN_END
 94
        6
 95
        1
302
GRIDFORMAT
  1
GRIDFORMAT_BEGIN
 90
        0
 91
        1
 62
     0
 92
       -2
340
14
 93
        0
 40
0.045
309
GRIDFORMAT_END
 95
        2
302
GRIDFORMAT
  1
GRIDFORMAT_BEGIN
 90
        0
 91
        1
 62
     0
 92
       -2
340
14
 93
        0
 40
0.045
309
GRIDFORMAT_END
 95
        4
302
GRIDFORMAT
  1
GRIDFORMAT_BEGIN
 90
        0
 91
        1
 62
     0
 92
       -2
340
14
 93
        0
 40
0.045
309
GRIDFORMAT_END
 95
        8
302
GRIDFORMAT
  1
GRIDFORMAT_BEGIN
 90
        0
 91
        1
 62
     0
 92
       -2
340
14
 93
        0
 40
0.045
309
GRIDFORMAT_END
 95
       16
302
GRIDFORMAT
  1
GRIDFORMAT_BEGIN
 90
        0
 91
        1
 62
     0
 92
       -2
340
14
 93
        0
 40
0.045
309
GRIDFORMAT_END
 95
       32
302
GRIDFORMAT
  1
GRIDFORMAT_BEGIN
 90
        0
 91
        1
 62
     0
 92
       -2
340
14
 93
        0
 40
0.045
309
GRIDFORMAT_END
309
TABLEFORMAT_END
  1
CELLSTYLE_BEGIN
 90
        1
 91
        1
300
_TITLE
309
CELLSTYLE_END
300
CELLSTYLE
  1
TABLEFORMAT_BEGIN
 90
        5
170
     1
 91
        0
 92
        0
 62
   257
 93
        1
300
CONTENTFORMAT
  1
CONTENTFORMAT_BEGIN
 90
        0
 91
        0
 92
        4
 93
        0
300

 40
0.0
140
1.0
 94
        5
 62
     0
340
11
144
0.18
309
CONTENTFORMAT_END
171
     1
301
MARGIN
  1
CELLMARGIN_BEGIN
 40
0.06
 40
0.06
 40
0.06
 40
0.06
 40
0.06
 40
0.06
309
CELLMARGIN_END
 94
        6
 95
        1
302
GRIDFORMAT
  1
GRIDFORMAT_BEGIN
 90
        0
 91
        1
 62
     0
 92
       -2
340
14
 93
        0
 40
0.045
309
GRIDFORMAT_END
 95
        2
302
GRIDFORMAT
  1
GRIDFORMAT_BEGIN
 90
        0
 91
        1
 62
     0
 92
       -2
340
14
 93
        0
 40
0.045
309
GRIDFORMAT_END
 95
        4
302
GRIDFORMAT
  1
GRIDFORMAT_BEGIN
 90
        0
 91
        1
 62
     0
 92
       -2
340
14
 93
        0
 40
0.045
309
GRIDFORMAT_END
 95
        8
302
GRIDFORMAT
  1
GRIDFORMAT_BEGIN
 90
        0
 91
        1
 62
     0
 92
       -2
340
14
 93
        0
 40
0.045
309
GRIDFORMAT_END
 95
       16
302
GRIDFORMAT
  1
GRIDFORMAT_BEGIN
 90
        0
 91
        1
 62
     0
 92
       -2
340
14
 93
        0
 40
0.045
309
GRIDFORMAT_END
 95
       32
302
GRIDFORMAT
  1
GRIDFORMAT_BEGIN
 90
        0
 91
        1
 62
     0
 92
       -2
340
14
 93
        0
 40
0.045
309
GRIDFORMAT_END
309
TABLEFORMAT_END
  1
CELLSTYLE_BEGIN
 90
        2
 91
        1
300
_HEADER
309
CELLSTYLE_END
300
CELLSTYLE
  1
TABLEFORMAT_BEGIN
 90
        5
170
     1
 91
        0
 92
        0
 62
   257
 93
        1
300
CONTENTFORMAT
  1
CONTENTFORMAT_BEGIN
 90
        0
 91
        0
 92
        4
 93
        0
300

 40
0.0
140
1.0
 94
        2
 62
     0
340
11
144
0.18
309
CONTENTFORMAT_END
171
     1
301
MARGIN
  1
CELLMARGIN_BEGIN
 40
0.06
 40
0.06
 40
0.06
 40
0.06
 40
0.06
 40
0.06
309
CELLMARGIN_END
 94
        6
 95
        1
302
GRIDFORMAT
  1
GRIDFORMAT_BEGIN
 90
        0
 91
        1
 62
     0
 92
       -2
340
14
 93
        0
 40
0.045
309
GRIDFORMAT_END
 95
        2
302
GRIDFORMAT
  1
GRIDFORMAT_BEGIN
 90
        0
 91
        1
 62
     0
 92
       -2
340
14
 93
        0
 40
0.045
309
GRIDFORMAT_END
 95
        4
302
GRIDFORMAT
  1
GRIDFORMAT_BEGIN
 90
        0
 91
        1
 62
     0
 92
       -2
340
14
 93
        0
 40
0.045
309
GRIDFORMAT_END
 95
        8
302
GRIDFORMAT
  1
GRIDFORMAT_BEGIN
 90
        0
 91
        1
 62
     0
 92
       -2
340
14
 93
        0
 40
0.045
309
GRIDFORMAT_END
 95
       16
302
GRIDFORMAT
  1
GRIDFORMAT_BEGIN
 90
        0
 91
        1
 62
     0
 92
       -2
340
14
 93
        0
 40
0.045
309
GRIDFORMAT_END
 95
       32
302
GRIDFORMAT
  1
GRIDFORMAT_BEGIN
 90
        0
 91
        1
 62
     0
 92
       -2
340
14
 93
        0
 40
0.045
309
GRIDFORMAT_END
309
TABLEFORMAT_END
  1
CELLSTYLE_BEGIN
 90
        3
 91
        2
300
_DATA
309
CELLSTYLE_END
  0
ENDSEC
  0
EOF