0
SECTION
  2
HEADER
  9
$ACADVER
  1
AC1027
  9
$ACADMAINTVER
 70
     8
  9
$DWGCODEPAGE
  3
ANSI_1252
  9
$REQUIREDVERSIONS
160
                 0
  9
$COMMENTS
  1
File was created by Cadenas
  9
$CUSTOMPROPERTYTAG
  1
NN
  9
$CUSTOMPROPERTY
  1
Unisphere II Pillow Block Inch Bore
  9
$CUSTOMPROPERTYTAG
  1
NT
  9
$CUSTOMPROPERTY
  1
Unisphere II
  9
$CUSTOMPROPERTYTAG
  1
NB
  9
$CUSTOMPROPERTY
  1
048007
  9
$CUSTOMPROPERTYTAG
  1
NBSYN
  9
$CUSTOMPROPERTY
  1
$PN.
  9
$CUSTOMPROPERTYTAG
  1
LINA
  9
$CUSTOMPROPERTY
  1
048007
  9
$CUSTOMPROPERTYTAG
  1
SS
  9
$CUSTOMPROPERTY
  1
2-7/16
  9
$CUSTOMPROPERTYTAG
  1
TYPE
  9
$CUSTOMPROPERTY
  1
Non Expansion Type
  9
$CUSTOMPROPERTYTAG
  1
PN
  9
$CUSTOMPROPERTY
  1
048007
  9
$CUSTOMPROPERTYTAG
  1
DESCRIPTION
  9
$CUSTOMPROPERTY
  1
P2B-UN2-207
  9
$CUSTOMPROPERTYTAG
  1
WEIGHT
  9
$CUSTOMPROPERTY
  1
13.6
  9
$CUSTOMPROPERTYTAG
  1
A
  9
$CUSTOMPROPERTY
  1
2-13/64
  9
$CUSTOMPROPERTYTAG
  1
B
  9
$CUSTOMPROPERTY
  1
9-1/4
  9
$CUSTOMPROPERTYTAG
  1
C
  9
$CUSTOMPROPERTY
  1
2-9/16
  9
$CUSTOMPROPERTYTAG
  1
DMIN
  9
$CUSTOMPROPERTY
  1
6-13/16
  9
$CUSTOMPROPERTYTAG
  1
DMAX
  9
$CUSTOMPROPERTY
  1
7-7/16
  9
$CUSTOMPROPERTYTAG
  1
E
  9
$CUSTOMPROPERTY
  1
3/16
  9
$CUSTOMPROPERTYTAG
  1
F
  9
$CUSTOMPROPERTY
  1
5/8
  9
$CUSTOMPROPERTYTAG
  1
G
  9
$CUSTOMPROPERTY
  1
1
  9
$CUSTOMPROPERTYTAG
  1
H
  9
$CUSTOMPROPERTY
  1
1-3/4
  9
$CUSTOMPROPERTYTAG
  1
J
  9
$CUSTOMPROPERTY
  1
5-11/16
  9
$CUSTOMPROPERTYTAG
  1
L
  9
$CUSTOMPROPERTY
  1
4-1/16
  9
$CUSTOMPROPERTYTAG
  1
M
  9
$CUSTOMPROPERTY
  1
2-3/4
  9
$CUSTOMPROPERTYTAG
  1
R
  9
$CUSTOMPROPERTY
  1
21/32
  9
$CUSTOMPROPERTYTAG
  1
S
  9
$CUSTOMPROPERTY
  1
1-35/64
  9
$CUSTOMPROPERTYTAG
  1
MRPM
  9
$CUSTOMPROPERTY
  1
1900
  9
$CUSTOMPROPERTYTAG
  1
CS
  9
$CUSTOMPROPERTY
  1
46500
  9
$CUSTOMPROPERTYTAG
  1
CD
  9
$CUSTOMPROPERTY
  1
38000
  9
$CUSTOMPROPERTYTAG
  1
RN
  9
$CUSTOMPROPERTY
  1
18
  9
$CUSTOMPROPERTYTAG
  1
RM
  9
$CUSTOMPROPERTY
  1
0.5827
  9
$CUSTOMPROPERTYTAG
  1
PD
  9
$CUSTOMPROPERTY
  1
3.795
  9
$CUSTOMPROPERTYTAG
  1
RC
  9
$CUSTOMPROPERTY
  1
0.0016-0.0026
  9
$CUSTOMPROPERTYTAG
  1
CSS
  9
$CUSTOMPROPERTY
  1
3/8-16x3/4
  9
$CUSTOMPROPERTYTAG
  1
CST
  9
$CUSTOMPROPERTY
  1
290
  9
$CUSTOMPROPERTYTAG
  1
MH
  9
$CUSTOMPROPERTY
  1
Ductile Iron Grade 65-45-12 ASTM A536
  9
$CUSTOMPROPERTYTAG
  1
MIR
  9
$CUSTOMPROPERTY
  1
4118 Case Carb.
  9
$CUSTOMPROPERTYTAG
  1
MOR
  9
$CUSTOMPROPERTY
  1
E52100 Steel
  9
$CUSTOMPROPERTYTAG
  1
MR
  9
$CUSTOMPROPERTY
  1
Polyamide
  9
$CUSTOMPROPERTYTAG
  1
MRO
  9
$CUSTOMPROPERTY
  1
E52100 Steel
  9
$CUSTOMPROPERTYTAG
  1
SM
  9
$CUSTOMPROPERTY
  1
2°
  9
$CUSTOMPROPERTYTAG
  1
COMPANY
  9
$CUSTOMPROPERTY
  1
baldor
  9
$INSBASE
 10
0.0
 20
0.0
 30
0.0
  9
$EXTMIN
 10
1.000000000000000E+20
 20
1.000000000000000E+20
 30
1.000000000000000E+20
  9
$EXTMAX
 10
-1.000000000000000E+20
 20
-1.000000000000000E+20
 30
-1.000000000000000E+20
  9
$LIMMIN
 10
0.0
 20
0.0
  9
$LIMMAX
 10
12.0
 20
9.0
  9
$ORTHOMODE
 70
     0
  9
$REGENMODE
 70
     1
  9
$FILLMODE
 70
     1
  9
$QTEXTMODE
 70
     0
  9
$MIRRTEXT
 70
     1
  9
$LTSCALE
 40
1.0
  9
$ATTMODE
 70
     1
  9
$TEXTSIZE
 40
0.2
  9
$TRACEWID
 40
0.05
  9
$TEXTSTYLE
  7
Standard
  9
$CLAYER
  8
0
  9
$CELTYPE
  6
ByLayer
  9
$CECOLOR
 62
   256
  9
$CELTSCALE
 40
1.0
  9
$DISPSILH
 70
     0
  9
$DIMSCALE
 40
1.0
  9
$DIMASZ
 40
0.18
  9
$DIMEXO
 40
0.0625
  9
$DIMDLI
 40
0.38
  9
$DIMRND
 40
0.0
  9
$DIMDLE
 40
0.0
  9
$DIMEXE
 40
0.18
  9
$DIMTP
 40
0.0
  9
$DIMTM
 40
0.0
  9
$DIMTXT
 40
0.18
  9
$DIMCEN
 40
0.09
  9
$DIMTSZ
 40
0.0
  9
$DIMTOL
 70
     0
  9
$DIMLIM
 70
     0
  9
$DIMTIH
 70
     1
  9
$DIMTOH
 70
     1
  9
$DIMSE1
 70
     0
  9
$DIMSE2
 70
     0
  9
$DIMTAD
 70
     0
  9
$DIMZIN
 70
     0
  9
$DIMBLK
  1

  9
$DIMASO
 70
     1
  9
$DIMSHO
 70
     1
  9
$DIMPOST
  1

  9
$DIMAPOST
  1

  9
$DIMALT
 70
     0
  9
$DIMALTD
 70
     2
  9
$DIMALTF
 40
25.4
  9
$DIMLFAC
 40
1.0
  9
$DIMTOFL
 70
     0
  9
$DIMTVP
 40
0.0
  9
$DIMTIX
 70
     0
  9
$DIMSOXD
 70
     0
  9
$DIMSAH
 70
     0
  9
$DIMBLK1
  1

  9
$DIMBLK2
  1

  9
$DIMSTYLE
  2
Standard
  9
$DIMCLRD
 70
     0
  9
$DIMCLRE
 70
     0
  9
$DIMCLRT
 70
     0
  9
$DIMTFAC
 40
1.0
  9
$DIMGAP
 40
0.09
  9
$DIMJUST
 70
     0
  9
$DIMSD1
 70
     0
  9
$DIMSD2
 70
     0
  9
$DIMTOLJ
 70
     1
  9
$DIMTZIN
 70
     0
  9
$DIMALTZ
 70
     0
  9
$DIMALTTZ
 70
     0
  9
$DIMUPT
 70
     0
  9
$DIMDEC
 70
     4
  9
$DIMTDEC
 70
     4
  9
$DIMALTU
 70
     2
  9
$DIMALTTD
 70
     2
  9
$DIMTXSTY
  7
Standard
  9
$DIMAUNIT
 70
     0
  9
$DIMADEC
 70
     0
  9
$DIMALTRND
 40
0.0
  9
$DIMAZIN
 70
     0
  9
$DIMDSEP
 70
    46
  9
$DIMATFIT
 70
     3
  9
$DIMFRAC
 70
     0
  9
$DIMLDRBLK
  1

  9
$DIMLUNIT
 70
     2
  9
$DIMLWD
 70
    -2
  9
$DIMLWE
 70
    -2
  9
$DIMTMOVE
 70
     0
  9
$DIMFXL
 40
1.0
  9
$DIMFXLON
 70
     0
  9
$DIMJOGANG
 40
0.7853981633974483
  9
$DIMTFILL
 70
     0
  9
$DIMTFILLCLR
 70
     0
  9
$DIMARCSYM
 70
     0
  9
$DIMLTYPE
  6

  9
$DIMLTEX1
  6

  9
$DIMLTEX2
  6

  9
$DIMTXTDIRECTION
 70
     0
  9
$LUNITS
 70
     2
  9
$LUPREC
 70
     4
  9
$SKETCHINC
 40
0.1
  9
$FILLETRAD
 40
0.5
  9
$AUNITS
 70
     0
  9
$AUPREC
 70
     0
  9
$MENU
  1
.
  9
$ELEVATION
 40
0.0
  9
$PELEVATION
 40
0.0
  9
$THICKNESS
 40
0.0
  9
$LIMCHECK
 70
     0
  9
$CHAMFERA
 40
0.0
  9
$CHAMFERB
 40
0.0
  9
$CHAMFERC
 40
0.0
  9
$CHAMFERD
 40
0.0
  9
$SKPOLY
 70
     0
  9
$TDCREATE
 40
2458169.003023229
  9
$TDUCREATE
 40
2458168.961356563
  9
$TDUPDATE
 40
2458169.003023403
  9
$TDUUPDATE
 40
2458168.961356736
  9
$TDINDWG
 40
0.0000000116
  9
$TDUSRTIMER
 40
0.0000000116
  9
$USRTIMER
 70
     1
  9
$ANGBASE
 50
0.0
  9
$ANGDIR
 70
     0
  9
$PDMODE
 70
     0
  9
$PDSIZE
 40
0.0
  9
$PLINEWID
 40
0.0
  9
$SPLFRAME
 70
     0
  9
$SPLINETYPE
 70
     6
  9
$SPLINESEGS
 70
     8
  9
$HANDSEED
  5
1B8
  9
$SURFTAB1
 70
     6
  9
$SURFTAB2
 70
     6
  9
$SURFTYPE
 70
     6
  9
$SURFU
 70
     6
  9
$SURFV
 70
     6
  9
$UCSBASE
  2

  9
$UCSNAME
  2

  9
$UCSORG
 10
0.0
 20
0.0
 30
0.0
  9
$UCSXDIR
 10
1.0
 20
0.0
 30
0.0
  9
$UCSYDIR
 10
0.0
 20
1.0
 30
0.0
  9
$UCSORTHOREF
  2

  9
$UCSORTHOVIEW
 70
     0
  9
$UCSORGTOP
 10
0.0
 20
0.0
 30
0.0
  9
$UCSORGBOTTOM
 10
0.0
 20
0.0
 30
0.0
  9
$UCSORGLEFT
 10
0.0
 20
0.0
 30
0.0
  9
$UCSORGRIGHT
 10
0.0
 20
0.0
 30
0.0
  9
$UCSORGFRONT
 10
0.0
 20
0.0
 30
0.0
  9
$UCSORGBACK
 10
0.0
 20
0.0
 30
0.0
  9
$PUCSBASE
  2

  9
$PUCSNAME
  2

  9
$PUCSORG
 10
0.0
 20
0.0
 30
0.0
  9
$PUCSXDIR
 10
1.0
 20
0.0
 30
0.0
  9
$PUCSYDIR
 10
0.0
 20
1.0
 30
0.0
  9
$PUCSORTHOREF
  2

  9
$PUCSORTHOVIEW
 70
     0
  9
$PUCSORGTOP
 10
0.0
 20
0.0
 30
0.0
  9
$PUCSORGBOTTOM
 10
0.0
 20
0.0
 30
0.0
  9
$PUCSORGLEFT
 10
0.0
 20
0.0
 30
0.0
  9
$PUCSORGRIGHT
 10
0.0
 20
0.0
 30
0.0
  9
$PUCSORGFRONT
 10
0.0
 20
0.0
 30
0.0
  9
$PUCSORGBACK
 10
0.0
 20
0.0
 30
0.0
  9
$USERI1
 70
     0
  9
$USERI2
 70
     0
  9
$USERI3
 70
     0
  9
$USERI4
 70
     0
  9
$USERI5
 70
     0
  9
$USERR1
 40
0.0
  9
$USERR2
 40
0.0
  9
$USERR3
 40
0.0
  9
$USERR4
 40
0.0
  9
$USERR5
 40
0.0
  9
$WORLDVIEW
 70
     1
  9
$SHADEDGE
 70
     3
  9
$SHADEDIF
 70
    70
  9
$TILEMODE
 70
     1
  9
$MAXACTVP
 70
    64
  9
$PINSBASE
 10
0.0
 20
0.0
 30
0.0
  9
$PLIMCHECK
 70
     0
  9
$PEXTMIN
 10
1.000000000000000E+20
 20
1.000000000000000E+20
 30
1.000000000000000E+20
  9
$PEXTMAX
 10
-1.000000000000000E+20
 20
-1.000000000000000E+20
 30
-1.000000000000000E+20
  9
$PLIMMIN
 10
0.0
 20
0.0
  9
$PLIMMAX
 10
12.0
 20
9.0
  9
$UNITMODE
 70
     0
  9
$VISRETAIN
 70
     1
  9
$PLINEGEN
 70
     0
  9
$PSLTSCALE
 70
     1
  9
$TREEDEPTH
 70
  3020
  9
$CMLSTYLE
  2
Standard
  9
$CMLJUST
 70
     0
  9
$CMLSCALE
 40
1.0
  9
$PROXYGRAPHICS
 70
     1
  9
$MEASUREMENT
 70
     0
  9
$CELWEIGHT
370
    -1
  9
$ENDCAPS
280
     0
  9
$JOINSTYLE
280
     0
  9
$LWDISPLAY
290
     0
  9
$INSUNITS
 70
     1
  9
$HYPERLINKBASE
  1

  9
$STYLESHEET
  1

  9
$XEDIT
290
     1
  9
$CEPSNTYPE
380
     0
  9
$PSTYLEMODE
290
     1
  9
$FINGERPRINTGUID
  2
{6BB3BEA3-B107-4B94-9CCE-028E5CD7C4AF}
  9
$VERSIONGUID
  2
{FAEB1C32-E019-11D5-929B-00C0DF256EC4}
  9
$EXTNAMES
290
     1
  9
$PSVPSCALE
 40
0.0
  9
$OLESTARTUP
290
     0
  9
$SORTENTS
280
   127
  9
$INDEXCTL
280
     0
  9
$HIDETEXT
280
     1
  9
$XCLIPFRAME
280
     2
  9
$HALOGAP
280
     0
  9
$OBSCOLOR
 70
   257
  9
$OBSLTYPE
280
     0
  9
$INTERSECTIONDISPLAY
280
     0
  9
$INTERSECTIONCOLOR
 70
   257
  9
$DIMASSOC
280
     2
  9
$PROJECTNAME
  1

  9
$CAMERADISPLAY
290
     0
  9
$LENSLENGTH
 40
50.0
  9
$CAMERAHEIGHT
 40
0.0
  9
$STEPSPERSEC
 40
2.0
  9
$STEPSIZE
 40
6.0
  9
$3DDWFPREC
 40
2.0
  9
$PSOLWIDTH
 40
0.25
  9
$PSOLHEIGHT
 40
4.0
  9
$LOFTANG1
 40
1.570796326794897
  9
$LOFTANG2
 40
1.570796326794897
  9
$LOFTMAG1
 40
0.0
  9
$LOFTMAG2
 40
0.0
  9
$LOFTPARAM
 70
     7
  9
$LOFTNORMALS
280
     1
  9
$LATITUDE
 40
37.795
  9
$LONGITUDE
 40
-122.394
  9
$NORTHDIRECTION
 40
0.0
  9
$TIMEZONE
 70
 -8000
  9
$LIGHTGLYPHDISPLAY
280
     1
  9
$TILEMODELIGHTSYNCH
280
     1
  9
$CMATERIAL
347
44
  9
$SOLIDHIST
280
     0
  9
$SHOWHIST
280
     1
  9
$DWFFRAME
280
     2
  9
$DGNFRAME
280
     2
  9
$REALWORLDSCALE
290
     1
  9
$INTERFERECOLOR
 62
   256
  9
$CSHADOW
280
     0
  9
$SHADOWPLANELOCATION
 40
0.0
  0
ENDSEC
  0
SECTION
  2
CLASSES
  0
CLASS
  1
ACDBDICTIONARYWDFLT
  2
AcDbDictionaryWithDefault
  3
ObjectDBX Classes
 90
        0
 91
        4
280
     0
281
     0
  0
CLASS
  1
VISUALSTYLE
  2
AcDbVisualStyle
  3
ObjectDBX Classes
 90
     4095
 91
        4
280
     0
281
     0
  0
CLASS
  1
MATERIAL
  2
AcDbMaterial
  3
ObjectDBX Classes
 90
     1153
 91
        4
280
     0
281
     0
  0
CLASS
  1
SCALE
  2
AcDbScale
  3
ObjectDBX Classes
 90
     1153
 91
        4
280
     0
281
     0
  0
CLASS
  1
TABLESTYLE
  2
AcDbTableStyle
  3
ObjectDBX Classes
 90
     4095
 91
        4
280
     0
281
     0
  0
CLASS
  1
MLEADERSTYLE
  2
AcDbMLeaderStyle
  3
ACDB_MLEADERSTYLE_CLASS
 90
     4095
 91
        4
280
     0
281
     0
  0
CLASS
  1
SUN
  2
AcDbSun
  3
SCENEOE
 90
     1153
 91
        4
280
     0
281
     0
  0
CLASS
  1
DICTIONARYVAR
  2
AcDbDictionaryVar
  3
ObjectDBX Classes
 90
        0
 91
        4
280
     0
281
     0
  0
CLASS
  1
CELLSTYLEMAP
  2
AcDbCellStyleMap
  3
ObjectDBX Classes
 90
     1152
 91
        4
280
     0
281
     0
  0
ENDSEC
  0
SECTION
  2
TABLES
  0
TABLE
  2
VPORT
  5
8
330
0
100
AcDbSymbolTable
 70
     1
  0
VPORT
  5
29
330
8
100
AcDbSymbolTableRecord
100
AcDbViewportTableRecord
  2
*Active
 70
     0
 10
0.0
 20
0.0
 11
1.0
 21
1.0
 12
-0.1238307499999998
 22
0.0937499999999991
 13
0.0
 23
0.0
 14
0.5
 24
0.5
 15
0.5
 25
0.5
 16
0.0
 26
0.0
 36
1.0
 17
0.0
 27
0.0
 37
0.0
 40
5.801249999999999
 41
0.539149274725275
 42
50.0
 43
0.0
 44
0.0
 50
0.0
 51
0.0
 71
     0
 72
   100
 73
     1
 74
     3
 75
     0
 76
     0
 77
     0
 78
     0
281
     0
 65
     1
110
0.0
120
0.0
130
0.0
111
1.0
121
0.0
131
0.0
112
0.0
122
1.0
132
0.0
 79
     0
146
0.0
348
2F
 60
     3
 61
     5
292
     1
282
     1
141
0.0
142
0.0
 63
   250
361
6D
  0
ENDTAB
  0
TABLE
  2
LTYPE
  5
5
330
0
100
AcDbSymbolTable
 70
     3
  0
LTYPE
  5
14
330
5
100
AcDbSymbolTableRecord
100
AcDbLinetypeTableRecord
  2
ByBlock
 70
     0
  3

 72
    65
 73
     0
 40
0.0
  0
LTYPE
  5
15
330
5
100
AcDbSymbolTableRecord
100
AcDbLinetypeTableRecord
  2
ByLayer
 70
     0
  3

 72
    65
 73
     0
 40
0.0
  0
LTYPE
  5
16
330
5
100
AcDbSymbolTableRecord
100
AcDbLinetypeTableRecord
  2
Continuous
 70
     0
  3
Solid line
 72
    65
 73
     0
 40
0.0
  0
LTYPE
  5
B2
330
5
100
AcDbSymbolTableRecord
100
AcDbLinetypeTableRecord
  2
Dashed
 70
     0
  3

 72
    65
 73
     2
 40
2.0
 49
1.0
 74
     0
 49
-1.0
 74
     0
  0
LTYPE
  5
D9
330
5
100
AcDbSymbolTableRecord
100
AcDbLinetypeTableRecord
  2
Center
 70
     0
  3

 72
    65
 73
     4
 40
1.5
 49
0.45
 74
     0
 49
-0.5
 74
     0
 49
0.05
 74
     0
 49
-0.5
 74
     0
  0
ENDTAB
  0
TABLE
  2
LAYER
  5
2
330
0
100
AcDbSymbolTable
 70
     7
  0
LAYER
  5
10
330
2
100
AcDbSymbolTableRecord
100
AcDbLayerTableRecord
  2
0
 70
     0
 62
     7
  6
Continuous
370
    -3
390
F
347
46
348
0
  0
LAYER
  5
72
330
2
100
AcDbSymbolTableRecord
100
AcDbLayerTableRecord
  2
AM_6
 70
     0
 62
    -2
  6
Continuous
370
    35
390
F
347
46
348
0
  0
LAYER
  5
B3
330
2
100
AcDbSymbolTableRecord
100
AcDbLayerTableRecord
  2
AM_9
 70
     0
 62
     6
  6
Dashed
370
    25
390
F
347
46
348
0
  0
LAYER
  5
D5
330
2
100
AcDbSymbolTableRecord
100
AcDbLayerTableRecord
  2
AM_5
 70
     0
 62
     3
  6
Continuous
370
    25
390
F
347
46
348
0
  0
LAYER
  5
DA
330
2
100
AcDbSymbolTableRecord
100
AcDbLayerTableRecord
  2
AM_7
 70
     0
 62
     7
  6
Center
370
    25
390
F
347
46
348
0
  0
LAYER
  5
DC
330
2
100
AcDbSymbolTableRecord
100
AcDbLayerTableRecord
  2
AM_4
 70
     0
 62
     7
  6
Continuous
370
    50
390
F
347
46
348
0
  0
LAYER
  5
1AB
330
2
100
AcDbSymbolTableRecord
100
AcDbLayerTableRecord
  2
ConnectionPoints
 70
     0
 62
     7
  6
Continuous
370
    50
390
F
347
46
348
0
  0
ENDTAB
  0
TABLE
  2
STYLE
  5
3
330
0
100
AcDbSymbolTable
 70
     1
  0
STYLE
  5
11
330
3
100
AcDbSymbolTableRecord
100
AcDbTextStyleTableRecord
  2
Standard
 70
     0
 40
0.0
 41
1.0
 50
0.0
 71
     0
 42
0.2
  3
txt
  4

  0
ENDTAB
  0
TABLE
  2
VIEW
  5
6
330
0
100
AcDbSymbolTable
 70
     0
  0
ENDTAB
  0
TABLE
  2
UCS
  5
7
330
0
100
AcDbSymbolTable
 70
     0
  0
ENDTAB
  0
TABLE
  2
APPID
  5
9
330
0
100
AcDbSymbolTable
 70
     1
  0
APPID
  5
12
330
9
100
AcDbSymbolTableRecord
100
AcDbRegAppTableRecord
  2
ACAD
 70
     0
  0
ENDTAB
  0
TABLE
  2
DIMSTYLE
  5
A
330
0
100
AcDbSymbolTable
 70
     1
100
AcDbDimStyleTable
  0
DIMSTYLE
105
27
330
A
100
AcDbSymbolTableRecord
100
AcDbDimStyleTableRecord
  2
Standard
 70
     0
178
     0
340
11
  0
ENDTAB
  0
TABLE
  2
BLOCK_RECORD
  5
1
330
0
100
AcDbSymbolTable
 70
     5
  0
BLOCK_RECORD
  5
1F
330
1
100
AcDbSymbolTableRecord
100
AcDbBlockTableRecord
  2
*Model_Space
340
22
 70
     0
280
     1
281
     0
  0
BLOCK_RECORD
  5
1B
330
1
100
AcDbSymbolTableRecord
100
AcDbBlockTableRecord
  2
*Paper_Space
340
1E
 70
     0
280
     1
281
     0
  0
BLOCK_RECORD
  5
23
330
1
100
AcDbSymbolTableRecord
100
AcDbBlockTableRecord
  2
*Paper_Space0
340
26
 70
     0
280
     1
281
     0
  0
BLOCK_RECORD
  5
6E
330
1
100
AcDbSymbolTableRecord
100
AcDbBlockTableRecord
  2
1_048007_2
340
0
102
{BLKREFS
331
6F
102
}
 70
     0
280
     1
281
     0
  0
BLOCK_RECORD
  5
9B
330
1
100
AcDbSymbolTableRecord
100
AcDbBlockTableRecord
  2
2_421250_0_in_048007_2
340
0
102
{BLKREFS
331
9C
102
}
 70
     0
280
     1
281
     0
  0
BLOCK_RECORD
  5
E7
330
1
100
AcDbSymbolTableRecord
100
AcDbBlockTableRecord
  2
3_405020c_Inch_0_in_048007_2
340
0
102
{BLKREFS
331
E8
102
}
 70
     0
280
     1
281
     0
  0
BLOCK_RECORD
  5
141
330
1
100
AcDbSymbolTableRecord
100
AcDbBlockTableRecord
  2
4_048007B_0_in_048007_2
340
0
102
{BLKREFS
331
142
102
}
 70
     0
280
     1
281
     0
  0
ENDTAB
  0
ENDSEC
  0
SECTION
  2
BLOCKS
  0
BLOCK
  5
20
330
1F
100
AcDbEntity
  8
0
100
AcDbBlockBegin
  2
*Model_Space
 70
     0
 10
0.0
 20
0.0
 30
0.0
  3
*Model_Space
  1

  0
ENDBLK
  5
21
330
1F
100
AcDbEntity
  8
0
100
AcDbBlockEnd
  0
BLOCK
  5
1C
330
1B
100
AcDbEntity
 67
     1
  8
0
100
AcDbBlockBegin
  2
*Paper_Space
 70
     0
 10
0.0
 20
0.0
 30
0.0
  3
*Paper_Space
  1

  0
ENDBLK
  5
1D
330
1B
100
AcDbEntity
 67
     1
  8
0
100
AcDbBlockEnd
  0
BLOCK
  5
24
330
23
100
AcDbEntity
  8
0
100
AcDbBlockBegin
  2
*Paper_Space0
 70
     0
 10
0.0
 20
0.0
 30
0.0
  3
*Paper_Space0
  1

  0
ENDBLK
  5
25
330
23
100
AcDbEntity
  8
0
100
AcDbBlockEnd
  0
BLOCK
  5
70
330
6E
100
AcDbEntity
  8
0
100
AcDbBlockBegin
  2
1_048007_2
 70
     2
 10
0.0
 20
0.0
 30
0.0
  3
1_048007_2
  1

  0
ATTDEF
  5
73
330
6E
100
AcDbEntity
  8
AM_6
100
AcDbText
 10
6.409375
 20
2.937499999999998
 30
0.0
 40
0.5
  1
Unisphere II Pillow Block Inch Bore
100
AcDbAttributeDefinition
  3

  2
NN
 70
     8
280
     0
  0
ATTDEF
  5
74
330
6E
100
AcDbEntity
  8
AM_6
100
AcDbText
 10
6.409375
 20
2.437499999999998
 30
0.0
 40
0.5
  1
Unisphere II
100
AcDbAttributeDefinition
  3

  2
NT
 70
     8
280
     0
  0
ATTDEF
  5
75
330
6E
100
AcDbEntity
  8
AM_6
100
AcDbText
 10
6.409375
 20
1.937499999999998
 30
0.0
 40
0.5
  1
048007
100
AcDbAttributeDefinition
  3

  2
NB
 70
     8
280
     0
  0
ATTDEF
  5
76
330
6E
100
AcDbEntity
  8
AM_6
100
AcDbText
 10
6.409375
 20
1.437499999999998
 30
0.0
 40
0.5
  1
$PN.
100
AcDbAttributeDefinition
  3

  2
NBSYN
 70
     8
280
     0
  0
ATTDEF
  5
77
330
6E
100
AcDbEntity
  8
AM_6
100
AcDbText
 10
6.409375
 20
0.9374999999999978
 30
0.0
 40
0.5
  1
048007
100
AcDbAttributeDefinition
  3

  2
LINA
 70
     8
280
     0
  0
ATTDEF
  5
78
330
6E
100
AcDbEntity
  8
AM_6
100
AcDbText
 10
6.409375
 20
0.4374999999999978
 30
0.0
 40
0.5
  1
2-7/16
100
AcDbAttributeDefinition
  3

  2
SS
 70
     8
280
     0
  0
ATTDEF
  5
79
330
6E
100
AcDbEntity
  8
AM_6
100
AcDbText
 10
6.409375
 20
-0.0625000000000022
 30
0.0
 40
0.5
  1
Non Expansion Type
100
AcDbAttributeDefinition
  3

  2
TYPE
 70
     8
280
     0
  0
ATTDEF
  5
7A
330
6E
100
AcDbEntity
  8
AM_6
100
AcDbText
 10
6.409375
 20
-0.5625000000000022
 30
0.0
 40
0.5
  1
048007
100
AcDbAttributeDefinition
  3

  2
PN
 70
     8
280
     0
  0
ATTDEF
  5
7B
330
6E
100
AcDbEntity
  8
AM_6
100
AcDbText
 10
6.409375
 20
-1.062500000000002
 30
0.0
 40
0.5
  1
P2B-UN2-207
100
AcDbAttributeDefinition
  3

  2
DESCRIPTION
 70
     8
280
     0
  0
ATTDEF
  5
7C
330
6E
100
AcDbEntity
  8
AM_6
100
AcDbText
 10
6.409375
 20
-1.562500000000002
 30
0.0
 40
0.5
  1
13.6
100
AcDbAttributeDefinition
  3

  2
WEIGHT
 70
     8
280
     0
  0
ATTDEF
  5
7D
330
6E
100
AcDbEntity
  8
AM_6
100
AcDbText
 10
6.409375
 20
-2.062500000000002
 30
0.0
 40
0.5
  1
2-13/64
100
AcDbAttributeDefinition
  3

  2
A
 70
     8
280
     0
  0
ATTDEF
  5
7E
330
6E
100
AcDbEntity
  8
AM_6
100
AcDbText
 10
6.409375
 20
-2.562500000000002
 30
0.0
 40
0.5
  1
9-1/4
100
AcDbAttributeDefinition
  3

  2
B
 70
     8
280
     0
  0
ATTDEF
  5
7F
330
6E
100
AcDbEntity
  8
AM_6
100
AcDbText
 10
6.409375
 20
-3.062500000000002
 30
0.0
 40
0.5
  1
2-9/16
100
AcDbAttributeDefinition
  3

  2
C
 70
     8
280
     0
  0
ATTDEF
  5
80
330
6E
100
AcDbEntity
  8
AM_6
100
AcDbText
 10
6.409375
 20
-3.562500000000002
 30
0.0
 40
0.5
  1
6-13/16
100
AcDbAttributeDefinition
  3

  2
DMIN
 70
     8
280
     0
  0
ATTDEF
  5
81
330
6E
100
AcDbEntity
  8
AM_6
100
AcDbText
 10
6.409375
 20
-4.062500000000002
 30
0.0
 40
0.5
  1
7-7/16
100
AcDbAttributeDefinition
  3

  2
DMAX
 70
     8
280
     0
  0
ATTDEF
  5
82
330
6E
100
AcDbEntity
  8
AM_6
100
AcDbText
 10
6.409375
 20
-4.562500000000002
 30
0.0
 40
0.5
  1
3/16
100
AcDbAttributeDefinition
  3

  2
E
 70
     8
280
     0
  0
ATTDEF
  5
83
330
6E
100
AcDbEntity
  8
AM_6
100
AcDbText
 10
6.409375
 20
-5.062500000000002
 30
0.0
 40
0.5
  1
5/8
100
AcDbAttributeDefinition
  3

  2
F
 70
     8
280
     0
  0
ATTDEF
  5
84
330
6E
100
AcDbEntity
  8
AM_6
100
AcDbText
 10
6.409375
 20
-5.562500000000002
 30
0.0
 40
0.5
  1
1
100
AcDbAttributeDefinition
  3

  2
G
 70
     8
280
     0
  0
ATTDEF
  5
85
330
6E
100
AcDbEntity
  8
AM_6
100
AcDbText
 10
6.409375
 20
-6.062500000000002
 30
0.0
 40
0.5
  1
1-3/4
100
AcDbAttributeDefinition
  3

  2
H
 70
     8
280
     0
  0
ATTDEF
  5
86
330
6E
100
AcDbEntity
  8
AM_6
100
AcDbText
 10
6.409375
 20
-6.562500000000002
 30
0.0
 40
0.5
  1
5-11/16
100
AcDbAttributeDefinition
  3

  2
J
 70
     8
280
     0
  0
ATTDEF
  5
87
330
6E
100
AcDbEntity
  8
AM_6
100
AcDbText
 10
6.409375
 20
-7.062500000000002
 30
0.0
 40
0.5
  1
4-1/16
100
AcDbAttributeDefinition
  3

  2
L
 70
     8
280
     0
  0
ATTDEF
  5
88
330
6E
100
AcDbEntity
  8
AM_6
100
AcDbText
 10
6.409375
 20
-7.562500000000002
 30
0.0
 40
0.5
  1
2-3/4
100
AcDbAttributeDefinition
  3

  2
M
 70
     8
280
     0
  0
ATTDEF
  5
89
330
6E
100
AcDbEntity
  8
AM_6
100
AcDbText
 10
6.409375
 20
-8.062500000000002
 30
0.0
 40
0.5
  1
21/32
100
AcDbAttributeDefinition
  3

  2
R
 70
     8
280
     0
  0
ATTDEF
  5
8A
330
6E
100
AcDbEntity
  8
AM_6
100
AcDbText
 10
6.409375
 20
-8.562500000000002
 30
0.0
 40
0.5
  1
1-35/64
100
AcDbAttributeDefinition
  3

  2
S
 70
     8
280
     0
  0
ATTDEF
  5
8B
330
6E
100
AcDbEntity
  8
AM_6
100
AcDbText
 10
6.409375
 20
-9.062500000000002
 30
0.0
 40
0.5
  1
1900
100
AcDbAttributeDefinition
  3

  2
MRPM
 70
     8
280
     0
  0
ATTDEF
  5
8C
330
6E
100
AcDbEntity
  8
AM_6
100
AcDbText
 10
6.409375
 20
-9.562500000000002
 30
0.0
 40
0.5
  1
46500
100
AcDbAttributeDefinition
  3

  2
CS
 70
     8
280
     0
  0
ATTDEF
  5
8D
330
6E
100
AcDbEntity
  8
AM_6
100
AcDbText
 10
6.409375
 20
-10.0625
 30
0.0
 40
0.5
  1
38000
100
AcDbAttributeDefinition
  3

  2
CD
 70
     8
280
     0
  0
ATTDEF
  5
8E
330
6E
100
AcDbEntity
  8
AM_6
100
AcDbText
 10
6.409375
 20
-10.5625
 30
0.0
 40
0.5
  1
18
100
AcDbAttributeDefinition
  3

  2
RN
 70
     8
280
     0
  0
ATTDEF
  5
8F
330
6E
100
AcDbEntity
  8
AM_6
100
AcDbText
 10
6.409375
 20
-11.0625
 30
0.0
 40
0.5
  1
0.5827
100
AcDbAttributeDefinition
  3

  2
RM
 70
     8
280
     0
  0
ATTDEF
  5
90
330
6E
100
AcDbEntity
  8
AM_6
100
AcDbText
 10
6.409375
 20
-11.5625
 30
0.0
 40
0.5
  1
3.795
100
AcDbAttributeDefinition
  3

  2
PD
 70
     8
280
     0
  0
ATTDEF
  5
91
330
6E
100
AcDbEntity
  8
AM_6
100
AcDbText
 10
6.409375
 20
-12.0625
 30
0.0
 40
0.5
  1
0.0016-0.0026
100
AcDbAttributeDefinition
  3

  2
RC
 70
     8
280
     0
  0
ATTDEF
  5
92
330
6E
100
AcDbEntity
  8
AM_6
100
AcDbText
 10
6.409375
 20
-12.5625
 30
0.0
 40
0.5
  1
3/8-16x3/4
100
AcDbAttributeDefinition
  3

  2
CSS
 70
     8
280
     0
  0
ATTDEF
  5
93
330
6E
100
AcDbEntity
  8
AM_6
100
AcDbText
 10
6.409375
 20
-13.0625
 30
0.0
 40
0.5
  1
290
100
AcDbAttributeDefinition
  3

  2
CST
 70
     8
280
     0
  0
ATTDEF
  5
94
330
6E
100
AcDbEntity
  8
AM_6
100
AcDbText
 10
6.409375
 20
-13.5625
 30
0.0
 40
0.5
  1
Ductile Iron Grade 65-45-12 ASTM A536
100
AcDbAttributeDefinition
  3

  2
MH
 70
     8
280
     0
  0
ATTDEF
  5
95
330
6E
100
AcDbEntity
  8
AM_6
100
AcDbText
 10
6.409375
 20
-14.0625
 30
0.0
 40
0.5
  1
4118 Case Carb.
100
AcDbAttributeDefinition
  3

  2
MIR
 70
     8
280
     0
  0
ATTDEF
  5
96
330
6E
100
AcDbEntity
  8
AM_6
100
AcDbText
 10
6.409375
 20
-14.5625
 30
0.0
 40
0.5
  1
E52100 Steel
100
AcDbAttributeDefinition
  3

  2
MOR
 70
     8
280
     0
  0
ATTDEF
  5
97
330
6E
100
AcDbEntity
  8
AM_6
100
AcDbText
 10
6.409375
 20
-15.0625
 30
0.0
 40
0.5
  1
Polyamide
100
AcDbAttributeDefinition
  3

  2
MR
 70
     8
280
     0
  0
ATTDEF
  5
98
330
6E
100
AcDbEntity
  8
AM_6
100
AcDbText
 10
6.409375
 20
-15.5625
 30
0.0
 40
0.5
  1
E52100 Steel
100
AcDbAttributeDefinition
  3

  2
MRO
 70
     8
280
     0
  0
ATTDEF
  5
99
330
6E
100
AcDbEntity
  8
AM_6
100
AcDbText
 10
6.409375
 20
-16.0625
 30
0.0
 40
0.5
  1
2°
100
AcDbAttributeDefinition
  3

  2
SM
 70
     8
280
     0
  0
ATTDEF
  5
9A
330
6E
100
AcDbEntity
  8
AM_6
100
AcDbText
 10
6.409375
 20
-16.5625
 30
0.0
 40
0.5
  1
baldor
100
AcDbAttributeDefinition
  3

  2
COMPANY
 70
     8
280
     0
  0
INSERT
  5
9C
330
6E
100
AcDbEntity
  8
0
100
AcDbBlockReference
  2
2_421250_0_in_048007_2
 10
0.0
 20
0.0
 30
0.0
  0
INSERT
  5
E8
330
6E
100
AcDbEntity
  8
0
100
AcDbBlockReference
  2
3_405020c_Inch_0_in_048007_2
 10
0.0
 20
0.0
 30
0.0
  0
INSERT
  5
142
330
6E
100
AcDbEntity
  8
0
100
AcDbBlockReference
  2
4_048007B_0_in_048007_2
 10
0.0
 20
0.0
 30
0.0
  0
ENDBLK
  5
71
330
6E
100
AcDbEntity
  8
0
100
AcDbBlockEnd
  0
BLOCK
  5
9D
330
9B
100
AcDbEntity
  8
0
100
AcDbBlockBegin
  2
2_421250_0_in_048007_2
 70
     2
 10
0.0
 20
0.0
 30
0.0
  3
2_421250_0_in_048007_2
  1

  0
ATTDEF
  5
9F
330
9B
100
AcDbEntity
  8
AM_6
100
AcDbText
 10
5.65625
 20
2.074776785714286
 30
0.0
 40
0.5
  1
Unisphere II Insert With Seal - Inch
100
AcDbAttributeDefinition
  3

  2
NN
 70
     8
280
     0
  0
ATTDEF
  5
A0
330
9B
100
AcDbEntity
  8
AM_6
100
AcDbText
 10
5.65625
 20
1.574776785714286
 30
0.0
 40
0.5
  1
Unisphere II
100
AcDbAttributeDefinition
  3

  2
NT
 70
     8
280
     0
  0
ATTDEF
  5
A1
330
9B
100
AcDbEntity
  8
AM_6
100
AcDbText
 10
5.65625
 20
1.074776785714286
 30
0.0
 40
0.5
  1
421250
100
AcDbAttributeDefinition
  3

  2
NB
 70
     8
280
     0
  0
ATTDEF
  5
A2
330
9B
100
AcDbEntity
  8
AM_6
100
AcDbText
 10
5.65625
 20
0.5747767857142856
 30
0.0
 40
0.5
  1
$PN.
100
AcDbAttributeDefinition
  3

  2
NBSYN
 70
     8
280
     0
  0
ATTDEF
  5
A3
330
9B
100
AcDbEntity
  8
AM_6
100
AcDbText
 10
5.65625
 20
0.0747767857142856
 30
0.0
 40
0.5
  1
421250
100
AcDbAttributeDefinition
  3

  2
LINA
 70
     8
280
     0
  0
ATTDEF
  5
A4
330
9B
100
AcDbEntity
  8
AM_6
100
AcDbText
 10
5.65625
 20
-0.4252232142857144
 30
0.0
 40
0.5
  1
2-7/16
100
AcDbAttributeDefinition
  3

  2
SS
 70
     8
280
     0
  0
ATTDEF
  5
A5
330
9B
100
AcDbEntity
  8
AM_6
100
AcDbText
 10
5.65625
 20
-0.9252232142857144
 30
0.0
 40
0.5
  1
2.43750
100
AcDbAttributeDefinition
  3

  2
SS1
 70
     8
280
     0
  0
ATTDEF
  5
A6
330
9B
100
AcDbEntity
  8
AM_6
100
AcDbText
 10
5.65625
 20
-1.425223214285714
 30
0.0
 40
0.5
  1
4.7244
100
AcDbAttributeDefinition
  3

  2
A
 70
     8
280
     0
  0
ATTDEF
  5
A7
330
9B
100
AcDbEntity
  8
AM_6
100
AcDbText
 10
5.65625
 20
-1.925223214285714
 30
0.0
 40
0.5
  1
4.06250
100
AcDbAttributeDefinition
  3

  2
A1
 70
     8
280
     0
  0
ATTDEF
  5
A8
330
9B
100
AcDbEntity
  8
AM_6
100
AcDbText
 10
5.65625
 20
-2.425223214285714
 30
0.0
 40
0.5
  1
1.2705
100
AcDbAttributeDefinition
  3

  2
B
 70
     8
280
     0
  0
ATTDEF
  5
A9
330
9B
100
AcDbEntity
  8
AM_6
100
AcDbText
 10
5.65625
 20
-2.925223214285714
 30
0.0
 40
0.5
  1
1.27050
100
AcDbAttributeDefinition
  3

  2
B1
 70
     8
280
     0
  0
ATTDEF
  5
AA
330
9B
100
AcDbEntity
  8
AM_6
100
AcDbText
 10
5.65625
 20
-3.425223214285714
 30
0.0
 40
0.5
  1
2-13/64
100
AcDbAttributeDefinition
  3

  2
C
 70
     8
280
     0
  0
ATTDEF
  5
AB
330
9B
100
AcDbEntity
  8
AM_6
100
AcDbText
 10
5.65625
 20
-3.925223214285714
 30
0.0
 40
0.5
  1
2.20313
100
AcDbAttributeDefinition
  3

  2
C1
 70
     8
280
     0
  0
ATTDEF
  5
AC
330
9B
100
AcDbEntity
  8
AM_6
100
AcDbText
 10
5.65625
 20
-4.425223214285714
 30
0.0
 40
0.5
  1
0.747
100
AcDbAttributeDefinition
  3

  2
D
 70
     8
280
     0
  0
ATTDEF
  5
AD
330
9B
100
AcDbEntity
  8
AM_6
100
AcDbText
 10
5.65625
 20
-4.925223214285714
 30
0.0
 40
0.5
  1
0.74700
100
AcDbAttributeDefinition
  3

  2
D1
 70
     8
280
     0
  0
ATTDEF
  5
AE
330
9B
100
AcDbEntity
  8
AM_6
100
AcDbText
 10
5.65625
 20
-5.425223214285714
 30
0.0
 40
0.5
  1
0.317
100
AcDbAttributeDefinition
  3

  2
E
 70
     8
280
     0
  0
ATTDEF
  5
AF
330
9B
100
AcDbEntity
  8
AM_6
100
AcDbText
 10
5.65625
 20
-5.925223214285714
 30
0.0
 40
0.5
  1
0.31700
100
AcDbAttributeDefinition
  3

  2
E1
 70
     8
280
     0
  0
ATTDEF
  5
B0
330
9B
100
AcDbEntity
  8
AM_6
100
AcDbText
 10
5.65625
 20
-6.425223214285714
 30
0.0
 40
0.5
  1
421250
100
AcDbAttributeDefinition
  3

  2
PN
 70
     8
280
     0
  0
ATTDEF
  5
B1
330
9B
100
AcDbEntity
  8
AM_6
100
AcDbText
 10
5.65625
 20
-6.925223214285714
 30
0.0
 40
0.5
  1
baldor
100
AcDbAttributeDefinition
  3

  2
COMPANY
 70
     8
280
     0
  0
LINE
  5
B4
330
9B
100
AcDbEntity
  8
AM_9
100
AcDbLine
 10
-1.373970909090909
 20
0.8449110220424318
 30
0.0
 11
-1.373970909090909
 21
0.5150658678291883
 31
0.0
  0
LINE
  5
B5
330
9B
100
AcDbEntity
  8
AM_9
100
AcDbLine
 10
-1.085789090909091
 20
0.5150425107609297
 30
0.0
 11
-1.085789090909091
 21
0.8449110220424318
 31
0.0
  0
LWPOLYLINE
  5
B6
330
9B
100
AcDbEntity
  8
AM_9
100
AcDbPolyline
 90
       21
 70
     0
 43
0.0
 10
-1.085789091487621
 20
0.5150777087843943
 10
-1.086702763636797
 20
0.500337497824685
 10
-1.091423046163234
 20
0.4786762542206445
 10
-1.09998872690895
 20
0.4578614878996269
 10
-1.112239696853743
 20
0.4384775669848155
 10
-1.127766016255498
 20
0.4211349882488985
 10
-1.146298636014775
 20
0.4063127368435365
 10
-1.167196536070587
 20
0.3945530194994743
 10
-1.189910541962985
 20
0.3862817284428131
 10
-1.213766602980898
 20
0.3817272915696425
 10
-1.23794386466098
 20
0.3810936268885163
 10
-1.261892686898208
 20
0.3843054783995742
 10
-1.284855815277177
 20
0.3912838828675653
 10
-1.306280569930765
 20
0.4017494590189182
 10
-1.325633016401994
 20
0.4154842392037247
 10
-1.342303007761338
 20
0.4319709312151288
 10
-1.355845962850771
 20
0.4508358954011262
 10
-1.365829994148891
 20
0.4713969777930539
 10
-1.371902989767201
 20
0.4929975684335693
 10
-1.373970905294235
 20
0.5150360277555265
 10
-1.373970909090718
 20
0.5150657939342327
  0
LWPOLYLINE
  5
B7
330
9B
100
AcDbEntity
  8
AM_9
100
AcDbPolyline
 90
       10
 70
     0
 43
0.0
 10
-1.373970909090718
 20
0.5150657939342327
 10
-1.371939385770098
 20
0.5367375401476465
 10
-1.365950227092948
 20
0.5576383361471636
 10
-1.356126757207401
 20
0.5771496302922189
 10
-1.342798726824409
 20
0.5947962057544312
 10
-1.326186531173617
 20
0.6101904297296357
 10
-1.306864994050253
 20
0.6228766035776866
 10
-1.285270348249502
 20
0.6325319914446278
 10
-1.262094970817082
 20
0.6389197935698223
 10
-1.22988
 20
0.6420442643842771
  0
LINE
  5
B8
330
9B
100
AcDbEntity
  8
AM_9
100
AcDbLine
 10
-1.373970909090909
 20
1.999229797979798
 30
0.0
 11
-1.373970909090909
 21
1.21875
 31
0.0
  0
LINE
  5
B9
330
9B
100
AcDbEntity
  8
AM_9
100
AcDbLine
 10
-1.085789090909091
 20
1.21875
 30
0.0
 11
-1.085789090909091
 21
1.999229797979798
 31
0.0
  0
LINE
  5
BA
330
9B
100
AcDbEntity
  8
AM_9
100
AcDbLine
 10
-1.085789090909091
 20
1.999229797979798
 30
0.0
 11
-1.373970909090909
 21
1.999229797979798
 31
0.0
  0
LINE
  5
BB
330
9B
100
AcDbEntity
  8
AM_9
100
AcDbLine
 10
-1.085789090909091
 20
1.999229797979798
 30
0.0
 11
-1.053768888888889
 21
2.03125
 31
0.0
  0
LINE
  5
BC
330
9B
100
AcDbEntity
  8
AM_9
100
AcDbLine
 10
-1.405991111111111
 20
2.03125
 30
0.0
 11
-1.373970909090909
 21
1.999229797979798
 31
0.0
  0
LINE
  5
BD
330
9B
100
AcDbEntity
  8
AM_9
100
AcDbLine
 10
-1.362117820882093
 20
1.21740552557026
 30
0.0
 11
-1.373970909090801
 21
1.218749999999987
 31
0.0
  0
LWPOLYLINE
  5
BE
330
9B
100
AcDbEntity
  8
AM_9
100
AcDbPolyline
 90
       11
 70
     0
 43
0.0
 10
-1.22988
 20
0.6420442643842771
 10
-1.205786427810003
 20
0.6402950219488518
 10
-1.182374284764502
 20
0.6351366167385752
 10
-1.160325587853564
 20
0.6266524965319688
 10
-1.140227019080628
 20
0.6150893608136369
 10
-1.122595370239045
 20
0.6006165931378301
 10
-1.107978147460764
 20
0.5836690436811727
 10
-1.09680431705384
 20
0.5645787549362523
 10
-1.08939442160451
 20
0.5439181365131596
 10
-1.086027802967933
 20
0.5223304299034252
 10
-1.085789091487621
 20
0.5150777087843943
  0
LINE
  5
BF
330
9B
100
AcDbEntity
  8
AM_9
100
AcDbLine
 10
-1.54688
 20
-1.21875
 30
0.0
 11
0.6562499999999996
 21
-1.21875
 31
0.0
  0
LINE
  5
C0
330
9B
100
AcDbEntity
  8
AM_9
100
AcDbLine
 10
0.6562499999999996
 20
1.21875
 30
0.0
 11
-1.085789090909091
 21
1.21875
 31
0.0
  0
LINE
  5
C1
330
9B
100
AcDbEntity
  8
AM_9
100
AcDbLine
 10
-1.373970909090909
 20
1.21875
 30
0.0
 11
-1.54688
 21
1.21875
 31
0.0
  0
LWPOLYLINE
  5
C2
330
9B
100
AcDbEntity
  8
AM_9
100
AcDbPolyline
 90
       20
 70
     0
 43
0.0
 10
-1.373970909090801
 20
1.218749999999987
 10
-1.373764274550432
 20
1.218725587193548
 10
-1.370370169562706
 20
1.218329536767911
 10
-1.363198796904139
 20
1.21752341826567
 10
-1.352046994026029
 20
1.216352805252946
 10
-1.337771162875442
 20
1.215002006353887
 10
-1.320007256394235
 20
1.213553581331499
 10
-1.300124656080196
 20
1.212239120027555
 10
-1.277626042671818
 20
1.211143697918696
 10
-1.25446433030117
 20
1.210451883270753
 10
-1.229910212710243
 20
1.21020220348922
 10
-1.206193904590031
 20
1.210433973223292
 10
-1.182476725113425
 20
1.211130233660826
 10
-1.160748714524106
 20
1.212175114019796
 10
-1.140375610099383
 20
1.21350748173583
 10
-1.122943226500838
 20
1.21491762928347
 10
-1.108079911676647
 20
1.216316009075327
 10
-1.096999885145755
 20
1.217475460673041
 10
-1.089436924208253
 20
1.218324107105823
 10
-1.085789090909091
 20
1.21875
  0
LINE
  5
C3
330
9B
100
AcDbEntity
  8
AM_9
100
AcDbLine
 10
-0.9128799999999998
 20
-1.450892857142857
 30
0.0
 11
-0.6142500000000002
 21
-1.450892857142857
 31
0.0
  0
LINE
  5
C4
330
9B
100
AcDbEntity
  8
AM_9
100
AcDbLine
 10
-0.6142500000000002
 20
1.450892857142857
 30
0.0
 11
-0.9128799999999998
 21
1.450892857142857
 31
0.0
  0
LWPOLYLINE
  5
C5
330
9B
100
AcDbEntity
  8
AM_9
100
AcDbPolyline
 90
       39
 70
     0
 43
0.0
 10
-1.095672363106855
 20
0.7580264012929294
 10
-1.080145336713433
 20
0.7770231293703461
 10
-1.06790208528668
 20
0.7978814590254482
 10
-1.058663353777141
 20
0.8225073377600818
 10
-1.054172651348798
 20
0.8480677253499589
 10
-1.054584550845479
 20
0.8729687154338392
 10
-1.059593302004946
 20
0.8973032088755684
 10
-1.068992408617482
 20
0.9201970735482733
 10
-1.082429000281939
 20
0.9412947762603984
 10
-1.099953511830784
 20
0.9604648042775518
 10
-1.120729997451301
 20
0.9768233302693531
 10
-1.145173241479708
 20
0.9904538185172147
 10
-1.171807054276762
 20
1.000431210132611
 10
-1.20097692384788
 20
1.006674718922256
 10
-1.230929424768482
 20
1.008685474984605
 10
-1.261458790974821
 20
1.006282761629564
 10
-1.291097425020295
 20
0.9994813144429102
 10
-1.318980849605752
 20
0.9883518711649907
 10
-1.344278783865118
 20
0.9731821594827373
 10
-1.365727570930529
 20
0.9546776911008156
 10
-1.383206795002887
 20
0.9330601427012933
 10
-1.395623817363415
 20
0.9098121492543801
 10
-1.403336288176048
 20
0.8848403133599585
 10
-1.405964166109367
 20
0.8598929066645239
 10
-1.403881904353946
 20
0.8347465524791114
 10
-1.397258834811914
 20
0.8105841392734751
 10
-1.386392966393746
 20
0.7876133354685733
 10
-1.371359396106609
 20
0.766209443717432
 10
-1.352798096886176
 20
0.7472281291780846
 10
-1.330382475488939
 20
0.7306601456339431
 10
-1.305401420168999
 20
0.7176128363803858
 10
-1.277425029727612
 20
0.7081719328706669
 10
-1.248180080206073
 20
0.703104413024742
 10
-1.217663740826154
 20
0.7026417843486212
 10
-1.187487911959897
 20
0.7069261961158986
 10
-1.158319941969082
 20
0.7159897624611027
 10
-1.131213241257015
 20
0.7295127970168264
 10
-1.112411838261623
 20
0.7426794425006675
 10
-1.095672363094188
 20
0.7580264012568195
  0
LINE
  5
C6
330
9B
100
AcDbEntity
  8
AM_9
100
AcDbLine
 10
-1.22727793040293
 20
-2.03125
 30
0.0
 11
-0.9328799999999994
 21
-2.03125
 31
0.0
  0
LINE
  5
C7
330
9B
100
AcDbEntity
  8
AM_9
100
AcDbLine
 10
-0.6142500000000002
 20
2.01125
 30
0.0
 11
-0.6142500000000002
 21
-2.01125
 31
0.0
  0
ARC
  5
C8
330
9B
100
AcDbEntity
  8
AM_9
100
AcDbCircle
 10
-0.5942500000000004
 20
-2.01125
 30
0.0
 40
0.0199999999999998
100
AcDbArc
 50
180.0
 51
270.0
  0
ARC
  5
C9
330
9B
100
AcDbEntity
  8
AM_9
100
AcDbCircle
 10
-0.5942500000000009
 20
2.011250000000001
 30
0.0
 40
0.0199999999999991
100
AcDbArc
 50
90.0
 51
180.0
  0
LINE
  5
CA
330
9B
100
AcDbEntity
  8
AM_9
100
AcDbLine
 10
-0.9128799999999998
 20
2.01125
 30
0.0
 11
-0.9128799999999998
 21
-2.01125
 31
0.0
  0
ARC
  5
CB
330
9B
100
AcDbEntity
  8
AM_9
100
AcDbCircle
 10
-0.9328799999999997
 20
-2.01125
 30
0.0
 40
0.02
100
AcDbArc
 50
270.0
 51
0.0
  0
ARC
  5
CC
330
9B
100
AcDbEntity
  8
AM_9
100
AcDbCircle
 10
-0.9328800000000009
 20
2.011249999999999
 30
0.0
 40
0.0200000000000011
100
AcDbArc
 50
0.0
 51
58.53111293380739
  0
LINE
  5
CD
330
9B
100
AcDbEntity
  8
AM_9
100
AcDbLine
 10
-0.9328799999999994
 20
1.889268780487812
 30
0.0
 11
-0.9328799999999994
 21
-2.03125
 31
0.0
  0
LINE
  5
CE
330
9B
100
AcDbEntity
  8
AM_9
100
AcDbLine
 10
-0.5942500000000002
 20
-2.03125
 30
0.0
 11
0.6362500000000006
 21
-2.03125
 31
0.0
  0
LINE
  5
CF
330
9B
100
AcDbEntity
  8
AM_9
100
AcDbLine
 10
0.6362500000000006
 20
2.03125
 30
0.0
 11
-0.5942500000000002
 21
2.03125
 31
0.0
  0
LINE
  5
D0
330
9B
100
AcDbEntity
  8
AM_9
100
AcDbLine
 10
-0.5942500000000002
 20
2.03125
 30
0.0
 11
-0.5942500000000002
 21
-2.03125
 31
0.0
  0
LINE
  5
D1
330
9B
100
AcDbEntity
  8
AM_9
100
AcDbLine
 10
0.6562499999999999
 20
2.01125
 30
0.0
 11
0.6562499999999999
 21
-2.01125
 31
0.0
  0
ARC
  5
D2
330
9B
100
AcDbEntity
  8
AM_9
100
AcDbCircle
 10
0.6362500000000005
 20
-2.011250000000001
 30
0.0
 40
0.0199999999999996
100
AcDbArc
 50
270.0
 51
0.0
  0
ARC
  5
D3
330
9B
100
AcDbEntity
  8
AM_9
100
AcDbCircle
 10
0.6362500000000005
 20
2.011250000000001
 30
0.0
 40
0.0199999999999994
100
AcDbArc
 50
0.0
 51
90.0
  0
LINE
  5
D4
330
9B
100
AcDbEntity
  8
AM_9
100
AcDbLine
 10
0.6362500000000006
 20
2.03125
 30
0.0
 11
0.6362500000000006
 21
-2.03125
 31
0.0
  0
LINE
  5
D6
330
9B
100
AcDbEntity
  8
AM_5
100
AcDbLine
 10
-1.053768888888889
 20
1.21875
 30
0.0
 11
-1.053768888888889
 21
2.03125
 31
0.0
  0
LINE
  5
D7
330
9B
100
AcDbEntity
  8
AM_5
100
AcDbLine
 10
-1.405991111111111
 20
1.21875
 30
0.0
 11
-1.405991111111111
 21
2.03125
 31
0.0
  0
ELLIPSE
  5
D8
330
9B
100
AcDbEntity
  8
AM_9
100
AcDbEllipse
 10
-1.22988
 20
0.8449110220424318
 30
0.0
 11
-0.1440909090909093
 21
1.764604706044143E-17
 31
0.0
210
0.0
220
0.0
230
1.0
 40
0.9063077870366503
 41
0.0
 42
6.283185307179586
  0
LINE
  5
DB
330
9B
100
AcDbEntity
  8
AM_7
100
AcDbLine
 10
-1.22988
 20
2.074776785714286
 30
0.0
 11
-1.22988
 21
1.1171875
 31
0.0
  0
LINE
  5
DD
330
9B
100
AcDbEntity
  8
AM_4
100
AcDbLine
 10
-1.5028174
 20
-2.03125
 30
0.0
 11
-1.22727793040293
 21
-2.03125
 31
0.0
  0
LINE
  5
DE
330
9B
100
AcDbEntity
  8
AM_4
100
AcDbLine
 10
-0.9328799999999994
 20
2.03125
 30
0.0
 11
-1.053768888888889
 21
2.03125
 31
0.0
  0
LINE
  5
DF
330
9B
100
AcDbEntity
  8
AM_4
100
AcDbLine
 10
-1.405991111111111
 20
2.03125
 30
0.0
 11
-1.5028174
 21
2.03125
 31
0.0
  0
LWPOLYLINE
  5
E0
330
9B
100
AcDbEntity
  8
AM_4
100
AcDbPolyline
 90
       20
 70
     0
 43
0.0
 10
-1.053768888888895
 20
2.03125
 10
-1.056031916648957
 20
2.031070593073407
 10
-1.062667178795058
 20
2.030557781087531
 10
-1.07381359979933
 20
2.029740741302978
 10
-1.088746381704702
 20
2.028733626612384
 10
-1.10766775625276
 20
2.027601772716615
 10
-1.129873268828194
 20
2.02647975931225
 10
-1.155273397455269
 20
2.02547029586713
 10
-1.182927001175858
 20
2.024704576974761
 10
-1.212614416260896
 20
2.02427006775691
 10
-1.242711760135349
 20
2.024239647384741
 10
-1.273299383468862
 20
2.024631807491064
 10
-1.301998726473953
 20
2.025387171727593
 10
-1.329427606313012
 20
2.026458915658156
 10
-1.352840326870425
 20
2.027643454670605
 10
-1.373299826994626
 20
2.028881312341367
 10
-1.388422017242597
 20
2.029917389785978
 10
-1.399354311744691
 20
2.030730347555905
 10
-1.404888176874985
 20
2.03116227604928
 10
-1.405991111111079
 20
2.031249999999997
  0
ARC
  5
E1
330
9B
100
AcDbEntity
  8
AM_4
100
AcDbCircle
 10
-0.9328799999999992
 20
2.011250000000003
 30
0.0
 40
0.0199999999999975
100
AcDbArc
 50
58.53111293380641
 51
90.0
  0
LINE
  5
E2
330
9B
100
AcDbEntity
  8
AM_4
100
AcDbLine
 10
-0.9328799999999994
 20
2.03125
 30
0.0
 11
-0.9328799999999994
 21
1.889268780487812
 31
0.0
  0
LINE
  5
E3
330
9B
100
AcDbEntity
  8
AM_4
100
AcDbLine
 10
-1.54688
 20
1.9871874
 30
0.0
 11
-1.54688
 21
-1.9871874
 31
0.0
  0
ARC
  5
E4
330
9B
100
AcDbEntity
  8
AM_4
100
AcDbCircle
 10
-1.5028174
 20
-1.9871874
 30
0.0
 40
0.0440626000000004
100
AcDbArc
 50
180.0
 51
270.0
  0
ARC
  5
E5
330
9B
100
AcDbEntity
  8
AM_4
100
AcDbCircle
 10
-1.5028174
 20
1.987187399999999
 30
0.0
 40
0.0440626000000006
100
AcDbArc
 50
90.0
 51
180.0
  0
LINE
  5
E6
330
9B
100
AcDbEntity
  8
AM_4
100
AcDbLine
 10
-1.5028174
 20
2.03125
 30
0.0
 11
-1.5028174
 21
-2.03125
 31
0.0
  0
ENDBLK
  5
9E
330
9B
100
AcDbEntity
  8
0
100
AcDbBlockEnd
  0
BLOCK
  5
E9
330
E7
100
AcDbEntity
  8
0
100
AcDbBlockBegin
  2
3_405020c_Inch_0_in_048007_2
 70
     2
 10
0.0
 20
0.0
 30
0.0
  3
3_405020c_Inch_0_in_048007_2
  1

  0
ATTDEF
  5
EB
330
E7
100
AcDbEntity
  8
AM_6
100
AcDbText
 10
5.162408630723042
 20
2.886432549585147
 30
0.0
 40
0.5
  1
405020C -Inch
100
AcDbAttributeDefinition
  3

  2
NN
 70
     8
280
     0
  0
ATTDEF
  5
EC
330
E7
100
AcDbEntity
  8
AM_6
100
AcDbText
 10
5.162408630723042
 20
2.386432549585147
 30
0.0
 40
0.5
  1
Grease fitting
100
AcDbAttributeDefinition
  3

  2
NT
 70
     8
280
     0
  0
ATTDEF
  5
ED
330
E7
100
AcDbEntity
  8
AM_6
100
AcDbText
 10
5.162408630723042
 20
1.886432549585147
 30
0.0
 40
0.5
  1
405020c-Inch
100
AcDbAttributeDefinition
  3

  2
NB
 70
     8
280
     0
  0
ATTDEF
  5
EE
330
E7
100
AcDbEntity
  8
AM_6
100
AcDbText
 10
5.162408630723042
 20
1.386432549585147
 30
0.0
 40
0.5
  1
$MN.-Inch
100
AcDbAttributeDefinition
  3

  2
NBSYN
 70
     8
280
     0
  0
ATTDEF
  5
EF
330
E7
100
AcDbEntity
  8
AM_6
100
AcDbText
 10
5.162408630723042
 20
0.8864325495851473
 30
0.0
 40
0.5
  1
405020c
100
AcDbAttributeDefinition
  3

  2
LINA
 70
     8
280
     0
  0
ATTDEF
  5
F0
330
E7
100
AcDbEntity
  8
AM_6
100
AcDbText
 10
5.162408630723042
 20
0.3864325495851473
 30
0.0
 40
0.5
  1
405020c
100
AcDbAttributeDefinition
  3

  2
MN
 70
     8
280
     0
  0
ATTDEF
  5
F1
330
E7
100
AcDbEntity
  8
AM_6
100
AcDbText
 10
5.162408630723042
 20
-0.1135674504148527
 30
0.0
 40
0.5
  1
0.230
100
AcDbAttributeDefinition
  3

  2
NDR
 70
     8
280
     0
  0
ATTDEF
  5
F2
330
E7
100
AcDbEntity
  8
AM_6
100
AcDbText
 10
5.162408630723042
 20
-0.6135674504148527
 30
0.0
 40
0.5
  1
0.210
100
AcDbAttributeDefinition
  3

  2
KDR
 70
     8
280
     0
  0
ATTDEF
  5
F3
330
E7
100
AcDbEntity
  8
AM_6
100
AcDbText
 10
5.162408630723042
 20
-1.113567450414853
 30
0.0
 40
0.5
  1
0.157
100
AcDbAttributeDefinition
  3

  2
BZE
 70
     8
280
     0
  0
ATTDEF
  5
F4
330
E7
100
AcDbEntity
  8
AM_6
100
AcDbText
 10
5.162408630723042
 20
-1.613567450414853
 30
0.0
 40
0.5
  1
9/32
100
AcDbAttributeDefinition
  3

  2
WAF
 70
     8
280
     0
  0
ATTDEF
  5
F5
330
E7
100
AcDbEntity
  8
AM_6
100
AcDbText
 10
5.162408630723042
 20
-2.113567450414853
 30
0.0
 40
0.5
  1
0.2813
100
AcDbAttributeDefinition
  3

  2
WAF1
 70
     8
280
     0
  0
ATTDEF
  5
F6
330
E7
100
AcDbEntity
  8
AM_6
100
AcDbText
 10
5.162408630723042
 20
-2.613567450414853
 30
0.0
 40
0.5
  1
0.545
100
AcDbAttributeDefinition
  3

  2
BL
 70
     8
280
     0
  0
ATTDEF
  5
F7
330
E7
100
AcDbEntity
  8
AM_6
100
AcDbText
 10
5.162408630723042
 20
-3.113567450414853
 30
0.0
 40
0.5
  1
0.200
100
AcDbAttributeDefinition
  3

  2
TL
 70
     8
280
     0
  0
ATTDEF
  5
F8
330
E7
100
AcDbEntity
  8
AM_6
100
AcDbText
 10
5.162408630723042
 20
-3.613567450414853
 30
0.0
 40
0.5
  1
baldor
100
AcDbAttributeDefinition
  3

  2
COMPANY
 70
     8
280
     0
  0
LINE
  5
F9
330
E7
100
AcDbEntity
  8
AM_9
100
AcDbLine
 10
-0.0812043153615208
 20
2.666960542704875
 30
0.0
 11
-0.0812043153615208
 21
2.619323731447663
 31
0.0
  0
LINE
  5
FA
330
E7
100
AcDbEntity
  8
AM_9
100
AcDbLine
 10
0.081204315361521
 20
2.666960542704875
 30
0.0
 11
0.081204315361521
 21
2.619323731447663
 31
0.0
  0
LWPOLYLINE
  5
FB
330
E7
100
AcDbEntity
  8
AM_9
100
AcDbPolyline
 90
        4
 70
     0
 43
0.0
 10
0.0000000000000001
 20
2.614274623616788
 10
0.0311508759219516
 20
2.615065527032878
 10
0.0623017518439032
 20
2.617333250783628
 10
0.081204315361521
 20
2.619323731447663
  0
LWPOLYLINE
  5
FC
330
E7
100
AcDbEntity
  8
AM_9
100
AcDbPolyline
 90
        3
 70
     0
 43
0.0
 10
-0.0812043153615208
 20
2.619323731447663
 10
-0.0407847159147454
 20
2.615619102557066
 10
0.0000000000000001
 20
2.614274623616788
  0
LWPOLYLINE
  5
FD
330
E7
100
AcDbEntity
  8
AM_9
100
AcDbPolyline
 90
        3
 70
     0
 43
0.0
 10
-0.1218064730422812
 20
2.579112123616788
 10
-0.101505394201901
 20
2.598026078860547
 10
-0.0812043153615208
 20
2.619323731447663
  0
LWPOLYLINE
  5
FE
330
E7
100
AcDbEntity
  8
AM_9
100
AcDbPolyline
 90
        3
 70
     0
 43
0.0
 10
0.081204315361521
 20
2.619323731447663
 10
0.1014141150849086
 20
2.598116902591216
 10
0.1218064730422813
 20
2.579112123616788
  0
LINE
  5
FF
330
E7
100
AcDbEntity
  8
AM_9
100
AcDbLine
 10
-0.0812043153615208
 20
2.666960542704875
 30
0.0
 11
-0.0951169084438698
 21
2.657689553177792
 31
0.0
  0
LWPOLYLINE
  5
100
330
E7
100
AcDbEntity
  8
AM_9
100
AcDbPolyline
 90
        3
 70
     0
 43
0.0
 10
-0.007480038638281
 20
2.671963527882885
 10
-0.0406021576807603
 20
2.670676945291992
 10
-0.0812043153615208
 20
2.666960542704875
  0
LINE
  5
101
330
E7
100
AcDbEntity
  8
AM_9
100
AcDbLine
 10
0.0074502152065702
 20
2.671963894681174
 30
0.0
 11
-0.007480038638281
 21
2.671963527882885
 31
0.0
  0
LINE
  5
102
330
E7
100
AcDbEntity
  8
AM_9
100
AcDbLine
 10
0.0897569951831532
 20
2.661373255508174
 30
0.0
 11
0.081204315361521
 21
2.666960542704875
 31
0.0
  0
LINE
  5
103
330
E7
100
AcDbEntity
  8
AM_9
100
AcDbLine
 10
0.0948867843774714
 20
2.657850808329353
 30
0.0
 11
0.0897569951831532
 21
2.661373255508174
 31
0.0
  0
LWPOLYLINE
  5
104
330
E7
100
AcDbEntity
  8
AM_9
100
AcDbPolyline
 90
        4
 70
     0
 43
0.0
 10
0.081204315361521
 20
2.666960542704875
 10
0.0623017518439032
 20
2.66895102336891
 10
0.0312428256208205
 20
2.671214126759896
 10
0.0074502152065702
 20
2.671963894681174
  0
LINE
  5
105
330
E7
100
AcDbEntity
  8
AM_9
100
AcDbLine
 10
0.0817220182273019
 20
2.341851446229513
 30
0.0
 11
0.0901544984373205
 21
2.347814110168238
 31
0.0
  0
LINE
  5
106
330
E7
100
AcDbEntity
  8
AM_9
100
AcDbLine
 10
-0.0901544984373203
 20
2.347814110168238
 30
0.0
 11
-0.0817220182273017
 21
2.341851446229513
 31
0.0
  0
LWPOLYLINE
  5
107
330
E7
100
AcDbEntity
  8
AM_9
100
AcDbPolyline
 90
        3
 70
     0
 43
0.0
 10
0.1218064730422813
 20
2.579112123616788
 10
0.1421075518826616
 20
2.562863578860547
 10
0.1624086307230418
 20
2.548998731447663
  0
LWPOLYLINE
  5
108
330
E7
100
AcDbEntity
  8
AM_9
100
AcDbPolyline
 90
        3
 70
     0
 43
0.0
 10
-0.1624086307230416
 20
2.548998731447663
 10
-0.1421988309996539
 20
2.562796302522915
 10
-0.1218064730422812
 20
2.579112123616788
  0
LINE
  5
109
330
E7
100
AcDbEntity
  8
AM_9
100
AcDbLine
 10
0.1103982849382552
 20
2.37869241309582
 30
0.0
 11
0.1163248541138425
 21
2.542899372828198
 31
0.0
  0
LINE
  5
10A
330
E7
100
AcDbEntity
  8
AM_9
100
AcDbLine
 10
-0.1163248541138423
 20
2.542899372828198
 30
0.0
 11
-0.1103982849382551
 21
2.37869241309582
 31
0.0
  0
ELLIPSE
  5
10B
330
E7
100
AcDbEntity
  8
AM_9
100
AcDbEllipse
 10
0.0000000000000005
 20
2.60168465053575
 30
0.0
 11
-0.1406499999999995
 21
1.722465723000746E-17
 31
0.0
210
0.0
220
0.0
230
1.0
 40
0.5000000000000016
 41
3.757072362260184
 42
5.667705598509201
  0
LINE
  5
10C
330
E7
100
AcDbEntity
  8
AM_9
100
AcDbLine
 10
-0.0892671225930901
 20
2.660369735855447
 30
0.0
 11
-0.0951423096053335
 21
2.65621535127835
 31
0.0
  0
LINE
  5
10D
330
E7
100
AcDbEntity
  8
AM_9
100
AcDbLine
 10
0.0950639099855358
 20
2.656270788181152
 30
0.0
 11
0.0892671225930902
 21
2.660369735855447
 31
0.0
  0
LWPOLYLINE
  5
10E
330
E7
100
AcDbEntity
  8
AM_9
100
AcDbPolyline
 90
        5
 70
     0
 43
0.0
 10
-0.0957089489758412
 20
2.654489136515964
 10
-0.0953525184164507
 20
2.654985123789306
 10
-0.0936059734357976
 20
2.656862122536384
 10
-0.0902260666735118
 20
2.659674694562632
 10
-0.089284304514072
 20
2.660357581213996
  0
LWPOLYLINE
  5
10F
330
E7
100
AcDbEntity
  8
AM_9
100
AcDbPolyline
 90
        5
 70
     0
 43
0.0
 10
0.0898144359521664
 20
2.659977319587621
 10
0.0913572931316694
 20
2.658805684787708
 10
0.094291120524972
 20
2.656184818433123
 10
0.0955686260784173
 20
2.654697737467545
 10
0.0957089489758414
 20
2.654489136515964
  0
ELLIPSE
  5
110
330
E7
100
AcDbEntity
  8
AM_9
100
AcDbEllipse
 10
0.0000000000000014
 20
2.628809041993494
 30
0.0
 11
-0.1093294505797714
 21
1.338899617050558E-17
 31
0.0
210
0.0
220
0.0
230
1.0
 40
0.5000000000029738
 41
3.634924583972611
 42
5.791869408946607
  0
ELLIPSE
  5
111
330
E7
100
AcDbEntity
  8
AM_9
100
AcDbEllipse
 10
-0.0000000000000002
 20
2.677727571317484
 30
0.0
 11
-0.0993694002872666
 21
1.216924179949931E-17
 31
0.0
210
0.0
220
0.0
230
1.0
 40
0.500000000000014
 41
2.869006655270886
 42
3.141592653589793
  0
ELLIPSE
  5
112
330
E7
100
AcDbEntity
  8
AM_9
100
AcDbEllipse
 10
0.0000000000000026
 20
2.736921118275828
 30
0.0
 11
-0.131241911346888
 21
1.607249866449470E-17
 31
0.0
210
0.0
220
0.0
230
1.0
 40
0.5000000000000032
 41
2.87662824441571
 42
3.141592653589793
  0
ELLIPSE
  5
113
330
E7
100
AcDbEntity
  8
AM_9
100
AcDbEllipse
 10
0.0000000000000002
 20
2.829537329910835
 30
0.0
 11
-0.1038190510530392
 21
1.271416685626202E-17
 31
0.0
210
0.0
220
0.0
230
1.0
 40
0.4999999999999978
 41
3.402090113523606
 42
6.021090651388306
  0
ELLIPSE
  5
114
330
E7
100
AcDbEntity
  8
AM_9
100
AcDbEllipse
 10
0.0000000000000001
 20
2.772140179980412
 30
0.0
 11
-0.13195176466768
 21
1.615943062421192E-17
 31
0.0
210
0.0
220
0.0
230
1.0
 40
0.5000000000000074
 41
3.389185217058756
 42
6.035592743710622
  0
ELLIPSE
  5
115
330
E7
100
AcDbEntity
  8
AM_9
100
AcDbEllipse
 10
-0.0000000000000005
 20
2.370744542859898
 30
0.0
 11
-0.1000886227036583
 21
1.225732114251023E-17
 31
0.0
210
0.0
220
0.0
230
1.0
 40
0.4999999999999892
 41
0.0
 42
6.283185307179586
  0
ELLIPSE
  5
116
330
E7
100
AcDbEntity
  8
AM_9
100
AcDbEllipse
 10
0.0000000000000005
 20
2.543949623616789
 30
0.0
 11
-0.1406500000000004
 21
2.095848339139336E-9
 31
0.0
210
0.0
220
0.0
230
1.0
 40
0.5000000000000048
 41
0.0
 42
6.283185307179586
  0
ELLIPSE
  5
117
330
E7
100
AcDbEntity
  8
AM_9
100
AcDbEllipse
 10
-0.0000000000001683
 20
2.54394962361979
 30
0.0
 11
-0.1163438171534455
 21
1.424800832775520E-17
 31
0.0
210
0.0
220
0.0
230
1.0
 40
0.5000000000000893
 41
0.0
 42
6.283185307179586
  0
LWPOLYLINE
  5
118
330
E7
100
AcDbEntity
  8
AM_4
100
AcDbPolyline
 90
        3
 70
     0
 43
0.0
 10
-0.0951169084438698
 20
2.657689553177792
 10
-0.1014141150849085
 20
2.653162971629623
 10
-0.1218064730422812
 20
2.63684715053575
  0
LWPOLYLINE
  5
119
330
E7
100
AcDbEntity
  8
AM_4
100
AcDbPolyline
 90
        3
 70
     0
 43
0.0
 10
0.1086380564154635
 20
2.647684073212318
 10
0.1015053942019011
 20
2.653095695291992
 10
0.0948867843774714
 20
2.657850808329353
  0
LINE
  5
11A
330
E7
100
AcDbEntity
  8
AM_4
100
AcDbLine
 10
0.1218064730422814
 20
2.63684715053575
 30
0.0
 11
0.1086380564154635
 21
2.647684073212318
 31
0.0
  0
LWPOLYLINE
  5
11B
330
E7
100
AcDbEntity
  8
AM_4
100
AcDbPolyline
 90
        3
 70
     0
 43
0.0
 10
-0.1218064730422812
 20
2.63684715053575
 10
-0.1421075518826614
 20
2.617933195291992
 10
-0.1624086307230416
 20
2.596635542704875
  0
LWPOLYLINE
  5
11C
330
E7
100
AcDbEntity
  8
AM_4
100
AcDbPolyline
 90
        3
 70
     0
 43
0.0
 10
0.1624086307230418
 20
2.596635542704875
 10
0.1421988309996541
 20
2.617842371561322
 10
0.1218064730422814
 20
2.63684715053575
  0
LINE
  5
11D
330
E7
100
AcDbEntity
  8
AM_4
100
AcDbLine
 10
-0.1624086307230416
 20
2.596635542704875
 30
0.0
 11
-0.1624086307230416
 21
2.548998731447663
 31
0.0
  0
LWPOLYLINE
  5
11E
330
E7
100
AcDbEntity
  8
AM_4
100
AcDbPolyline
 90
        3
 70
     0
 43
0.0
 10
-0.1218064730422812
 20
2.508787123616788
 10
-0.1421075518826614
 20
2.527701078860547
 10
-0.1624086307230416
 20
2.548998731447663
  0
LWPOLYLINE
  5
11F
330
E7
100
AcDbEntity
  8
AM_4
100
AcDbPolyline
 90
        3
 70
     0
 43
0.0
 10
-0.0812043153615208
 20
2.478673731447663
 10
-0.1014141150849085
 20
2.492471302522915
 10
-0.1218064730422812
 20
2.508787123616788
  0
LWPOLYLINE
  5
120
330
E7
100
AcDbEntity
  8
AM_4
100
AcDbPolyline
 90
        3
 70
     0
 43
0.0
 10
-0.1624086307230416
 20
2.596635542704875
 10
-0.1421988309996539
 20
2.582837971629623
 10
-0.1218064730422812
 20
2.566522150535751
  0
LINE
  5
121
330
E7
100
AcDbEntity
  8
AM_4
100
AcDbLine
 10
-0.0812043153615208
 20
2.526310542704876
 30
0.0
 11
-0.0812043153615208
 21
2.478673731447663
 31
0.0
  0
LWPOLYLINE
  5
122
330
E7
100
AcDbEntity
  8
AM_4
100
AcDbPolyline
 90
        3
 70
     0
 43
0.0
 10
0.0000000000000001
 20
2.473624623616788
 10
-0.0406021576807603
 20
2.474957328860547
 10
-0.0812043153615208
 20
2.478673731447663
  0
LWPOLYLINE
  5
123
330
E7
100
AcDbEntity
  8
AM_4
100
AcDbPolyline
 90
        4
 70
     0
 43
0.0
 10
0.081204315361521
 20
2.478673731447663
 10
0.0623017518439032
 20
2.476683250783628
 10
0.0312428256208205
 20
2.474420147392642
 10
0.0000000000000001
 20
2.473624623616788
  0
LINE
  5
124
330
E7
100
AcDbEntity
  8
AM_4
100
AcDbLine
 10
0.081204315361521
 20
2.526310542704876
 30
0.0
 11
0.081204315361521
 21
2.478673731447663
 31
0.0
  0
LWPOLYLINE
  5
125
330
E7
100
AcDbEntity
  8
AM_4
100
AcDbPolyline
 90
        3
 70
     0
 43
0.0
 10
0.1218064730422814
 20
2.508787123616788
 10
0.1015053942019012
 20
2.492538578860547
 10
0.081204315361521
 20
2.478673731447663
  0
LWPOLYLINE
  5
126
330
E7
100
AcDbEntity
  8
AM_4
100
AcDbPolyline
 90
        3
 70
     0
 43
0.0
 10
0.1624086307230418
 20
2.548998731447663
 10
0.1421988309996541
 20
2.527791902591217
 10
0.1218064730422814
 20
2.508787123616788
  0
LINE
  5
127
330
E7
100
AcDbEntity
  8
AM_4
100
AcDbLine
 10
0.1624086307230418
 20
2.596635542704875
 30
0.0
 11
0.1624086307230418
 21
2.548998731447663
 31
0.0
  0
LWPOLYLINE
  5
128
330
E7
100
AcDbEntity
  8
AM_4
100
AcDbPolyline
 90
        3
 70
     0
 43
0.0
 10
0.1218064730422814
 20
2.566522150535751
 10
0.1421075518826616
 20
2.582770695291992
 10
0.1624086307230418
 20
2.596635542704875
  0
LWPOLYLINE
  5
129
330
E7
100
AcDbEntity
  8
AM_4
100
AcDbPolyline
 90
        3
 70
     0
 43
0.0
 10
-0.1218064730422812
 20
2.566522150535751
 10
-0.101505394201901
 20
2.547608195291992
 10
-0.0812043153615208
 20
2.526310542704876
  0
LWPOLYLINE
  5
12A
330
E7
100
AcDbEntity
  8
AM_4
100
AcDbPolyline
 90
        3
 70
     0
 43
0.0
 10
-0.0812043153615208
 20
2.526310542704876
 10
-0.0407847159147454
 20
2.530015171595473
 10
0.0000000000000001
 20
2.53135965053575
  0
LWPOLYLINE
  5
12B
330
E7
100
AcDbEntity
  8
AM_4
100
AcDbPolyline
 90
        4
 70
     0
 43
0.0
 10
0.0000000000000001
 20
2.53135965053575
 10
0.0311508759219517
 20
2.53056874711966
 10
0.0623017518439032
 20
2.52830102336891
 10
0.081204315361521
 20
2.526310542704876
  0
LWPOLYLINE
  5
12C
330
E7
100
AcDbEntity
  8
AM_4
100
AcDbPolyline
 90
        3
 70
     0
 43
0.0
 10
0.081204315361521
 20
2.526310542704876
 10
0.1014141150849086
 20
2.547517371561322
 10
0.1218064730422814
 20
2.566522150535751
  0
ELLIPSE
  5
12D
330
E7
100
AcDbEntity
  8
AM_4
100
AcDbEllipse
 10
-0.0000000000000006
 20
2.60168465053575
 30
0.0
 11
-0.1406499999999989
 21
1.722465723000739E-17
 31
0.0
210
0.0
220
0.0
230
1.0
 40
0.5000000000000004
 41
5.667705598509185
 42
10.04025766943977
  0
LINE
  5
12E
330
E7
100
AcDbEntity
  8
AM_4
100
AcDbLine
 10
-0.0951423096053335
 20
2.65621535127835
 30
0.0
 11
-0.1148402441074846
 21
2.642286808216511
 31
0.0
  0
LINE
  5
12F
330
E7
100
AcDbEntity
  8
AM_4
100
AcDbLine
 10
0.1148402441074848
 20
2.642286808216511
 30
0.0
 11
0.0950639099855358
 21
2.656270788181152
 31
0.0
  0
ELLIPSE
  5
130
330
E7
100
AcDbEntity
  8
AM_4
100
AcDbEllipse
 10
0.0000000000000001
 20
2.628809041994154
 30
0.0
 11
-0.1093294505797712
 21
1.338899617050556E-17
 31
0.0
210
0.0
220
0.0
230
1.0
 40
0.5000000000000013
 41
5.791869408954783
 42
9.918109891144024
  0
LWPOLYLINE
  5
131
330
E7
100
AcDbEntity
  8
AM_4
100
AcDbPolyline
 90
        4
 70
     0
 43
0.0
 10
0.0946847896390989
 20
2.659427663778944
 10
0.0947890811165153
 20
2.661116386533759
 10
0.0953843840151885
 20
2.663636413384679
 10
0.0957008168332861
 20
2.6643519273044
  0
LWPOLYLINE
  5
132
330
E7
100
AcDbEntity
  8
AM_4
100
AcDbPolyline
 90
        7
 70
     0
 43
0.0
 10
-0.0956957362182607
 20
2.664342776457495
 10
-0.0955277890948708
 20
2.663993389208174
 10
-0.0949412012687086
 20
2.662052510071539
 10
-0.0947078378991088
 20
2.65863024194127
 10
-0.0952539213066933
 20
2.655594988544427
 10
-0.0956974109452437
 20
2.654509519054649
 10
-0.0957089489758412
 20
2.654489136515964
  0
LWPOLYLINE
  5
133
330
E7
100
AcDbEntity
  8
AM_4
100
AcDbPolyline
 90
        4
 70
     0
 43
0.0
 10
0.0957089489758414
 20
2.654489136515964
 10
0.0956114327617315
 20
2.654678179791559
 10
0.0950539377039558
 20
2.656299795082779
 10
0.0946847896390989
 20
2.659427663778944
  0
LINE
  5
134
330
E7
100
AcDbEntity
  8
AM_4
100
AcDbLine
 10
0.0957004741016687
 20
2.664351314645983
 30
0.0
 11
0.1263961853608578
 21
2.719254457441016
 31
0.0
  0
LINE
  5
135
330
E7
100
AcDbEntity
  8
AM_4
100
AcDbLine
 10
-0.1263961853608576
 20
2.719254457441016
 30
0.0
 11
-0.0957004741016685
 21
2.664351314645983
 31
0.0
  0
ELLIPSE
  5
136
330
E7
100
AcDbEntity
  8
AM_4
100
AcDbEllipse
 10
0.0000000000000001
 20
2.677727571317478
 30
0.0
 11
-0.09936940028726633
 21
1.480719463585769E-9
 31
0.0
210
0.0
220
0.0
230
1.0
 40
0.5000000000000019
 41
0.2725860265010329
 42
2.869006683453255
  0
LWPOLYLINE
  5
137
330
E7
100
AcDbEntity
  8
AM_4
100
AcDbPolyline
 90
        4
 70
     0
 43
0.0
 10
0.1359265219950581
 20
2.755221025814358
 10
0.1350015925355444
 20
2.766691403697007
 10
0.132163509034762
 20
2.77817952866683
 10
0.1278794862011997
 20
2.788404580539397
  0
LWPOLYLINE
  5
138
330
E7
100
AcDbEntity
  8
AM_4
100
AcDbPolyline
 90
        8
 70
     0
 43
0.0
 10
-0.1278136000444066
 20
2.788534156992502
 10
-0.1317116916338142
 20
2.779488909933395
 10
-0.1347084171500565
 20
2.768373891996991
 10
-0.1359227002061432
 20
2.755960190269786
 10
-0.1350230830775179
 20
2.74388402630471
 10
-0.1322059342661339
 20
2.73238967554797
 10
-0.1276610910249459
 20
2.721610238909696
 10
-0.1262303000109616
 20
2.718959239652585
  0
LWPOLYLINE
  5
139
330
E7
100
AcDbEntity
  8
AM_4
100
AcDbPolyline
 90
        6
 70
     0
 43
0.0
 10
0.1263137838201847
 20
2.719107440859963
 10
0.1268922757996691
 20
2.720155550771692
 10
0.1316624985532717
 20
2.73081519950468
 10
0.1346816809108952
 20
2.74192556106995
 10
0.135900892371722
 20
2.753306976250226
 10
0.1359265219950581
 20
2.755221025814358
  0
ELLIPSE
  5
13A
330
E7
100
AcDbEntity
  8
AM_4
100
AcDbEllipse
 10
0.0000000000000001
 20
2.736921118275825
 30
0.0
 11
-0.1312419113468905
 21
1.607249866449502E-17
 31
0.0
210
0.0
220
0.0
230
1.0
 40
0.4999999999999933
 41
0.274894165800279
 42
2.867859336448265
  0
ELLIPSE
  5
13B
330
E7
100
AcDbEntity
  8
AM_4
100
AcDbEllipse
 10
0.0000000000000001
 20
2.842728387922419
 30
0.0
 11
0.08080642971672804
 21
0.0
 31
0.0
210
0.0
220
0.0
230
1.0
 40
0.4999999999999992
 41
0.0
 42
6.283185307179586
  0
LWPOLYLINE
  5
13C
330
E7
100
AcDbEntity
  8
AM_4
100
AcDbPolyline
 90
       20
 70
     0
 43
0.0
 10
0.1001267300567926
 20
2.843271765939415
 10
0.0984627648001777
 20
2.846162352070097
 10
0.0925948497767354
 20
2.85401978258982
 10
0.0850230080958127
 20
2.861296580083502
 10
0.0756572827522879
 20
2.867945507953281
 10
0.0645682622809701
 20
2.873793266817601
 10
0.0520954086998706
 20
2.878621805032171
 10
0.0387006477921598
 20
2.882300681542748
 10
0.0246834239007223
 20
2.884822059137828
 10
0.0102901085456611
 20
2.88619648191475
 10
-0.0042499936622845
 20
2.886432549585147
 10
-0.0187121901100471
 20
2.885534176968631
 10
-0.0328611701264581
 20
2.883502547687101
 10
-0.0464864390286016
 20
2.880329882231005
 10
-0.0593965194035353
 20
2.875985635270932
 10
-0.0714041993421808
 20
2.870399490842213
 10
-0.0822816206737775
 20
2.863454441836075
 10
-0.0905998015453724
 20
2.856168473869724
 10
-0.0970920298909071
 20
2.848268174477003
 10
-0.1000587067908875
 20
2.843398754660398
  0
ELLIPSE
  5
13D
330
E7
100
AcDbEntity
  8
AM_4
100
AcDbEllipse
 10
0.0000000000000001
 20
2.772140179980412
 30
0.0
 11
-0.1319517646676802
 21
1.615943062421193E-17
 31
0.0
210
0.0
220
0.0
230
1.0
 40
0.500000000000007
 41
6.035592743710622
 42
9.672370524238342
  0
ELLIPSE
  5
13E
330
E7
100
AcDbEntity
  8
AM_4
100
AcDbEllipse
 10
0.0000000000000001
 20
2.829537329910835
 30
0.0
 11
-0.103819051053039
 21
1.271416685626198E-17
 31
0.0
210
0.0
220
0.0
230
1.0
 40
0.4999999999999949
 41
6.035592743710622
 42
9.672370524238342
  0
LINE
  5
13F
330
E7
100
AcDbEntity
  8
AM_4
100
AcDbLine
 10
-0.1006531122094678
 20
2.842258831041812
 30
0.0
 11
-0.1279279249869863
 21
2.788308932308891
 31
0.0
  0
LINE
  5
140
330
E7
100
AcDbEntity
  8
AM_4
100
AcDbLine
 10
0.1279279249869865
 20
2.788308932308891
 30
0.0
 11
0.100653112209468
 21
2.842258831041812
 31
0.0
  0
ENDBLK
  5
EA
330
E7
100
AcDbEntity
  8
0
100
AcDbBlockEnd
  0
BLOCK
  5
143
330
141
100
AcDbEntity
  8
0
100
AcDbBlockBegin
  2
4_048007B_0_in_048007_2
 70
     2
 10
0.0
 20
0.0
 30
0.0
  3
4_048007B_0_in_048007_2
  1

  0
ATTDEF
  5
145
330
141
100
AcDbEntity
  8
AM_6
100
AcDbText
 10
6.409375
 20
2.937499999999998
 30
0.0
 40
0.5
  1
Unisphere II - Pillow Block Bearing - Inch - Body
100
AcDbAttributeDefinition
  3

  2
NN
 70
     8
280
     0
  0
ATTDEF
  5
146
330
141
100
AcDbEntity
  8
AM_6
100
AcDbText
 10
6.409375
 20
2.437499999999998
 30
0.0
 40
0.5
  1
Unisphere II
100
AcDbAttributeDefinition
  3

  2
NT
 70
     8
280
     0
  0
ATTDEF
  5
147
330
141
100
AcDbEntity
  8
AM_6
100
AcDbText
 10
6.409375
 20
1.937499999999998
 30
0.0
 40
0.5
  1
048007B
100
AcDbAttributeDefinition
  3

  2
NB
 70
     8
280
     0
  0
ATTDEF
  5
148
330
141
100
AcDbEntity
  8
AM_6
100
AcDbText
 10
6.409375
 20
1.437499999999998
 30
0.0
 40
0.5
  1
$PN.
100
AcDbAttributeDefinition
  3

  2
NBSYN
 70
     8
280
     0
  0
ATTDEF
  5
149
330
141
100
AcDbEntity
  8
AM_6
100
AcDbText
 10
6.409375
 20
0.9374999999999978
 30
0.0
 40
0.5
  1
048007B
100
AcDbAttributeDefinition
  3

  2
LINA
 70
     8
280
     0
  0
ATTDEF
  5
14A
330
141
100
AcDbEntity
  8
AM_6
100
AcDbText
 10
6.409375
 20
0.4374999999999978
 30
0.0
 40
0.5
  1
2-7/16
100
AcDbAttributeDefinition
  3

  2
SS
 70
     8
280
     0
  0
ATTDEF
  5
14B
330
141
100
AcDbEntity
  8
AM_6
100
AcDbText
 10
6.409375
 20
-0.0625000000000022
 30
0.0
 40
0.5
  1
2.43750
100
AcDbAttributeDefinition
  3

  2
SS1
 70
     8
280
     0
  0
ATTDEF
  5
14C
330
141
100
AcDbEntity
  8
AM_6
100
AcDbText
 10
6.409375
 20
-0.5625000000000022
 30
0.0
 40
0.5
  1
Non Expansion Type
100
AcDbAttributeDefinition
  3

  2
TYPE
 70
     8
280
     0
  0
ATTDEF
  5
14D
330
141
100
AcDbEntity
  8
AM_6
100
AcDbText
 10
6.409375
 20
-1.062500000000002
 30
0.0
 40
0.5
  1
048007B
100
AcDbAttributeDefinition
  3

  2
PNNE
 70
     8
280
     0
  0
ATTDEF
  5
14E
330
141
100
AcDbEntity
  8
AM_6
100
AcDbText
 10
6.409375
 20
-1.562500000000002
 30
0.0
 40
0.5
  1
048024B
100
AcDbAttributeDefinition
  3

  2
PNE
 70
     8
280
     0
  0
ATTDEF
  5
14F
330
141
100
AcDbEntity
  8
AM_6
100
AcDbText
 10
6.409375
 20
-2.062500000000002
 30
0.0
 40
0.5
  1
P2B-UN2-207
100
AcDbAttributeDefinition
  3

  2
DESCRIPTIONNE
 70
     8
280
     0
  0
ATTDEF
  5
150
330
141
100
AcDbEntity
  8
AM_6
100
AcDbText
 10
6.409375
 20
-2.562500000000002
 30
0.0
 40
0.5
  1
P2B-UN2-207E
100
AcDbAttributeDefinition
  3

  2
DESCRIPTIONE
 70
     8
280
     0
  0
ATTDEF
  5
151
330
141
100
AcDbEntity
  8
AM_6
100
AcDbText
 10
6.409375
 20
-3.062500000000002
 30
0.0
 40
0.5
  1
13.6
100
AcDbAttributeDefinition
  3

  2
WEIGHT
 70
     8
280
     0
  0
ATTDEF
  5
152
330
141
100
AcDbEntity
  8
AM_6
100
AcDbText
 10
6.409375
 20
-3.562500000000002
 30
0.0
 40
0.5
  1
2-13/64
100
AcDbAttributeDefinition
  3

  2
A
 70
     8
280
     0
  0
ATTDEF
  5
153
330
141
100
AcDbEntity
  8
AM_6
100
AcDbText
 10
6.409375
 20
-4.062500000000002
 30
0.0
 40
0.5
  1
2.20313
100
AcDbAttributeDefinition
  3

  2
A1
 70
     8
280
     0
  0
ATTDEF
  5
154
330
141
100
AcDbEntity
  8
AM_6
100
AcDbText
 10
6.409375
 20
-4.562500000000002
 30
0.0
 40
0.5
  1
9-1/4
100
AcDbAttributeDefinition
  3

  2
B
 70
     8
280
     0
  0
ATTDEF
  5
155
330
141
100
AcDbEntity
  8
AM_6
100
AcDbText
 10
6.409375
 20
-5.062500000000002
 30
0.0
 40
0.5
  1
9.25000
100
AcDbAttributeDefinition
  3

  2
B1
 70
     8
280
     0
  0
ATTDEF
  5
156
330
141
100
AcDbEntity
  8
AM_6
100
AcDbText
 10
6.409375
 20
-5.562500000000002
 30
0.0
 40
0.5
  1
2-9/16
100
AcDbAttributeDefinition
  3

  2
C
 70
     8
280
     0
  0
ATTDEF
  5
157
330
141
100
AcDbEntity
  8
AM_6
100
AcDbText
 10
6.409375
 20
-6.062500000000002
 30
0.0
 40
0.5
  1
2.56250
100
AcDbAttributeDefinition
  3

  2
C1
 70
     8
280
     0
  0
ATTDEF
  5
158
330
141
100
AcDbEntity
  8
AM_6
100
AcDbText
 10
6.409375
 20
-6.562500000000002
 30
0.0
 40
0.5
  1
6-13/16
100
AcDbAttributeDefinition
  3

  2
DMIN
 70
     8
280
     0
  0
ATTDEF
  5
159
330
141
100
AcDbEntity
  8
AM_6
100
AcDbText
 10
6.409375
 20
-7.062500000000002
 30
0.0
 40
0.5
  1
6.81250
100
AcDbAttributeDefinition
  3

  2
DMIN1
 70
     8
280
     0
  0
ATTDEF
  5
15A
330
141
100
AcDbEntity
  8
AM_6
100
AcDbText
 10
6.409375
 20
-7.562500000000002
 30
0.0
 40
0.5
  1
7-7/16
100
AcDbAttributeDefinition
  3

  2
DMAX
 70
     8
280
     0
  0
ATTDEF
  5
15B
330
141
100
AcDbEntity
  8
AM_6
100
AcDbText
 10
6.409375
 20
-8.062500000000002
 30
0.0
 40
0.5
  1
7.43750
100
AcDbAttributeDefinition
  3

  2
DMAX1
 70
     8
280
     0
  0
ATTDEF
  5
15C
330
141
100
AcDbEntity
  8
AM_6
100
AcDbText
 10
6.409375
 20
-8.562500000000002
 30
0.0
 40
0.5
  1
3/16
100
AcDbAttributeDefinition
  3

  2
E
 70
     8
280
     0
  0
ATTDEF
  5
15D
330
141
100
AcDbEntity
  8
AM_6
100
AcDbText
 10
6.409375
 20
-9.062500000000002
 30
0.0
 40
0.5
  1
0.18750
100
AcDbAttributeDefinition
  3

  2
E1
 70
     8
280
     0
  0
ATTDEF
  5
15E
330
141
100
AcDbEntity
  8
AM_6
100
AcDbText
 10
6.409375
 20
-9.562500000000002
 30
0.0
 40
0.5
  1
5/8
100
AcDbAttributeDefinition
  3

  2
F
 70
     8
280
     0
  0
ATTDEF
  5
15F
330
141
100
AcDbEntity
  8
AM_6
100
AcDbText
 10
6.409375
 20
-10.0625
 30
0.0
 40
0.5
  1
0.62500
100
AcDbAttributeDefinition
  3

  2
F1
 70
     8
280
     0
  0
ATTDEF
  5
160
330
141
100
AcDbEntity
  8
AM_6
100
AcDbText
 10
6.409375
 20
-10.5625
 30
0.0
 40
0.5
  1
1
100
AcDbAttributeDefinition
  3

  2
G
 70
     8
280
     0
  0
ATTDEF
  5
161
330
141
100
AcDbEntity
  8
AM_6
100
AcDbText
 10
6.409375
 20
-11.0625
 30
0.0
 40
0.5
  1
1.00000
100
AcDbAttributeDefinition
  3

  2
G1
 70
     8
280
     0
  0
ATTDEF
  5
162
330
141
100
AcDbEntity
  8
AM_6
100
AcDbText
 10
6.409375
 20
-11.5625
 30
0.0
 40
0.5
  1
1-3/4
100
AcDbAttributeDefinition
  3

  2
H
 70
     8
280
     0
  0
ATTDEF
  5
163
330
141
100
AcDbEntity
  8
AM_6
100
AcDbText
 10
6.409375
 20
-12.0625
 30
0.0
 40
0.5
  1
1.75000
100
AcDbAttributeDefinition
  3

  2
H1
 70
     8
280
     0
  0
ATTDEF
  5
164
330
141
100
AcDbEntity
  8
AM_6
100
AcDbText
 10
6.409375
 20
-12.5625
 30
0.0
 40
0.5
  1
5-11/16
100
AcDbAttributeDefinition
  3

  2
J
 70
     8
280
     0
  0
ATTDEF
  5
165
330
141
100
AcDbEntity
  8
AM_6
100
AcDbText
 10
6.409375
 20
-13.0625
 30
0.0
 40
0.5
  1
5.68750
100
AcDbAttributeDefinition
  3

  2
J1
 70
     8
280
     0
  0
ATTDEF
  5
166
330
141
100
AcDbEntity
  8
AM_6
100
AcDbText
 10
6.409375
 20
-13.5625
 30
0.0
 40
0.5
  1
4-1/16
100
AcDbAttributeDefinition
  3

  2
L
 70
     8
280
     0
  0
ATTDEF
  5
167
330
141
100
AcDbEntity
  8
AM_6
100
AcDbText
 10
6.409375
 20
-14.0625
 30
0.0
 40
0.5
  1
4.06250
100
AcDbAttributeDefinition
  3

  2
L1
 70
     8
280
     0
  0
ATTDEF
  5
168
330
141
100
AcDbEntity
  8
AM_6
100
AcDbText
 10
6.409375
 20
-14.5625
 30
0.0
 40
0.5
  1
2-3/4
100
AcDbAttributeDefinition
  3

  2
M
 70
     8
280
     0
  0
ATTDEF
  5
169
330
141
100
AcDbEntity
  8
AM_6
100
AcDbText
 10
6.409375
 20
-15.0625
 30
0.0
 40
0.5
  1
2.75000
100
AcDbAttributeDefinition
  3

  2
M1
 70
     8
280
     0
  0
ATTDEF
  5
16A
330
141
100
AcDbEntity
  8
AM_6
100
AcDbText
 10
6.409375
 20
-15.5625
 30
0.0
 40
0.5
  1
21/32
100
AcDbAttributeDefinition
  3

  2
R
 70
     8
280
     0
  0
ATTDEF
  5
16B
330
141
100
AcDbEntity
  8
AM_6
100
AcDbText
 10
6.409375
 20
-16.0625
 30
0.0
 40
0.5
  1
0.65625
100
AcDbAttributeDefinition
  3

  2
R1
 70
     8
280
     0
  0
ATTDEF
  5
16C
330
141
100
AcDbEntity
  8
AM_6
100
AcDbText
 10
6.409375
 20
-16.5625
 30
0.0
 40
0.5
  1
1-35/64
100
AcDbAttributeDefinition
  3

  2
S
 70
     8
280
     0
  0
ATTDEF
  5
16D
330
141
100
AcDbEntity
  8
AM_6
100
AcDbText
 10
6.409375
 20
-17.0625
 30
0.0
 40
0.5
  1
1.54688
100
AcDbAttributeDefinition
  3

  2
S1
 70
     8
280
     0
  0
ATTDEF
  5
16E
330
141
100
AcDbEntity
  8
AM_6
100
AcDbText
 10
6.409375
 20
-17.5625
 30
0.0
 40
0.5
  1
1900
100
AcDbAttributeDefinition
  3

  2
MRP
 70
     8
280
     0
  0
ATTDEF
  5
16F
330
141
100
AcDbEntity
  8
AM_6
100
AcDbText
 10
6.409375
 20
-18.0625
 30
0.0
 40
0.5
  1
46500
100
AcDbAttributeDefinition
  3

  2
CS
 70
     8
280
     0
  0
ATTDEF
  5
170
330
141
100
AcDbEntity
  8
AM_6
100
AcDbText
 10
6.409375
 20
-18.5625
 30
0.0
 40
0.5
  1
38000
100
AcDbAttributeDefinition
  3

  2
CD
 70
     8
280
     0
  0
ATTDEF
  5
171
330
141
100
AcDbEntity
  8
AM_6
100
AcDbText
 10
6.409375
 20
-19.0625
 30
0.0
 40
0.5
  1
18
100
AcDbAttributeDefinition
  3

  2
RN
 70
     8
280
     0
  0
ATTDEF
  5
172
330
141
100
AcDbEntity
  8
AM_6
100
AcDbText
 10
6.409375
 20
-19.5625
 30
0.0
 40
0.5
  1
0.5827
100
AcDbAttributeDefinition
  3

  2
RM
 70
     8
280
     0
  0
ATTDEF
  5
173
330
141
100
AcDbEntity
  8
AM_6
100
AcDbText
 10
6.409375
 20
-20.0625
 30
0.0
 40
0.5
  1
3.795
100
AcDbAttributeDefinition
  3

  2
PDI
 70
     8
280
     0
  0
ATTDEF
  5
174
330
141
100
AcDbEntity
  8
AM_6
100
AcDbText
 10
6.409375
 20
-20.5625
 30
0.0
 40
0.5
  1
0.0016-0.0026
100
AcDbAttributeDefinition
  3

  2
RC
 70
     8
280
     0
  0
ATTDEF
  5
175
330
141
100
AcDbEntity
  8
AM_6
100
AcDbText
 10
6.409375
 20
-21.0625
 30
0.0
 40
0.5
  1
3/8-16x3/4
100
AcDbAttributeDefinition
  3

  2
COS
 70
     8
280
     0
  0
ATTDEF
  5
176
330
141
100
AcDbEntity
  8
AM_6
100
AcDbText
 10
6.409375
 20
-21.5625
 30
0.0
 40
0.5
  1
290
100
AcDbAttributeDefinition
  3

  2
CT
 70
     8
280
     0
  0
ATTDEF
  5
177
330
141
100
AcDbEntity
  8
AM_6
100
AcDbText
 10
6.409375
 20
-22.0625
 30
0.0
 40
0.5
  1
Ductile Iron Grade 65-45-13 ASTM A536
100
AcDbAttributeDefinition
  3

  2
MH
 70
     8
280
     0
  0
ATTDEF
  5
178
330
141
100
AcDbEntity
  8
AM_6
100
AcDbText
 10
6.409375
 20
-22.5625
 30
0.0
 40
0.5
  1
4118 Case Carb,
100
AcDbAttributeDefinition
  3

  2
MIR
 70
     8
280
     0
  0
ATTDEF
  5
179
330
141
100
AcDbEntity
  8
AM_6
100
AcDbText
 10
6.409375
 20
-23.0625
 30
0.0
 40
0.5
  1
E52100 Steel
100
AcDbAttributeDefinition
  3

  2
MOR
 70
     8
280
     0
  0
ATTDEF
  5
17A
330
141
100
AcDbEntity
  8
AM_6
100
AcDbText
 10
6.409375
 20
-23.5625
 30
0.0
 40
0.5
  1
Polyamide
100
AcDbAttributeDefinition
  3

  2
MR
 70
     8
280
     0
  0
ATTDEF
  5
17B
330
141
100
AcDbEntity
  8
AM_6
100
AcDbText
 10
6.409375
 20
-24.0625
 30
0.0
 40
0.5
  1
E52100 Steel
100
AcDbAttributeDefinition
  3

  2
MRO
 70
     8
280
     0
  0
ATTDEF
  5
17C
330
141
100
AcDbEntity
  8
AM_6
100
AcDbText
 10
6.409375
 20
-24.5625
 30
0.0
 40
0.5
  1
2°
100
AcDbAttributeDefinition
  3

  2
SM
 70
     8
280
     0
  0
ATTDEF
  5
17D
330
141
100
AcDbEntity
  8
AM_6
100
AcDbText
 10
6.409375
 20
-25.0625
 30
0.0
 40
0.5
  1
baldor
100
AcDbAttributeDefinition
  3

  2
COMPANY
 70
     8
280
     0
  0
LINE
  5
17E
330
141
100
AcDbEntity
  8
AM_9
100
AcDbLine
 10
-1.222490842490842
 20
-1.967499999999998
 30
0.0
 11
1.222490842490842
 21
-1.9675
 31
0.0
  0
LINE
  5
17F
330
141
100
AcDbEntity
  8
AM_9
100
AcDbLine
 10
-0.6174671052631582
 20
-2.03125
 30
0.0
 11
0.6174671052631578
 21
-2.03125
 31
0.0
  0
LINE
  5
180
330
141
100
AcDbEntity
  8
AM_9
100
AcDbLine
 10
0.6174671052631578
 20
2.03125
 30
0.0
 11
-0.6174671052631582
 21
2.03125
 31
0.0
  0
ARC
  5
181
330
141
100
AcDbEntity
  8
AM_9
100
AcDbCircle
 10
-0.617467105263158
 20
-2.088125000000001
 30
0.0
 40
0.0568750000000002
100
AcDbArc
 50
90.0
 51
179.9999991462263
  0
ARC
  5
182
330
141
100
AcDbEntity
  8
AM_9
100
AcDbCircle
 10
-0.617467105263158
 20
2.088125000000001
 30
0.0
 40
0.0568749999999999
100
AcDbArc
 50
179.9999991462263
 51
270.0
  0
LINE
  5
183
330
141
100
AcDbEntity
  8
AM_9
100
AcDbLine
 10
-0.6174671052631582
 20
2.03125
 30
0.0
 11
-0.6174671052631582
 21
-2.03125
 31
0.0
  0
ARC
  5
184
330
141
100
AcDbEntity
  8
AM_9
100
AcDbCircle
 10
0.6174671052631587
 20
-2.088124999999999
 30
0.0
 40
0.0568749999999991
100
AcDbArc
 50
0.0
 51
90.0
  0
ARC
  5
185
330
141
100
AcDbEntity
  8
AM_9
100
AcDbCircle
 10
0.6174671052631587
 20
2.088124999999999
 30
0.0
 40
0.0568749999999993
100
AcDbArc
 50
270.0
 51
0.0
  0
LINE
  5
186
330
141
100
AcDbEntity
  8
AM_9
100
AcDbLine
 10
0.6174671052631578
 20
2.03125
 30
0.0
 11
0.6174671052631578
 21
-2.03125
 31
0.0
  0
LINE
  5
187
330
141
100
AcDbEntity
  8
AM_9
100
AcDbLine
 10
0.7312171052631574
 20
-2.389705882352941
 30
0.0
 11
1.254194947209653
 21
-2.389705882352941
 31
0.0
  0
LINE
  5
188
330
141
100
AcDbEntity
  8
AM_9
100
AcDbLine
 10
0.8953013897866838
 20
2.389705882352941
 30
0.0
 11
0.7312171052631574
 21
2.389705882352941
 31
0.0
  0
LINE
  5
189
330
141
100
AcDbEntity
  8
AM_9
100
AcDbLine
 10
0.674342105263158
 20
2.332830882352941
 30
0.0
 11
0.674342105263158
 21
-2.332830882352941
 31
0.0
  0
ARC
  5
18A
330
141
100
AcDbEntity
  8
AM_9
100
AcDbCircle
 10
0.7312171052631573
 20
-2.332830882352942
 30
0.0
 40
0.0568749999999993
100
AcDbArc
 50
180.0
 51
270.0
  0
ARC
  5
18B
330
141
100
AcDbEntity
  8
AM_9
100
AcDbCircle
 10
0.7312171052631573
 20
2.332830882352942
 30
0.0
 40
0.0568749999999993
100
AcDbArc
 50
90.0
 51
180.0
  0
LINE
  5
18C
330
141
100
AcDbEntity
  8
AM_9
100
AcDbLine
 10
0.7312171052631574
 20
2.389705882352941
 30
0.0
 11
0.7312171052631574
 21
-2.389705882352941
 31
0.0
  0
LINE
  5
18D
330
141
100
AcDbEntity
  8
AM_9
100
AcDbLine
 10
-0.6743421052631579
 20
2.332830882352942
 30
0.0
 11
-0.6743421052631579
 21
-2.332830882352942
 31
0.0
  0
ARC
  5
18E
330
141
100
AcDbEntity
  8
AM_9
100
AcDbCircle
 10
-0.7312171052631582
 20
-2.332830882352941
 30
0.0
 40
0.0568750000000007
100
AcDbArc
 50
270.0
 51
0.0
  0
ARC
  5
18F
330
141
100
AcDbEntity
  8
AM_9
100
AcDbCircle
 10
-0.7312171052631582
 20
2.332830882352941
 30
0.0
 40
0.0568750000000003
100
AcDbArc
 50
0.0
 51
90.0
  0
LINE
  5
190
330
141
100
AcDbEntity
  8
AM_9
100
AcDbLine
 10
-1.254194947209653
 20
-2.389705882352941
 30
0.0
 11
-0.731217105263158
 21
-2.389705882352941
 31
0.0
  0
LINE
  5
191
330
141
100
AcDbEntity
  8
AM_9
100
AcDbLine
 10
-0.731217105263158
 20
2.389705882352941
 30
0.0
 11
-0.8953013897866837
 21
2.389705882352941
 31
0.0
  0
LINE
  5
192
330
141
100
AcDbEntity
  8
AM_9
100
AcDbLine
 10
-0.731217105263158
 20
2.389705882352941
 30
0.0
 11
-0.731217105263158
 21
-2.389705882352941
 31
0.0
  0
LINE
  5
193
330
141
100
AcDbEntity
  8
AM_9
100
AcDbLine
 10
-0.3124999999999998
 20
-1.0
 30
0.0
 11
-0.3124999999999998
 21
-2.75
 31
0.0
  0
LINE
  5
194
330
141
100
AcDbEntity
  8
AM_9
100
AcDbLine
 10
0.3125000000000003
 20
-1.0
 30
0.0
 11
0.3125000000000003
 21
-2.75
 31
0.0
  0
LINE
  5
195
330
141
100
AcDbEntity
  8
AM_9
100
AcDbLine
 10
-0.3139204545454541
 20
-1.0
 30
0.0
 11
-0.3139204545454541
 21
-2.75
 31
0.0
  0
LINE
  5
196
330
141
100
AcDbEntity
  8
AM_9
100
AcDbLine
 10
0.3139204545454617
 20
-2.75
 30
0.0
 11
0.3139204545454617
 21
-1.0
 31
0.0
  0
LINE
  5
197
330
141
100
AcDbEntity
  8
AM_9
100
AcDbLine
 10
0.6217739312133888
 20
-1.000065131560276
 30
0.0
 11
0.6251063402700711
 21
-1.031386445028117
 31
0.0
  0
LINE
  5
198
330
141
100
AcDbEntity
  8
AM_9
100
AcDbLine
 10
-0.6250868026953752
 20
-1.031199003735672
 30
0.0
 11
-0.6217805952720041
 21
-1.000126669056074
 31
0.0
  0
LINE
  5
199
330
141
100
AcDbEntity
  8
AM_7
100
AcDbLine
 10
-1.6570365
 20
0.0
 30
0.0
 11
1.409375
 21
0.0
 31
0.0
  0
LINE
  5
19A
330
141
100
AcDbEntity
  8
AM_4
100
AcDbLine
 10
0.8541666666666666
 20
2.937499999999998
 30
0.0
 11
-0.8541666666666667
 21
2.937499999999998
 31
0.0
  0
LWPOLYLINE
  5
19B
330
141
100
AcDbEntity
  8
AM_4
100
AcDbPolyline
 90
       49
 70
     0
 43
0.0
 10
0.5811911795687849
 20
-0.2784360189573481
 10
0.5858950563266564
 20
-0.1316833670305973
 10
0.5871744996555134
 20
0.0155817870954823
 10
0.5851540999218404
 20
0.1626897370945019
 10
0.5813475135346455
 20
0.2759548646762601
 10
0.5752572206171368
 20
0.3888221553170159
 10
0.5664727120285696
 20
0.5009197514395966
 10
0.5545834786282002
 20
0.6118757954668295
 10
0.5421654675322004
 20
0.7018309643817955
 10
0.5267680163018105
 20
0.7907675141836251
 10
0.5078073196311189
 20
0.8782566041880849
 10
0.4846995722142142
 20
0.9638693937109414
 10
0.4624899090885253
 20
1.031603171952604
 10
0.4364246599917441
 20
1.097841546381297
 10
0.4059199209339688
 20
1.161773055945456
 10
0.370391787925297
 20
1.222586239593511
 10
0.3292563569758265
 20
1.279469636273896
 10
0.2990016652664694
 20
1.314075708440227
 10
0.2657347543931109
 20
1.346256889011941
 10
0.2294305202721232
 20
1.37538141802945
 10
0.1894228207724062
 20
1.401147223501486
 10
0.1461521859661137
 20
1.422588260075617
 10
0.1002968172188017
 20
1.438769353940654
 10
0.0651421184180061
 20
1.446857215124173
 10
0.0290755744275806
 20
1.451548156081255
 10
-0.0072466608131835
 20
1.452669848288553
 10
-0.0434882069912019
 20
1.450110162230799
 10
-0.079292877103008
 20
1.444018086872711
 10
-0.1140356522982827
 20
1.434611761649436
 10
-0.1641657370673612
 20
1.414464455229516
 10
-0.2106446105914531
 20
1.388271523989252
 10
-0.2560076799480569
 20
1.354623079928163
 10
-0.2969329432676037
 20
1.316232708034212
 10
-0.333420327880544
 20
1.274256045370659
 10
-0.3729161492018171
 20
1.218579248106772
 10
-0.4071203569329399
 20
1.159278880117007
 10
-0.43658725014397
 20
1.09719146044178
 10
-0.461871127904965
 20
1.033153508121506
 10
-0.4938144242561755
 20
0.932874029874578
 10
-0.5192013609390013
 20
0.8294040882219441
 10
-0.5390138975378486
 20
0.7234784852635107
 10
-0.5542339936371224
 20
0.6158320230991831
 10
-0.5658436088212285
 20
0.5071995038288676
 10
-0.576087181321697
 20
0.3778319472245358
 10
-0.5830137721994567
 20
0.2471754946472364
 10
-0.5868054244587763
 20
0.1157253089186838
 10
-0.5876441811039249
 20
-0.0160234471394075
 10
-0.5857120851391714
 20
-0.147575610705323
 10
-0.5811911795687846
 20
-0.2784360189573482
  0
LINE
  5
19C
330
141
100
AcDbEntity
  8
AM_4
100
AcDbLine
 10
0.5811911795687849
 20
-0.2784360189573455
 30
0.0
 11
1.095656367723903
 21
-0.2784360189573455
 31
0.0
  0
LWPOLYLINE
  5
19D
330
141
100
AcDbEntity
  8
AM_4
100
AcDbPolyline
 90
        5
 70
     0
 43
0.0
 10
0.6251063402700711
 20
-1.031386445028117
 10
0.6294831105835902
 20
-1.075014104740263
 10
0.6352359346328824
 20
-1.141908900033012
 10
0.6391636052396413
 20
-1.207104612759383
 10
0.6406250000000001
 20
-1.270436436100415
  0
LWPOLYLINE
  5
19E
330
141
100
AcDbEntity
  8
AM_4
100
AcDbPolyline
 90
       10
 70
     0
 43
0.0
 10
0.5811911795687849
 20
-0.2784360189573455
 10
0.5788063257611077
 20
-0.3517856279361364
 10
0.5781315893200576
 20
-0.4253918593346081
 10
0.5792041033252813
 20
-0.4989137910670432
 10
0.5821192303577222
 20
-0.5742798674133016
 10
0.5866620452319316
 20
-0.6492042184728037
 10
0.5925733241997193
 20
-0.723358002113589
 10
0.6031465863238683
 20
-0.8310528342470114
 10
0.6147177058231105
 20
-0.9362542533427609
 10
0.6217739312133888
 20
-1.000065131560276
  0
LINE
  5
19F
330
141
100
AcDbEntity
  8
AM_4
100
AcDbLine
 10
0.6406250000000001
 20
-1.270436436100415
 30
0.0
 11
0.6406250000000002
 21
-1.875
 31
0.0
  0
LINE
  5
1A0
330
141
100
AcDbEntity
  8
AM_4
100
AcDbLine
 10
-0.6406249999999997
 20
-1.875
 30
0.0
 11
-0.6406249999999998
 21
-1.270436436100415
 31
0.0
  0
LWPOLYLINE
  5
1A1
330
141
100
AcDbEntity
  8
AM_4
100
AcDbPolyline
 90
       11
 70
     0
 43
0.0
 10
-0.6217805952720041
 20
-1.000126669056074
 10
-0.6157129930924234
 20
-0.9451129314654402
 10
-0.6078198439292957
 20
-0.8743085919830133
 10
-0.6000916523876886
 20
-0.8017517432112083
 10
-0.5929999404577277
 20
-0.728045035976052
 10
-0.5869509238989531
 20
-0.6534628862336875
 10
-0.5822117447559776
 20
-0.5760307020066846
 10
-0.5792005120358623
 20
-0.4979919111010402
 10
-0.5781030241705537
 20
-0.4197384914680329
 10
-0.5788527796434539
 20
-0.3489906948115442
 10
-0.5811911795687844
 20
-0.2784360189573481
  0
LWPOLYLINE
  5
1A2
330
141
100
AcDbEntity
  8
AM_4
100
AcDbPolyline
 90
        5
 70
     0
 43
0.0
 10
-0.6406249999999998
 20
-1.270436436100415
 10
-0.6392778932884255
 20
-1.20969392640915
 10
-0.6356109302769425
 20
-1.146941928539809
 10
-0.6301856466504109
 20
-1.082477154612741
 10
-0.6250868026953752
 20
-1.031199003735672
  0
LINE
  5
1A3
330
141
100
AcDbEntity
  8
AM_4
100
AcDbLine
 10
-1.095656367723903
 20
-0.2784360189573455
 30
0.0
 11
-0.5811911795687844
 21
-0.2784360189573481
 31
0.0
  0
LINE
  5
1A4
330
141
100
AcDbEntity
  8
AM_4
100
AcDbLine
 10
-0.6249999999999998
 20
-1.0
 30
0.0
 11
0.6250000000000003
 21
-1.0
 31
0.0
  0
LINE
  5
1A5
330
141
100
AcDbEntity
  8
AM_4
100
AcDbLine
 10
0.6250000000000003
 20
-1.0
 30
0.0
 11
0.6250000000000003
 21
-1.875
 31
0.0
  0
LINE
  5
1A6
330
141
100
AcDbEntity
  8
AM_4
100
AcDbLine
 10
-0.6249999999999998
 20
-1.0
 30
0.0
 11
-0.6249999999999998
 21
-1.875
 31
0.0
  0
LINE
  5
1A7
330
141
100
AcDbEntity
  8
AM_4
100
AcDbLine
 10
-1.28125
 20
-2.75
 30
0.0
 11
1.28125
 21
-2.75
 31
0.0
  0
LINE
  5
1A8
330
141
100
AcDbEntity
  8
AM_4
100
AcDbLine
 10
-1.215544871794871
 20
-1.875
 30
0.0
 11
1.215544871794872
 21
-1.875
 31
0.0
  0
LINE
  5
1A9
330
141
100
AcDbEntity
  8
AM_4
100
AcDbLine
 10
-0.8541666666666667
 20
2.937499999999998
 30
0.0
 11
-1.28125
 21
-2.75
 31
0.0
  0
LINE
  5
1AA
330
141
100
AcDbEntity
  8
AM_4
100
AcDbLine
 10
1.28125
 20
-2.75
 30
0.0
 11
0.8541666666666664
 21
2.937499999999998
 31
0.0
  0
ENDBLK
  5
144
330
141
100
AcDbEntity
  8
0
100
AcDbBlockEnd
  0
ENDSEC
  0
SECTION
  2
ENTITIES
  0
INSERT
  5
6F
330
1F
100
AcDbEntity
  8
0
100
AcDbBlockReference
  2
1_048007_2
 10
0.0
 20
0.0
 30
0.0
  0
POINT
  5
1AC
330
1F
100
AcDbEntity
  8
ConnectionPoints
100
AcDbPoint
 10
0.0000000000000001
 20
2.543949623616788
 30
1.46875
  0
POINT
  5
1AD
330
1F
100
AcDbEntity
  8
ConnectionPoints
100
AcDbPoint
 10
0.0000000000000001
 20
2.543949623616788
 30
1.46875
  0
POINT
  5
1AE
330
1F
100
AcDbEntity
  8
ConnectionPoints
100
AcDbPoint
 10
-1.54688
 20
0.0
 30
0.0000000000000001
  0
ENDSEC
  0
SECTION
  2
OBJECTS
  0
DICTIONARY
  5
C
330
0
100
AcDbDictionary
281
     1
  3
ACAD_DETAILVIEWSTYLE
350
1B6
  3
ACAD_GROUP
350
D
  3
ACAD_LAYOUT
350
1A
  3
ACAD_MATERIAL
350
43
  3
ACAD_MLEADERSTYLE
350
6B
  3
ACAD_MLINESTYLE
350
17
  3
ACAD_PLOTSETTINGS
350
19
  3
ACAD_PLOTSTYLENAME
350
E
  3
ACAD_SCALELIST
350
47
  3
ACAD_SECTIONVIEWSTYLE
350
1B7
  3
ACAD_TABLESTYLE
350
69
  3
ACAD_VISUALSTYLE
350
2A
  3
ACDB_RECOMPOSE_DATA
350
1B3
  3
AcDbVariableDictionary
350
1AF
  0
SUN
  5
6D
330
29
100
AcDbSun
 90
        1
290
     0
 63
     7
421
 16777215
 40
1.0
291
     1
 91
  2455826
 92
 54000000
292
     0
 70
     2
 71
   256
280
     1
  0
DICTIONARY
  5
1B6
102
{ACAD_REACTORS
330
C
102
}
330
C
100
AcDbDictionary
281
     1
  0
DICTIONARY
  5
D
102
{ACAD_REACTORS
330
C
102
}
330
C
100
AcDbDictionary
281
     1
  0
DICTIONARY
  5
1A
102
{ACAD_REACTORS
330
C
102
}
330
C
100
AcDbDictionary
281
     1
  3
Layout1
350
1E
  3
Layout2
350
26
  3
Model
350
22
  0
DICTIONARY
  5
43
102
{ACAD_REACTORS
330
C
102
}
330
C
100
AcDbDictionary
281
     1
  3
ByBlock
350
45
  3
ByLayer
350
44
  3
Global
350
46
  0
DICTIONARY
  5
6B
102
{ACAD_REACTORS
330
C
102
}
330
C
100
AcDbDictionary
281
     1
  3
Standard
350
6C
  0
DICTIONARY
  5
17
102
{ACAD_REACTORS
330
C
102
}
330
C
100
AcDbDictionary
281
     1
  3
Standard
350
18
  0
DICTIONARY
  5
19
102
{ACAD_REACTORS
330
C
102
}
330
C
100
AcDbDictionary
281
     1
  0
ACDBDICTIONARYWDFLT
  5
E
102
{ACAD_REACTORS
330
C
102
}
330
C
100
AcDbDictionary
281
     1
  3
Normal
350
F
100
AcDbDictionaryWithDefault
340
F
  0
DICTIONARY
  5
47
102
{ACAD_REACTORS
330
C
102
}
330
C
100
AcDbDictionary
281
     1
  3
A0
350
48
  3
A1
350
49
  3
A2
350
4A
  3
A3
350
4B
  3
A4
350
4C
  3
A5
350
4D
  3
A6
350
4E
  3
A7
350
4F
  3
A8
350
50
  3
A9
350
51
  3
B0
350
52
  3
B1
350
53
  3
B2
350
54
  3
B3
350
55
  3
B4
350
56
  3
B5
350
57
  3
B6
350
58
  3
B7
350
59
  3
B8
350
5A
  3
B9
350
5B
  3
C0
350
5C
  3
C1
350
5D
  3
C2
350
5E
  3
C3
350
5F
  3
C4
350
60
  3
C5
350
61
  3
C6
350
62
  3
C7
350
63
  3
C8
350
64
  3
C9
350
65
  3
D0
350
66
  3
D1
350
67
  3
D2
350
68
  0
DICTIONARY
  5
1B7
102
{ACAD_REACTORS
330
C
102
}
330
C
100
AcDbDictionary
281
     1
  0
DICTIONARY
  5
69
102
{ACAD_REACTORS
330
C
102
}
330
C
100
AcDbDictionary
281
     1
  3
Standard
350
6A
  0
DICTIONARY
  5
2A
102
{ACAD_REACTORS
330
C
102
}
330
C
100
AcDbDictionary
281
     1
  3
2dWireframe
350
2F
  3
Basic
350
32
  3
Brighten
350
36
  3
ColorChange
350
3A
  3
Conceptual
350
34
  3
Dim
350
35
  3
EdgeColorOff
350
3D
  3
Facepattern
350
39
  3
Flat
350
2B
  3
FlatWithEdges
350
2C
  3
Gouraud
350
2D
  3
GouraudWithEdges
350
2E
  3
Hidden
350
31
  3
JitterOff
350
3B
  3
Linepattern
350
38
  3
OverhangOff
350
3C
  3
Realistic
350
33
  3
Shaded
350
42
  3
Shaded with edges
350
41
  3
Shades of Gray
350
3E
  3
Sketchy
350
3F
  3
Thicken
350
37
  3
Wireframe
350
30
  3
X-Ray
350
40
  0
XRECORD
  5
1B3
102
{ACAD_REACTORS
330
C
102
}
330
C
100
AcDbXrecord
280
     1
 90
        1
330
6A
  0
DICTIONARY
  5
1AF
102
{ACAD_REACTORS
330
C
102
}
330
C
100
AcDbDictionary
281
     1
  3
CANNOSCALE
350
1B0
  3
CMLEADERSTYLE
350
1B5
  3
CTABLESTYLE
350
1B4
  0
LAYOUT
  5
1E
102
{ACAD_REACTORS
330
1A
102
}
330
1A
100
AcDbPlotSettings
  1

  2
none_device
  4

  6

 40
0.0
 41
0.0
 42
0.0
 43
0.0
 44
0.0
 45
0.0
 46
0.0
 47
0.0
 48
0.0
 49
0.0
140
0.0
141
0.0
142
1.0
143
1.0
 70
   688
 72
     0
 73
     0
 74
     5
  7

 75
    16
 76
     0
 77
     2
 78
   300
147
1.0
148
0.0
149
0.0
100
AcDbLayout
  1
Layout1
 70
     1
 71
     1
 10
0.0
 20
0.0
 11
12.0
 21
9.0
 12
0.0
 22
0.0
 32
0.0
 14
1.000000000000000E+20
 24
1.000000000000000E+20
 34
1.000000000000000E+20
 15
-1.000000000000000E+20
 25
-1.000000000000000E+20
 35
-1.000000000000000E+20
146
0.0
 13
0.0
 23
0.0
 33
0.0
 16
1.0
 26
0.0
 36
0.0
 17
0.0
 27
1.0
 37
0.0
 76
     0
330
1B
  0
LAYOUT
  5
26
102
{ACAD_REACTORS
330
1A
102
}
330
1A
100
AcDbPlotSettings
  1

  2
none_device
  4

  6

 40
0.0
 41
0.0
 42
0.0
 43
0.0
 44
0.0
 45
0.0
 46
0.0
 47
0.0
 48
0.0
 49
0.0
140
0.0
141
0.0
142
1.0
143
1.0
 70
   688
 72
     0
 73
     0
 74
     5
  7

 75
    16
 76
     0
 77
     2
 78
   300
147
1.0
148
0.0
149
0.0
100
AcDbLayout
  1
Layout2
 70
     1
 71
     2
 10
0.0
 20
0.0
 11
0.0
 21
0.0
 12
0.0
 22
0.0
 32
0.0
 14
0.0
 24
0.0
 34
0.0
 15
0.0
 25
0.0
 35
0.0
146
0.0
 13
0.0
 23
0.0
 33
0.0
 16
1.0
 26
0.0
 36
0.0
 17
0.0
 27
1.0
 37
0.0
 76
     0
330
23
  0
LAYOUT
  5
22
102
{ACAD_REACTORS
330
1A
102
}
330
1A
100
AcDbPlotSettings
  1

  2
none_device
  4
Letter_(8.50_x_11.00_Inches)
  6

 40
6.35
 41
6.35
 42
6.35000508
 43
6.35000508
 44
215.9
 45
279.4
 46
0.0
 47
0.0
 48
0.0
 49
0.0
140
0.0
141
0.0
142
1.0
143
1.0
 70
  1712
 72
     0
 73
     0
 74
     0
  7

 75
     0
 76
     0
 77
     2
 78
   300
147
1.0
148
0.0
149
0.0
100
AcDbLayout
  1
Model
 70
     1
 71
     0
 10
0.0
 20
0.0
 11
12.0
 21
9.0
 12
0.0
 22
0.0
 32
0.0
 14
1.000000000000000E+20
 24
1.000000000000000E+20
 34
1.000000000000000E+20
 15
-1.000000000000000E+20
 25
-1.000000000000000E+20
 35
-1.000000000000000E+20
146
0.0
 13
0.0
 23
0.0
 33
0.0
 16
1.0
 26
0.0
 36
0.0
 17
0.0
 27
1.0
 37
0.0
 76
     0
330
1F
331
29
  0
MATERIAL
  5
45
102
{ACAD_REACTORS
330
43
102
}
330
43
100
AcDbMaterial
  1
ByBlock
 72
     1
 94
      127
  0
MATERIAL
  5
44
102
{ACAD_REACTORS
330
43
102
}
330
43
100
AcDbMaterial
  1
ByLayer
 72
     1
 94
      127
  0
MATERIAL
  5
46
102
{ACAD_REACTORS
330
43
102
}
330
43
100
AcDbMaterial
  1
Global
 72
     1
 94
      127
  0
MLEADERSTYLE
  5
6C
102
{ACAD_REACTORS
330
6B
102
}
330
6B
100
AcDbMLeaderStyle
179
     2
170
     2
171
     1
172
     0
 90
        2
 40
0.0
 41
0.0
173
     1
 91
-1056964608
340
14
 92
       -2
290
     1
 42
0.09
291
     1
 43
0.36
  3
Standard
341
0
 44
0.18
300

342
11
174
     1
178
     6
175
     1
176
     0
 93
-1056964608
 45
0.18
292
     0
297
     0
 46
0.18
343
0
 94
-1056964608
 47
1.0
 49
1.0
140
1.0
293
     1
141
0.0
294
     1
177
     0
142
1.0
295
     0
296
     0
143
0.125
271
     0
272
     9
273
     9
298
     0
  0
MLINESTYLE
  5
18
102
{ACAD_REACTORS
330
17
102
}
330
17
100
AcDbMlineStyle
  2
Standard
 70
     0
  3

 62
   256
 51
90.0
 52
90.0
 71
     2
 49
0.5
 62
   256
  6
BYLAYER
 49
-0.5
 62
   256
  6
BYLAYER
  0
ACDBPLACEHOLDER
  5
F
102
{ACAD_REACTORS
330
E
102
}
330
E
  0
SCALE
  5
48
102
{ACAD_REACTORS
330
47
102
}
330
47
100
AcDbScale
 70
     0
300
1:1
140
1.0
141
1.0
290
     1
  0
SCALE
  5
49
102
{ACAD_REACTORS
330
47
102
}
330
47
100
AcDbScale
 70
     0
300
1:2
140
1.0
141
2.0
290
     0
  0
SCALE
  5
4A
102
{ACAD_REACTORS
330
47
102
}
330
47
100
AcDbScale
 70
     0
300
1:4
140
1.0
141
4.0
290
     0
  0
SCALE
  5
4B
102
{ACAD_REACTORS
330
47
102
}
330
47
100
AcDbScale
 70
     0
300
1:5
140
1.0
141
5.0
290
     0
  0
SCALE
  5
4C
102
{ACAD_REACTORS
330
47
102
}
330
47
100
AcDbScale
 70
     0
300
1:8
140
1.0
141
8.0
290
     0
  0
SCALE
  5
4D
102
{ACAD_REACTORS
330
47
102
}
330
47
100
AcDbScale
 70
     0
300
1:10
140
1.0
141
10.0
290
     0
  0
SCALE
  5
4E
102
{ACAD_REACTORS
330
47
102
}
330
47
100
AcDbScale
 70
     0
300
1:16
140
1.0
141
16.0
290
     0
  0
SCALE
  5
4F
102
{ACAD_REACTORS
330
47
102
}
330
47
100
AcDbScale
 70
     0
300
1:20
140
1.0
141
20.0
290
     0
  0
SCALE
  5
50
102
{ACAD_REACTORS
330
47
102
}
330
47
100
AcDbScale
 70
     0
300
1:30
140
1.0
141
30.0
290
     0
  0
SCALE
  5
51
102
{ACAD_REACTORS
330
47
102
}
330
47
100
AcDbScale
 70
     0
300
1:40
140
1.0
141
40.0
290
     0
  0
SCALE
  5
52
102
{ACAD_REACTORS
330
47
102
}
330
47
100
AcDbScale
 70
     0
300
1:50
140
1.0
141
50.0
290
     0
  0
SCALE
  5
53
102
{ACAD_REACTORS
330
47
102
}
330
47
100
AcDbScale
 70
     0
300
1:100
140
1.0
141
100.0
290
     0
  0
SCALE
  5
54
102
{ACAD_REACTORS
330
47
102
}
330
47
100
AcDbScale
 70
     0
300
2:1
140
2.0
141
1.0
290
     0
  0
SCALE
  5
55
102
{ACAD_REACTORS
330
47
102
}
330
47
100
AcDbScale
 70
     0
300
4:1
140
4.0
141
1.0
290
     0
  0
SCALE
  5
56
102
{ACAD_REACTORS
330
47
102
}
330
47
100
AcDbScale
 70
     0
300
8:1
140
8.0
141
1.0
290
     0
  0
SCALE
  5
57
102
{ACAD_REACTORS
330
47
102
}
330
47
100
AcDbScale
 70
     0
300
10:1
140
10.0
141
1.0
290
     0
  0
SCALE
  5
58
102
{ACAD_REACTORS
330
47
102
}
330
47
100
AcDbScale
 70
     0
300
100:1
140
100.0
141
1.0
290
     0
  0
SCALE
  5
59
102
{ACAD_REACTORS
330
47
102
}
330
47
100
AcDbScale
 70
     0
300
1/128" = 1'-0"
140
0.0078125
141
12.0
290
     0
  0
SCALE
  5
5A
102
{ACAD_REACTORS
330
47
102
}
330
47
100
AcDbScale
 70
     0
300
1/64" = 1'-0"
140
0.015625
141
12.0
290
     0
  0
SCALE
  5
5B
102
{ACAD_REACTORS
330
47
102
}
330
47
100
AcDbScale
 70
     0
300
1/32" = 1'-0"
140
0.03125
141
12.0
290
     0
  0
SCALE
  5
5C
102
{ACAD_REACTORS
330
47
102
}
330
47
100
AcDbScale
 70
     0
300
1/16" = 1'-0"
140
0.0625
141
12.0
290
     0
  0
SCALE
  5
5D
102
{ACAD_REACTORS
330
47
102
}
330
47
100
AcDbScale
 70
     0
300
3/32" = 1'-0"
140
0.09375
141
12.0
290
     0
  0
SCALE
  5
5E
102
{ACAD_REACTORS
330
47
102
}
330
47
100
AcDbScale
 70
     0
300
1/8" = 1'-0"
140
0.125
141
12.0
290
     0
  0
SCALE
  5
5F
102
{ACAD_REACTORS
330
47
102
}
330
47
100
AcDbScale
 70
     0
300
3/16" = 1'-0"
140
0.1875
141
12.0
290
     0
  0
SCALE
  5
60
102
{ACAD_REACTORS
330
47
102
}
330
47
100
AcDbScale
 70
     0
300
1/4" = 1'-0"
140
0.25
141
12.0
290
     0
  0
SCALE
  5
61
102
{ACAD_REACTORS
330
47
102
}
330
47
100
AcDbScale
 70
     0
300
3/8" = 1'-0"
140
0.375
141
12.0
290
     0
  0
SCALE
  5
62
102
{ACAD_REACTORS
330
47
102
}
330
47
100
AcDbScale
 70
     0
300
1/2" = 1'-0"
140
0.5
141
12.0
290
     0
  0
SCALE
  5
63
102
{ACAD_REACTORS
330
47
102
}
330
47
100
AcDbScale
 70
     0
300
3/4" = 1'-0"
140
0.75
141
12.0
290
     0
  0
SCALE
  5
64
102
{ACAD_REACTORS
330
47
102
}
330
47
100
AcDbScale
 70
     0
300
1" = 1'-0"
140
1.0
141
12.0
290
     0
  0
SCALE
  5
65
102
{ACAD_REACTORS
330
47
102
}
330
47
100
AcDbScale
 70
     0
300
1-1/2" = 1'-0"
140
1.5
141
12.0
290
     0
  0
SCALE
  5
66
102
{ACAD_REACTORS
330
47
102
}
330
47
100
AcDbScale
 70
     0
300
3" = 1'-0"
140
3.0
141
12.0
290
     0
  0
SCALE
  5
67
102
{ACAD_REACTORS
330
47
102
}
330
47
100
AcDbScale
 70
     0
300
6" = 1'-0"
140
6.0
141
12.0
290
     0
  0
SCALE
  5
68
102
{ACAD_REACTORS
330
47
102
}
330
47
100
AcDbScale
 70
     0
300
1'-0" = 1'-0"
140
12.0
141
12.0
290
     0
  0
TABLESTYLE
  5
6A
102
{ACAD_REACTORS
330
69
102
}
102
{ACAD_XDICTIONARY
360
1B1
102
}
330
69
100
AcDbTableStyle
  3
Standard
 70
     0
 71
     0
 40
0.06
 41
0.06
280
     0
281
     0
  7
Standard
140
0.18
170
     2
 62
     0
 63
   257
283
     0
 90
        4
 91
        0
  1

274
    -2
284
     1
 64
     0
275
    -2
285
     1
 65
     0
276
    -2
286
     1
 66
     0
277
    -2
287
     1
 67
     0
278
    -2
288
     1
 68
     0
279
    -2
289
     1
 69
     0
  7
Standard
140
0.25
170
     5
 62
     0
 63
   257
283
     0
 90
        4
 91
        0
  1

274
    -2
284
     1
 64
     0
275
    -2
285
     1
 65
     0
276
    -2
286
     1
 66
     0
277
    -2
287
     1
 67
     0
278
    -2
288
     1
 68
     0
279
    -2
289
     1
 69
     0
  7
Standard
140
0.18
170
     5
 62
     0
 63
   257
283
     0
 90
        4
 91
        0
  1

274
    -2
284
     1
 64
     0
275
    -2
285
     1
 65
     0
276
    -2
286
     1
 66
     0
277
    -2
287
     1
 67
     0
278
    -2
288
     1
 68
     0
279
    -2
289
     1
 69
     0
  0
VISUALSTYLE
  5
2F
102
{ACAD_REACTORS
330
2A
102
}
330
2A
100
AcDbVisualStyle
  2
2dWireframe
 70
     4
177
     3
291
     0
 70
    58
 90
        0
176
     1
 90
        2
176
     1
 90
        0
176
     1
 90
        0
176
     1
 40
0.6
176
     1
 40
30.0
176
     1
 62
     7
420
 16777215
176
     1
 90
        1
176
     1
 90
        4
176
     1
 62
     7
176
     1
 62
   257
176
     1
 90
        1
176
     1
 90
        1
176
     1
 40
1.0
176
     1
 90
        0
176
     1
 62
   257
176
     1
 40
1.0
176
     1
 90
        1
176
     1
 90
        6
176
     1
 90
        2
176
     1
 62
     7
176
     1
 90
        5
176
     1
 90
        0
176
     1
 90
        0
176
     1
290
     0
176
     1
 90
        1
176
     1
 40
0.0
176
     1
 90
        0
176
     1
290
     1
176
     1
290
     1
176
     1
290
     0
176
     1
290
     0
176
     1
290
     0
176
     1
290
     0
176
     1
290
     0
176
     1
290
     0
176
     1
290
     0
176
     1
 90
       50
176
     1
 40
0.0
176
     1
 40
1.0
176
     1
 90
        0
176
     1
 62
    18
420
        0
176
     1
 90
       50
176
     1
 90
        3
176
     1
 62
     5
420
      255
176
     1
290
     0
176
     1
 90
       50
176
     1
 90
       50
176
     1
 90
       50
176
     1
290
     0
176
     1
 90
       50
176
     1
 62
   256
176
     0
 40
1.0
176
     0
 90
        2
176
     1
  1
strokes_ogs.tif
176
     1
290
     0
176
     1
 40
1.0
176
     1
 40
1.0
176
     1
  0
VISUALSTYLE
  5
32
102
{ACAD_REACTORS
330
2A
102
}
330
2A
100
AcDbVisualStyle
  2
Basic
 70
     7
177
     3
291
     1
 70
    58
 90
        1
176
     1
 90
        0
176
     1
 90
        1
176
     1
 90
        0
176
     1
 40
0.6
176
     1
 40
30.0
176
     1
 62
     7
420
 16777215
176
     1
 90
        0
176
     1
 90
        4
176
     1
 62
     7
176
     1
 62
   257
176
     1
 90
        1
176
     1
 90
        1
176
     1
 40
1.0
176
     1
 90
        8
176
     1
 62
     7
176
     1
 40
1.0
176
     1
 90
        1
176
     1
 90
        6
176
     1
 90
        2
176
     1
 62
     7
176
     1
 90
        5
176
     1
 90
        0
176
     1
 90
        0
176
     1
290
     0
176
     1
 90
        1
176
     1
 40
0.0
176
     1
 90
        0
176
     1
290
     0
176
     1
290
     1
176
     1
290
     1
176
     1
290
     0
176
     1
290
     0
176
     1
290
     0
176
     1
290
     0
176
     1
290
     0
176
     1
290
     0
176
     1
 90
       50
176
     1
 40
0.0
176
     1
 40
1.0
176
     1
 90
        0
176
     1
 62
    18
420
        0
176
     1
 90
       50
176
     1
 90
        3
176
     1
 62
     5
420
      255
176
     1
290
     0
176
     1
 90
       50
176
     1
 90
       50
176
     1
 90
       50
176
     1
290
     0
176
     1
 90
       50
176
     1
 62
   256
176
     0
 40
1.0
176
     0
 90
        2
176
     1
  1
strokes_ogs.tif
176
     1
290
     0
176
     1
 40
1.0
176
     1
 40
1.0
176
     1
  0
VISUALSTYLE
  5
36
102
{ACAD_REACTORS
330
2A
102
}
330
2A
100
AcDbVisualStyle
  2
Brighten
 70
    12
177
     3
291
     1
 70
    58
 90
        2
176
     1
 90
        2
176
     1
 90
        0
176
     1
 90
        0
176
     1
 40
0.6
176
     1
 40
30.0
176
     1
 62
     7
420
 16777215
176
     1
 90
        1
176
     1
 90
        4
176
     1
 62
     7
176
     1
 62
   257
176
     1
 90
        1
176
     1
 90
        1
176
     1
 40
1.0
176
     1
 90
        8
176
     1
 62
     7
176
     1
 40
1.0
176
     1
 90
        1
176
     1
 90
        6
176
     1
 90
        2
176
     1
 62
     7
176
     1
 90
        5
176
     1
 90
        0
176
     1
 90
        0
176
     1
290
     0
176
     1
 90
        1
176
     1
 40
50.0
176
     1
 90
        0
176
     1
290
     0
176
     1
290
     1
176
     1
290
     1
176
     1
290
     0
176
     1
290
     0
176
     1
290
     0
176
     1
290
     0
176
     1
290
     0
176
     1
290
     0
176
     1
 90
       50
176
     1
 40
0.0
176
     1
 40
1.0
176
     1
 90
        0
176
     1
 62
    18
420
        0
176
     1
 90
       50
176
     1
 90
        3
176
     1
 62
     5
420
      255
176
     1
290
     0
176
     1
 90
       50
176
     1
 90
       50
176
     1
 90
       50
176
     1
290
     0
176
     1
 90
       50
176
     1
 62
   256
176
     0
 40
1.0
176
     0
 90
        2
176
     1
  1
strokes_ogs.tif
176
     1
290
     0
176
     1
 40
1.0
176
     1
 40
1.0
176
     1
  0
VISUALSTYLE
  5
3A
102
{ACAD_REACTORS
330
2A
102
}
330
2A
100
AcDbVisualStyle
  2
ColorChange
 70
    16
177
     3
291
     1
 70
    58
 90
        2
176
     1
 90
        2
176
     1
 90
        3
176
     1
 90
        0
176
     1
 40
0.6
176
     1
 40
30.0
176
     1
 62
     8
420
  8421504
176
     1
 90
        1
176
     1
 90
        4
176
     1
 62
     7
176
     1
 62
   257
176
     1
 90
        1
176
     1
 90
        1
176
     1
 40
1.0
176
     1
 90
        8
176
     1
 62
     8
420
  8421504
176
     1
 40
1.0
176
     1
 90
        1
176
     1
 90
        6
176
     1
 90
        2
176
     1
 62
     7
176
     1
 90
        5
176
     1
 90
        0
176
     1
 90
        0
176
     1
290
     0
176
     1
 90
        1
176
     1
 40
0.0
176
     1
 90
        0
176
     1
290
     0
176
     1
290
     1
176
     1
290
     1
176
     1
290
     0
176
     1
290
     0
176
     1
290
     0
176
     1
290
     0
176
     1
290
     0
176
     1
290
     0
176
     1
 90
       50
176
     1
 40
0.0
176
     1
 40
1.0
176
     1
 90
        0
176
     1
 62
    18
420
        0
176
     1
 90
       50
176
     1
 90
        3
176
     1
 62
     5
420
      255
176
     1
290
     0
176
     1
 90
       50
176
     1
 90
       50
176
     1
 90
       50
176
     1
290
     0
176
     1
 90
       50
176
     1
 62
   256
176
     0
 40
1.0
176
     0
 90
        2
176
     1
  1
strokes_ogs.tif
176
     1
290
     0
176
     1
 40
1.0
176
     1
 40
1.0
176
     1
  0
VISUALSTYLE
  5
34
102
{ACAD_REACTORS
330
2A
102
}
330
2A
100
AcDbVisualStyle
  2
Conceptual
 70
     9
177
     3
291
     0
 70
    58
 90
        3
176
     1
 90
        2
176
     1
 90
        0
176
     1
 90
        0
176
     1
 40
0.6
176
     1
 40
30.0
176
     1
 62
     7
420
 16777215
176
     1
 90
        2
176
     1
 90
        2
176
     1
 62
     7
176
     1
 62
   257
176
     1
 90
        1
176
     1
 90
        1
176
     1
 40
179.0
176
     1
 90
        8
176
     1
 62
     7
176
     1
 40
1.0
176
     1
 90
        1
176
     1
 90
        6
176
     1
 90
        2
176
     1
 62
     7
176
     1
 90
        3
176
     1
 90
        0
176
     1
 90
        0
176
     1
290
     0
176
     1
 90
        1
176
     1
 40
0.0
176
     1
 90
        0
176
     1
290
     0
176
     1
290
     1
176
     1
290
     1
176
     1
290
     0
176
     1
290
     0
176
     1
290
     0
176
     1
290
     0
176
     1
290
     0
176
     1
290
     0
176
     1
 90
       50
176
     1
 40
0.0
176
     1
 40
1.0
176
     1
 90
        0
176
     1
 62
    18
420
        0
176
     1
 90
       50
176
     1
 90
        3
176
     1
 62
     5
420
      255
176
     1
290
     0
176
     1
 90
       50
176
     1
 90
       50
176
     1
 90
       50
176
     1
290
     0
176
     1
 90
       50
176
     1
 62
   256
176
     0
 40
1.0
176
     0
 90
        2
176
     1
  1
strokes_ogs.tif
176
     1
290
     0
176
     1
 40
1.0
176
     1
 40
1.0
176
     1
  0
VISUALSTYLE
  5
35
102
{ACAD_REACTORS
330
2A
102
}
330
2A
100
AcDbVisualStyle
  2
Dim
 70
    11
177
     3
291
     1
 70
    58
 90
        2
176
     1
 90
        2
176
     1
 90
        0
176
     1
 90
        0
176
     1
 40
0.6
176
     1
 40
30.0
176
     1
 62
     7
420
 16777215
176
     1
 90
        1
176
     1
 90
        4
176
     1
 62
     7
176
     1
 62
   257
176
     1
 90
        1
176
     1
 90
        1
176
     1
 40
1.0
176
     1
 90
        8
176
     1
 62
     7
176
     1
 40
1.0
176
     1
 90
        1
176
     1
 90
        6
176
     1
 90
        2
176
     1
 62
     7
176
     1
 90
        5
176
     1
 90
        0
176
     1
 90
        0
176
     1
290
     0
176
     1
 90
        1
176
     1
 40
-50.0
176
     1
 90
        0
176
     1
290
     0
176
     1
290
     1
176
     1
290
     1
176
     1
290
     0
176
     1
290
     0
176
     1
290
     0
176
     1
290
     0
176
     1
290
     0
176
     1
290
     0
176
     1
 90
       50
176
     1
 40
0.0
176
     1
 40
1.0
176
     1
 90
        0
176
     1
 62
    18
420
        0
176
     1
 90
       50
176
     1
 90
        3
176
     1
 62
     5
420
      255
176
     1
290
     0
176
     1
 90
       50
176
     1
 90
       50
176
     1
 90
       50
176
     1
290
     0
176
     1
 90
       50
176
     1
 62
   256
176
     0
 40
1.0
176
     0
 90
        2
176
     1
  1
strokes_ogs.tif
176
     1
290
     0
176
     1
 40
1.0
176
     1
 40
1.0
176
     1
  0
VISUALSTYLE
  5
3D
102
{ACAD_REACTORS
330
2A
102
}
330
2A
100
AcDbVisualStyle
  2
EdgeColorOff
 70
    22
177
     3
291
     1
 70
    58
 90
        2
176
     0
 90
        2
176
     0
 90
        0
176
     0
 90
        0
176
     0
 40
0.6
176
     0
 40
30.0
176
     0
 62
     7
420
 16777215
176
     0
 90
        1
176
     0
 90
        4
176
     0
 62
     7
176
     0
 62
   257
176
     0
 90
        1
176
     0
 90
        1
176
     0
 40
1.0
176
     0
 90
        8
176
     2
 62
     7
176
     0
 40
1.0
176
     0
 90
        1
176
     0
 90
        6
176
     0
 90
        2
176
     0
 62
     7
176
     0
 90
        5
176
     0
 90
        0
176
     0
 90
        0
176
     0
290
     0
176
     0
 90
        1
176
     0
 40
0.0
176
     0
 90
        0
176
     0
290
     0
176
     0
290
     1
176
     0
290
     1
176
     0
290
     0
176
     0
290
     0
176
     0
290
     0
176
     0
290
     0
176
     0
290
     0
176
     0
290
     0
176
     0
 90
       50
176
     0
 40
0.0
176
     0
 40
1.0
176
     0
 90
        0
176
     0
 62
    18
420
        0
176
     0
 90
       50
176
     0
 90
        3
176
     0
 62
     5
420
      255
176
     0
290
     0
176
     0
 90
       50
176
     0
 90
       50
176
     0
 90
       50
176
     0
290
     0
176
     0
 90
       50
176
     0
 62
   256
176
     0
 40
1.0
176
     0
 90
        2
176
     0
  1
strokes_ogs.tif
176
     0
290
     0
176
     0
 40
1.0
176
     0
 40
1.0
176
     0
  0
VISUALSTYLE
  5
39
102
{ACAD_REACTORS
330
2A
102
}
330
2A
100
AcDbVisualStyle
  2
Facepattern
 70
    15
177
     3
291
     1
 70
    58
 90
        2
176
     1
 90
        2
176
     1
 90
        0
176
     1
 90
        0
176
     1
 40
0.6
176
     1
 40
30.0
176
     1
 62
     7
420
 16777215
176
     1
 90
        1
176
     1
 90
        4
176
     1
 62
     7
176
     1
 62
   257
176
     1
 90
        1
176
     1
 90
        1
176
     1
 40
1.0
176
     1
 90
        8
176
     1
 62
     7
176
     1
 40
1.0
176
     1
 90
        1
176
     1
 90
        6
176
     1
 90
        2
176
     1
 62
     7
176
     1
 90
        5
176
     1
 90
        0
176
     1
 90
        0
176
     1
290
     0
176
     1
 90
        1
176
     1
 40
0.0
176
     1
 90
        0
176
     1
290
     0
176
     1
290
     1
176
     1
290
     1
176
     1
290
     0
176
     1
290
     0
176
     1
290
     0
176
     1
290
     0
176
     1
290
     0
176
     1
290
     0
176
     1
 90
       50
176
     1
 40
0.0
176
     1
 40
1.0
176
     1
 90
        0
176
     1
 62
    18
420
        0
176
     1
 90
       50
176
     1
 90
        3
176
     1
 62
     5
420
      255
176
     1
290
     0
176
     1
 90
       50
176
     1
 90
       50
176
     1
 90
       50
176
     1
290
     0
176
     1
 90
       50
176
     1
 62
   256
176
     0
 40
1.0
176
     0
 90
        2
176
     1
  1
strokes_ogs.tif
176
     1
290
     0
176
     1
 40
1.0
176
     1
 40
1.0
176
     1
  0
VISUALSTYLE
  5
2B
102
{ACAD_REACTORS
330
2A
102
}
330
2A
100
AcDbVisualStyle
  2
Flat
 70
     0
177
     3
291
     1
 70
    58
 90
        2
176
     1
 90
        1
176
     1
 90
        1
176
     1
 90
        2
176
     1
 40
0.6
176
     1
 40
30.0
176
     1
 62
     7
420
 16777215
176
     1
 90
        0
176
     1
 90
        0
176
     1
 62
     7
176
     1
 62
   257
176
     1
 90
        1
176
     1
 90
        1
176
     1
 40
1.0
176
     1
 90
        8
176
     1
 62
     7
176
     1
 40
1.0
176
     1
 90
        1
176
     1
 90
        6
176
     1
 90
        2
176
     1
 62
     7
176
     1
 90
        5
176
     1
 90
        0
176
     1
 90
        0
176
     1
290
     0
176
     1
 90
       13
176
     1
 40
0.0
176
     1
 90
        0
176
     1
290
     0
176
     1
290
     1
176
     1
290
     1
176
     1
290
     0
176
     1
290
     0
176
     1
290
     0
176
     1
290
     0
176
     1
290
     0
176
     1
290
     0
176
     1
 90
       50
176
     1
 40
0.0
176
     1
 40
1.0
176
     1
 90
        0
176
     1
 62
    18
420
        0
176
     1
 90
       50
176
     1
 90
        3
176
     1
 62
     5
420
      255
176
     1
290
     0
176
     1
 90
       50
176
     1
 90
       50
176
     1
 90
       50
176
     1
290
     0
176
     1
 90
       50
176
     1
 62
   256
176
     0
 40
1.0
176
     0
 90
        2
176
     1
  1
strokes_ogs.tif
176
     1
290
     0
176
     1
 40
1.0
176
     1
 40
1.0
176
     1
  0
VISUALSTYLE
  5
2C
102
{ACAD_REACTORS
330
2A
102
}
330
2A
100
AcDbVisualStyle
  2
FlatWithEdges
 70
     1
177
     3
291
     1
 70
    58
 90
        2
176
     1
 90
        1
176
     1
 90
        1
176
     1
 90
        2
176
     1
 40
0.6
176
     1
 40
30.0
176
     1
 62
     7
420
 16777215
176
     1
 90
        1
176
     1
 90
        0
176
     1
 62
     7
176
     1
 62
   257
176
     1
 90
        1
176
     1
 90
        1
176
     1
 40
1.0
176
     1
 90
        0
176
     1
 62
   257
176
     1
 40
1.0
176
     1
 90
        1
176
     1
 90
        6
176
     1
 90
        2
176
     1
 62
     7
176
     1
 90
        5
176
     1
 90
        0
176
     1
 90
        0
176
     1
290
     0
176
     1
 90
       13
176
     1
 40
0.0
176
     1
 90
        0
176
     1
290
     0
176
     1
290
     1
176
     1
290
     1
176
     1
290
     0
176
     1
290
     0
176
     1
290
     0
176
     1
290
     0
176
     1
290
     0
176
     1
290
     0
176
     1
 90
       50
176
     1
 40
0.0
176
     1
 40
1.0
176
     1
 90
        0
176
     1
 62
    18
420
        0
176
     1
 90
       50
176
     1
 90
        3
176
     1
 62
     5
420
      255
176
     1
290
     0
176
     1
 90
       50
176
     1
 90
       50
176
     1
 90
       50
176
     1
290
     0
176
     1
 90
       50
176
     1
 62
   256
176
     0
 40
1.0
176
     0
 90
        2
176
     1
  1
strokes_ogs.tif
176
     1
290
     0
176
     1
 40
1.0
176
     1
 40
1.0
176
     1
  0
VISUALSTYLE
  5
2D
102
{ACAD_REACTORS
330
2A
102
}
330
2A
100
AcDbVisualStyle
  2
Gouraud
 70
     2
177
     3
291
     1
 70
    58
 90
        2
176
     1
 90
        2
176
     1
 90
        1
176
     1
 90
        2
176
     1
 40
0.6
176
     1
 40
30.0
176
     1
 62
     7
420
 16777215
176
     1
 90
        0
176
     1
 90
        0
176
     1
 62
     7
176
     1
 62
   257
176
     1
 90
        1
176
     1
 90
        1
176
     1
 40
1.0
176
     1
 90
        0
176
     1
 62
     7
176
     1
 40
1.0
176
     1
 90
        1
176
     1
 90
        6
176
     1
 90
        2
176
     1
 62
     7
176
     1
 90
        5
176
     1
 90
        0
176
     1
 90
        0
176
     1
290
     0
176
     1
 90
       13
176
     1
 40
0.0
176
     1
 90
        0
176
     1
290
     0
176
     1
290
     1
176
     1
290
     1
176
     1
290
     0
176
     1
290
     0
176
     1
290
     0
176
     1
290
     0
176
     1
290
     0
176
     1
290
     0
176
     1
 90
       50
176
     1
 40
0.0
176
     1
 40
1.0
176
     1
 90
        0
176
     1
 62
    18
420
        0
176
     1
 90
       50
176
     1
 90
        3
176
     1
 62
     5
420
      255
176
     1
290
     0
176
     1
 90
       50
176
     1
 90
       50
176
     1
 90
       50
176
     1
290
     0
176
     1
 90
       50
176
     1
 62
   256
176
     0
 40
1.0
176
     0
 90
        2
176
     1
  1
strokes_ogs.tif
176
     1
290
     0
176
     1
 40
1.0
176
     1
 40
1.0
176
     1
  0
VISUALSTYLE
  5
2E
102
{ACAD_REACTORS
330
2A
102
}
330
2A
100
AcDbVisualStyle
  2
GouraudWithEdges
 70
     3
177
     3
291
     1
 70
    58
 90
        2
176
     1
 90
        2
176
     1
 90
        1
176
     1
 90
        2
176
     1
 40
0.6
176
     1
 40
30.0
176
     1
 62
     7
420
 16777215
176
     1
 90
        1
176
     1
 90
        0
176
     1
 62
     7
176
     1
 62
   257
176
     1
 90
        1
176
     1
 90
        1
176
     1
 40
1.0
176
     1
 90
        0
176
     1
 62
   257
176
     1
 40
1.0
176
     1
 90
        1
176
     1
 90
        6
176
     1
 90
        2
176
     1
 62
     7
176
     1
 90
        5
176
     1
 90
        0
176
     1
 90
        0
176
     1
290
     0
176
     1
 90
       13
176
     1
 40
0.0
176
     1
 90
        0
176
     1
290
     0
176
     1
290
     1
176
     1
290
     1
176
     1
290
     0
176
     1
290
     0
176
     1
290
     0
176
     1
290
     0
176
     1
290
     0
176
     1
290
     0
176
     1
 90
       50
176
     1
 40
0.0
176
     1
 40
1.0
176
     1
 90
        0
176
     1
 62
    18
420
        0
176
     1
 90
       50
176
     1
 90
        3
176
     1
 62
     5
420
      255
176
     1
290
     0
176
     1
 90
       50
176
     1
 90
       50
176
     1
 90
       50
176
     1
290
     0
176
     1
 90
       50
176
     1
 62
   256
176
     0
 40
1.0
176
     0
 90
        2
176
     1
  1
strokes_ogs.tif
176
     1
290
     0
176
     1
 40
1.0
176
     1
 40
1.0
176
     1
  0
VISUALSTYLE
  5
31
102
{ACAD_REACTORS
330
2A
102
}
330
2A
100
AcDbVisualStyle
  2
Hidden
 70
     6
177
     3
291
     0
 70
    58
 90
        1
176
     1
 90
        2
176
     1
 90
        2
176
     1
 90
        0
176
     1
 40
0.6
176
     1
 40
30.0
176
     1
 62
     7
420
 16777215
176
     1
 90
        2
176
     1
 90
        2
176
     1
 62
     7
176
     1
 62
   257
176
     1
 90
        2
176
     1
 90
        1
176
     1
 40
40.0
176
     1
 90
        0
176
     1
 62
   257
176
     1
 40
1.0
176
     1
 90
        1
176
     1
 90
        6
176
     1
 90
        2
176
     1
 62
     7
176
     1
 90
        3
176
     1
 90
        0
176
     1
 90
        0
176
     1
290
     0
176
     1
 90
        1
176
     1
 40
0.0
176
     1
 90
        0
176
     1
290
     0
176
     1
290
     1
176
     1
290
     1
176
     1
290
     0
176
     1
290
     0
176
     1
290
     0
176
     1
290
     0
176
     1
290
     0
176
     1
290
     0
176
     1
 90
       50
176
     1
 40
0.0
176
     1
 40
1.0
176
     1
 90
        0
176
     1
 62
    18
420
        0
176
     1
 90
       50
176
     1
 90
        3
176
     1
 62
     5
420
      255
176
     1
290
     0
176
     1
 90
       50
176
     1
 90
       50
176
     1
 90
       50
176
     1
290
     0
176
     1
 90
       50
176
     1
 62
   256
176
     0
 40
1.0
176
     0
 90
        2
176
     1
  1
strokes_ogs.tif
176
     1
290
     0
176
     1
 40
1.0
176
     1
 40
1.0
176
     1
  0
VISUALSTYLE
  5
3B
102
{ACAD_REACTORS
330
2A
102
}
330
2A
100
AcDbVisualStyle
  2
JitterOff
 70
    20
177
     3
291
     1
 70
    58
 90
        2
176
     0
 90
        2
176
     0
 90
        0
176
     0
 90
        0
176
     0
 40
0.6
176
     0
 40
30.0
176
     0
 62
     7
420
 16777215
176
     0
 90
        1
176
     0
 90
        4
176
     0
 62
     7
176
     0
 62
   257
176
     0
 90
        1
176
     0
 90
        1
176
     0
 40
1.0
176
     0
 90
       10
176
     2
 62
     7
176
     0
 40
1.0
176
     0
 90
        1
176
     0
 90
        6
176
     0
 90
        2
176
     0
 62
     7
176
     0
 90
        5
176
     0
 90
        0
176
     0
 90
        0
176
     0
290
     0
176
     0
 90
        1
176
     0
 40
0.0
176
     0
 90
        0
176
     0
290
     0
176
     0
290
     1
176
     0
290
     1
176
     0
290
     0
176
     0
290
     0
176
     0
290
     0
176
     0
290
     0
176
     0
290
     0
176
     0
290
     0
176
     0
 90
       50
176
     0
 40
0.0
176
     0
 40
1.0
176
     0
 90
        0
176
     0
 62
    18
420
        0
176
     0
 90
       50
176
     0
 90
        3
176
     0
 62
     5
420
      255
176
     0
290
     0
176
     0
 90
       50
176
     0
 90
       50
176
     0
 90
       50
176
     0
290
     0
176
     0
 90
       50
176
     0
 62
   256
176
     0
 40
1.0
176
     0
 90
        2
176
     0
  1
strokes_ogs.tif
176
     0
290
     0
176
     0
 40
1.0
176
     0
 40
1.0
176
     0
  0
VISUALSTYLE
  5
38
102
{ACAD_REACTORS
330
2A
102
}
330
2A
100
AcDbVisualStyle
  2
Linepattern
 70
    14
177
     3
291
     1
 70
    58
 90
        2
176
     1
 90
        2
176
     1
 90
        0
176
     1
 90
        0
176
     1
 40
0.6
176
     1
 40
30.0
176
     1
 62
     7
420
 16777215
176
     1
 90
        1
176
     1
 90
        4
176
     1
 62
     7
176
     1
 62
   257
176
     1
 90
        7
176
     1
 90
        7
176
     1
 40
1.0
176
     1
 90
        8
176
     1
 62
     7
176
     1
 40
1.0
176
     1
 90
        1
176
     1
 90
        6
176
     1
 90
        2
176
     1
 62
     7
176
     1
 90
        5
176
     1
 90
        0
176
     1
 90
        0
176
     1
290
     0
176
     1
 90
        1
176
     1
 40
0.0
176
     1
 90
        0
176
     1
290
     0
176
     1
290
     1
176
     1
290
     1
176
     1
290
     0
176
     1
290
     0
176
     1
290
     0
176
     1
290
     0
176
     1
290
     0
176
     1
290
     0
176
     1
 90
       50
176
     1
 40
0.0
176
     1
 40
1.0
176
     1
 90
        0
176
     1
 62
    18
420
        0
176
     1
 90
       50
176
     1
 90
        3
176
     1
 62
     5
420
      255
176
     1
290
     0
176
     1
 90
       50
176
     1
 90
       50
176
     1
 90
       50
176
     1
290
     0
176
     1
 90
       50
176
     1
 62
   256
176
     0
 40
1.0
176
     0
 90
        2
176
     1
  1
strokes_ogs.tif
176
     1
290
     0
176
     1
 40
1.0
176
     1
 40
1.0
176
     1
  0
VISUALSTYLE
  5
3C
102
{ACAD_REACTORS
330
2A
102
}
330
2A
100
AcDbVisualStyle
  2
OverhangOff
 70
    21
177
     3
291
     1
 70
    58
 90
        2
176
     0
 90
        2
176
     0
 90
        0
176
     0
 90
        0
176
     0
 40
0.6
176
     0
 40
30.0
176
     0
 62
     7
420
 16777215
176
     0
 90
        1
176
     0
 90
        4
176
     0
 62
     7
176
     0
 62
   257
176
     0
 90
        1
176
     0
 90
        1
176
     0
 40
1.0
176
     0
 90
        9
176
     2
 62
     7
176
     0
 40
1.0
176
     0
 90
        1
176
     0
 90
        6
176
     0
 90
        2
176
     0
 62
     7
176
     0
 90
        5
176
     0
 90
        0
176
     0
 90
        0
176
     0
290
     0
176
     0
 90
        1
176
     0
 40
0.0
176
     0
 90
        0
176
     0
290
     0
176
     0
290
     1
176
     0
290
     1
176
     0
290
     0
176
     0
290
     0
176
     0
290
     0
176
     0
290
     0
176
     0
290
     0
176
     0
290
     0
176
     0
 90
       50
176
     0
 40
0.0
176
     0
 40
1.0
176
     0
 90
        0
176
     0
 62
    18
420
        0
176
     0
 90
       50
176
     0
 90
        3
176
     0
 62
     5
420
      255
176
     0
290
     0
176
     0
 90
       50
176
     0
 90
       50
176
     0
 90
       50
176
     0
290
     0
176
     0
 90
       50
176
     0
 62
   256
176
     0
 40
1.0
176
     0
 90
        2
176
     0
  1
strokes_ogs.tif
176
     0
290
     0
176
     0
 40
1.0
176
     0
 40
1.0
176
     0
  0
VISUALSTYLE
  5
33
102
{ACAD_REACTORS
330
2A
102
}
330
2A
100
AcDbVisualStyle
  2
Realistic
 70
     8
177
     3
291
     0
 70
    58
 90
        2
176
     1
 90
        3
176
     1
 90
        0
176
     1
 90
        2
176
     1
 40
0.6
176
     1
 40
30.0
176
     1
 62
     7
420
 16777215
176
     1
 90
        0
176
     1
 90
        0
176
     1
 62
     7
176
     1
 62
   257
176
     1
 90
        1
176
     1
 90
        1
176
     1
 40
1.0
176
     1
 90
        8
176
     1
 62
   257
176
     1
 40
1.0
176
     1
 90
        1
176
     1
 90
        6
176
     1
 90
        2
176
     1
 62
     7
176
     1
 90
        3
176
     1
 90
        0
176
     1
 90
        0
176
     1
290
     0
176
     1
 90
       13
176
     1
 40
0.0
176
     1
 90
        0
176
     1
290
     0
176
     1
290
     1
176
     1
290
     1
176
     1
290
     0
176
     1
290
     0
176
     1
290
     0
176
     1
290
     0
176
     1
290
     0
176
     1
290
     0
176
     1
 90
       50
176
     1
 40
0.0
176
     1
 40
1.0
176
     1
 90
        0
176
     1
 62
    18
420
        0
176
     1
 90
       50
176
     1
 90
        3
176
     1
 62
     5
420
      255
176
     1
290
     0
176
     1
 90
       50
176
     1
 90
       50
176
     1
 90
       50
176
     1
290
     0
176
     1
 90
       50
176
     1
 62
   256
176
     0
 40
1.0
176
     0
 90
        2
176
     1
  1
strokes_ogs.tif
176
     1
290
     0
176
     1
 40
1.0
176
     1
 40
1.0
176
     1
  0
VISUALSTYLE
  5
42
102
{ACAD_REACTORS
330
2A
102
}
330
2A
100
AcDbVisualStyle
  2
Shaded
 70
    27
177
     3
291
     0
 70
    58
 90
        2
176
     1
 90
        2
176
     1
 90
        1
176
     1
 90
        2
176
     1
 40
0.6
176
     1
 40
30.0
176
     1
 62
     7
420
 16777215
176
     1
 90
        0
176
     1
 90
        4
176
     1
 62
     7
176
     1
 62
   257
176
     1
 90
        1
176
     1
 90
        1
176
     1
 40
1.0
176
     1
 90
        8
176
     1
 62
   257
176
     1
 40
1.0
176
     1
 90
        1
176
     1
 90
        6
176
     1
 90
        2
176
     1
 62
     8
420
  7895160
176
     1
 90
        3
176
     1
 90
        0
176
     1
 90
        0
176
     1
290
     0
176
     1
 90
        5
176
     1
 40
0.0
176
     1
 90
        0
176
     1
290
     0
176
     1
290
     1
176
     1
290
     1
176
     1
290
     0
176
     1
290
     0
176
     1
290
     0
176
     1
290
     0
176
     1
290
     0
176
     1
290
     0
176
     1
 90
       50
176
     1
 40
0.0
176
     1
 40
1.0
176
     1
 90
        0
176
     1
 62
    18
420
        0
176
     1
 90
       50
176
     1
 90
        3
176
     1
 62
     5
420
      255
176
     1
290
     0
176
     1
 90
       50
176
     1
 90
       50
176
     1
 90
       50
176
     1
290
     0
176
     1
 90
       50
176
     1
 62
   256
176
     0
 40
1.0
176
     0
 90
        2
176
     1
  1
strokes_ogs.tif
176
     1
290
     0
176
     1
 40
1.0
176
     1
 40
1.0
176
     1
  0
VISUALSTYLE
  5
41
102
{ACAD_REACTORS
330
2A
102
}
330
2A
100
AcDbVisualStyle
  2
Shaded with edges
 70
    26
177
     3
291
     0
 70
    58
 90
        2
176
     1
 90
        2
176
     1
 90
        1
176
     1
 90
        2
176
     1
 40
0.6
176
     1
 40
30.0
176
     1
 62
     7
420
 16777215
176
     1
 90
        1
176
     1
 90
       10
176
     1
 62
     7
176
     1
 62
   257
176
     1
 90
        2
176
     1
 90
        1
176
     1
 40
1.0
176
     1
 90
        8
176
     1
 62
   257
176
     1
 40
1.0
176
     1
 90
        1
176
     1
 90
        6
176
     1
 90
        2
176
     1
 62
     7
176
     1
 90
        3
176
     1
 90
        0
176
     1
 90
        0
176
     1
290
     0
176
     1
 90
        5
176
     1
 40
0.0
176
     1
 90
        0
176
     1
290
     0
176
     1
290
     1
176
     1
290
     1
176
     1
290
     0
176
     1
290
     0
176
     1
290
     0
176
     1
290
     0
176
     1
290
     0
176
     1
290
     0
176
     1
 90
       50
176
     1
 40
0.0
176
     1
 40
1.0
176
     1
 90
        0
176
     1
 62
    18
420
        0
176
     1
 90
       50
176
     1
 90
        3
176
     1
 62
     5
420
      255
176
     1
290
     0
176
     1
 90
       50
176
     1
 90
       50
176
     1
 90
       50
176
     1
290
     0
176
     1
 90
       50
176
     1
 62
   256
176
     0
 40
1.0
176
     0
 90
        2
176
     1
  1
strokes_ogs.tif
176
     1
290
     0
176
     1
 40
1.0
176
     1
 40
1.0
176
     1
  0
VISUALSTYLE
  5
3E
102
{ACAD_REACTORS
330
2A
102
}
330
2A
100
AcDbVisualStyle
  2
Shades of Gray
 70
    23
177
     3
291
     0
 70
    58
 90
        2
176
     1
 90
        2
176
     1
 90
        3
176
     1
 90
        0
176
     1
 40
0.6
176
     1
 40
30.0
176
     1
 62
     7
420
 16777215
176
     1
 90
        2
176
     1
 90
        2
176
     1
 62
     7
176
     1
 62
     7
176
     1
 90
        1
176
     1
 90
        1
176
     1
 40
40.0
176
     1
 90
        8
176
     1
 62
     7
176
     1
 40
1.0
176
     1
 90
        1
176
     1
 90
        6
176
     1
 90
        2
176
     1
 62
     7
176
     1
 90
        3
176
     1
 90
        0
176
     1
 90
        0
176
     1
290
     0
176
     1
 90
        1
176
     1
 40
0.0
176
     1
 90
        0
176
     1
290
     0
176
     1
290
     1
176
     1
290
     1
176
     1
290
     0
176
     1
290
     0
176
     1
290
     0
176
     1
290
     0
176
     1
290
     0
176
     1
290
     0
176
     1
 90
       50
176
     1
 40
0.0
176
     1
 40
1.0
176
     1
 90
        0
176
     1
 62
    18
420
        0
176
     1
 90
       50
176
     1
 90
        3
176
     1
 62
     5
420
      255
176
     1
290
     0
176
     1
 90
       50
176
     1
 90
       50
176
     1
 90
       50
176
     1
290
     0
176
     1
 90
       50
176
     1
 62
   256
176
     0
 40
1.0
176
     0
 90
        2
176
     1
  1
strokes_ogs.tif
176
     1
290
     0
176
     1
 40
1.0
176
     1
 40
1.0
176
     1
  0
VISUALSTYLE
  5
3F
102
{ACAD_REACTORS
330
2A
102
}
330
2A
100
AcDbVisualStyle
  2
Sketchy
 70
    24
177
     3
291
     0
 70
    58
 90
        1
176
     1
 90
        2
176
     1
 90
        2
176
     1
 90
        0
176
     1
 40
0.6
176
     1
 40
30.0
176
     1
 62
     7
420
 16777215
176
     1
 90
        2
176
     1
 90
        2
176
     1
 62
     7
176
     1
 62
     7
176
     1
 90
        1
176
     1
 90
        1
176
     1
 40
40.0
176
     1
 90
       11
176
     1
 62
     7
176
     1
 40
1.0
176
     1
 90
        1
176
     1
 90
        6
176
     1
 90
        2
176
     1
 62
     7
176
     1
 90
        6
176
     1
 90
        0
176
     1
 90
        0
176
     1
290
     0
176
     1
 90
        1
176
     1
 40
0.0
176
     1
 90
        0
176
     1
290
     0
176
     1
290
     1
176
     1
290
     1
176
     1
290
     0
176
     1
290
     0
176
     1
290
     0
176
     1
290
     0
176
     1
290
     0
176
     1
290
     0
176
     1
 90
       50
176
     1
 40
0.0
176
     1
 40
1.0
176
     1
 90
        0
176
     1
 62
    18
420
        0
176
     1
 90
       50
176
     1
 90
        3
176
     1
 62
     5
420
      255
176
     1
290
     0
176
     1
 90
       50
176
     1
 90
       50
176
     1
 90
       50
176
     1
290
     0
176
     1
 90
       50
176
     1
 62
   256
176
     0
 40
1.0
176
     0
 90
        2
176
     1
  1
strokes_ogs.tif
176
     1
290
     0
176
     1
 40
1.0
176
     1
 40
1.0
176
     1
  0
VISUALSTYLE
  5
37
102
{ACAD_REACTORS
330
2A
102
}
330
2A
100
AcDbVisualStyle
  2
Thicken
 70
    13
177
     3
291
     1
 70
    58
 90
        2
176
     1
 90
        2
176
     1
 90
        0
176
     1
 90
        0
176
     1
 40
0.6
176
     1
 40
30.0
176
     1
 62
     7
420
 16777215
176
     1
 90
        1
176
     1
 90
        4
176
     1
 62
     7
176
     1
 62
   257
176
     1
 90
        1
176
     1
 90
        1
176
     1
 40
1.0
176
     1
 90
       12
176
     1
 62
     7
176
     1
 40
1.0
176
     1
 90
        1
176
     1
 90
        6
176
     1
 90
        2
176
     1
 62
     7
176
     1
 90
        5
176
     1
 90
        0
176
     1
 90
        0
176
     1
290
     0
176
     1
 90
        1
176
     1
 40
0.0
176
     1
 90
        0
176
     1
290
     0
176
     1
290
     1
176
     1
290
     1
176
     1
290
     0
176
     1
290
     0
176
     1
290
     0
176
     1
290
     0
176
     1
290
     0
176
     1
290
     0
176
     1
 90
       50
176
     1
 40
0.0
176
     1
 40
1.0
176
     1
 90
        0
176
     1
 62
    18
420
        0
176
     1
 90
       50
176
     1
 90
        3
176
     1
 62
     5
420
      255
176
     1
290
     0
176
     1
 90
       50
176
     1
 90
       50
176
     1
 90
       50
176
     1
290
     0
176
     1
 90
       50
176
     1
 62
   256
176
     0
 40
1.0
176
     0
 90
        2
176
     1
  1
strokes_ogs.tif
176
     1
290
     0
176
     1
 40
1.0
176
     1
 40
1.0
176
     1
  0
VISUALSTYLE
  5
30
102
{ACAD_REACTORS
330
2A
102
}
330
2A
100
AcDbVisualStyle
  2
Wireframe
 70
     5
177
     3
291
     0
 70
    58
 90
        0
176
     1
 90
        2
176
     1
 90
        0
176
     1
 90
        0
176
     1
 40
0.6
176
     1
 40
30.0
176
     1
 62
     7
420
 16777215
176
     1
 90
        1
176
     1
 90
        4
176
     1
 62
     7
176
     1
 62
   257
176
     1
 90
        1
176
     1
 90
        1
176
     1
 40
1.0
176
     1
 90
        0
176
     1
 62
   257
176
     1
 40
1.0
176
     1
 90
        1
176
     1
 90
        6
176
     1
 90
        2
176
     1
 62
     7
176
     1
 90
        3
176
     1
 90
        0
176
     1
 90
        0
176
     1
290
     0
176
     1
 90
        1
176
     1
 40
0.0
176
     1
 90
        0
176
     1
290
     0
176
     1
290
     1
176
     1
290
     1
176
     1
290
     0
176
     1
290
     0
176
     1
290
     0
176
     1
290
     0
176
     1
290
     0
176
     1
290
     0
176
     1
 90
       50
176
     1
 40
0.0
176
     1
 40
1.0
176
     1
 90
        0
176
     1
 62
    18
420
        0
176
     1
 90
       50
176
     1
 90
        3
176
     1
 62
     5
420
      255
176
     1
290
     0
176
     1
 90
       50
176
     1
 90
       50
176
     1
 90
       50
176
     1
290
     0
176
     1
 90
       50
176
     1
 62
   256
176
     0
 40
1.0
176
     0
 90
        2
176
     1
  1
strokes_ogs.tif
176
     1
290
     0
176
     1
 40
1.0
176
     1
 40
1.0
176
     1
  0
VISUALSTYLE
  5
40
102
{ACAD_REACTORS
330
2A
102
}
330
2A
100
AcDbVisualStyle
  2
X-Ray
 70
    25
177
     3
291
     0
 70
    58
 90
        2
176
     1
 90
        2
176
     1
 90
        1
176
     1
 90
        1
176
     1
 40
0.5
176
     1
 40
30.0
176
     1
 62
     7
420
 16777215
176
     1
 90
        1
176
     1
 90
        0
176
     1
 62
     7
176
     1
 62
   257
176
     1
 90
        1
176
     1
 90
        1
176
     1
 40
1.0
176
     1
 90
        8
176
     1
 62
     7
176
     1
 40
1.0
176
     1
 90
        1
176
     1
 90
        6
176
     1
 90
        2
176
     1
 62
     7
176
     1
 90
        3
176
     1
 90
        0
176
     1
 90
        0
176
     1
290
     0
176
     1
 90
       13
176
     1
 40
0.0
176
     1
 90
        0
176
     1
290
     0
176
     1
290
     1
176
     1
290
     1
176
     1
290
     0
176
     1
290
     0
176
     1
290
     0
176
     1
290
     0
176
     1
290
     0
176
     1
290
     0
176
     1
 90
       50
176
     1
 40
0.0
176
     1
 40
1.0
176
     1
 90
        0
176
     1
 62
    18
420
        0
176
     1
 90
       50
176
     1
 90
        3
176
     1
 62
     5
420
      255
176
     1
290
     0
176
     1
 90
       50
176
     1
 90
       50
176
     1
 90
       50
176
     1
290
     0
176
     1
 90
       50
176
     1
 62
   256
176
     0
 40
1.0
176
     0
 90
        2
176
     1
  1
strokes_ogs.tif
176
     1
290
     0
176
     1
 40
1.0
176
     1
 40
1.0
176
     1
  0
DICTIONARYVAR
  5
1B0
102
{ACAD_REACTORS
330
1AF
102
}
330
1AF
100
DictionaryVariables
280
     0
  1
1:1
  0
DICTIONARYVAR
  5
1B5
102
{ACAD_REACTORS
330
1AF
102
}
330
1AF
100
DictionaryVariables
280
     0
  1
Standard
  0
DICTIONARYVAR
  5
1B4
102
{ACAD_REACTORS
330
1AF
102
}
330
1AF
100
DictionaryVariables
280
     0
  1
Standard
  0
DICTIONARY
  5
1B1
330
6A
100
AcDbDictionary
280
     1
281
     1
  3
ACAD_ROUNDTRIP_2008_TABLESTYLE_CELLSTYLEMAP
360
1B2
  0
CELLSTYLEMAP
  5
1B2
102
{ACAD_REACTORS
330
1B1
102
}
330
1B1
100
AcDbCellStyleMap
 90
        3
300
CELLSTYLE
  1
TABLEFORMAT_BEGIN
 90
        5
170
     1
 91
        0
 92
    32768
 62
   257
 93
        1
300
CONTENTFORMAT
  1
CONTENTFORMAT_BEGIN
 90
        0
 91
        0
 92
        4
 93
        0
300

 40
0.0
140
1.0
 94
        5
 62
     0
340
11
144
0.25
309
CONTENTFORMAT_END
171
     1
301
MARGIN
  1
CELLMARGIN_BEGIN
 40
0.06
 40
0.06
 40
0.06
 40
0.06
 40
0.06
 40
0.06
309
CELLMARGIN_END
 94
        6
 95
        1
302
GRIDFORMAT
  1
GRIDFORMAT_BEGIN
 90
        0
 91
        1
 62
     0
 92
       -2
340
14
 93
        0
 40
0.045
309
GRIDFORMAT_END
 95
        2
302
GRIDFORMAT
  1
GRIDFORMAT_BEGIN
 90
        0
 91
        1
 62
     0
 92
       -2
340
14
 93
        0
 40
0.045
309
GRIDFORMAT_END
 95
        4
302
GRIDFORMAT
  1
GRIDFORMAT_BEGIN
 90
        0
 91
        1
 62
     0
 92
       -2
340
14
 93
        0
 40
0.045
309
GRIDFORMAT_END
 95
        8
302
GRIDFORMAT
  1
GRIDFORMAT_BEGIN
 90
        0
 91
        1
 62
     0
 92
       -2
340
14
 93
        0
 40
0.045
309
GRIDFORMAT_END
 95
       16
302
GRIDFORMAT
  1
GRIDFORMAT_BEGIN
 90
        0
 91
        1
 62
     0
 92
       -2
340
14
 93
        0
 40
0.045
309
GRIDFORMAT_END
 95
       32
302
GRIDFORMAT
  1
GRIDFORMAT_BEGIN
 90
        0
 91
        1
 62
     0
 92
       -2
340
14
 93
        0
 40
0.045
309
GRIDFORMAT_END
309
TABLEFORMAT_END
  1
CELLSTYLE_BEGIN
 90
        1
 91
        1
300
_TITLE
309
CELLSTYLE_END
300
CELLSTYLE
  1
TABLEFORMAT_BEGIN
 90
        5
170
     1
 91
        0
 92
        0
 62
   257
 93
        1
300
CONTENTFORMAT
  1
CONTENTFORMAT_BEGIN
 90
        0
 91
        0
 92
        4
 93
        0
300

 40
0.0
140
1.0
 94
        5
 62
     0
340
11
144
0.18
309
CONTENTFORMAT_END
171
     1
301
MARGIN
  1
CELLMARGIN_BEGIN
 40
0.06
 40
0.06
 40
0.06
 40
0.06
 40
0.06
 40
0.06
309
CELLMARGIN_END
 94
        6
 95
        1
302
GRIDFORMAT
  1
GRIDFORMAT_BEGIN
 90
        0
 91
        1
 62
     0
 92
       -2
340
14
 93
        0
 40
0.045
309
GRIDFORMAT_END
 95
        2
302
GRIDFORMAT
  1
GRIDFORMAT_BEGIN
 90
        0
 91
        1
 62
     0
 92
       -2
340
14
 93
        0
 40
0.045
309
GRIDFORMAT_END
 95
        4
302
GRIDFORMAT
  1
GRIDFORMAT_BEGIN
 90
        0
 91
        1
 62
     0
 92
       -2
340
14
 93
        0
 40
0.045
309
GRIDFORMAT_END
 95
        8
302
GRIDFORMAT
  1
GRIDFORMAT_BEGIN
 90
        0
 91
        1
 62
     0
 92
       -2
340
14
 93
        0
 40
0.045
309
GRIDFORMAT_END
 95
       16
302
GRIDFORMAT
  1
GRIDFORMAT_BEGIN
 90
        0
 91
        1
 62
     0
 92
       -2
340
14
 93
        0
 40
0.045
309
GRIDFORMAT_END
 95
       32
302
GRIDFORMAT
  1
GRIDFORMAT_BEGIN
 90
        0
 91
        1
 62
     0
 92
       -2
340
14
 93
        0
 40
0.045
309
GRIDFORMAT_END
309
TABLEFORMAT_END
  1
CELLSTYLE_BEGIN
 90
        2
 91
        1
300
_HEADER
309
CELLSTYLE_END
300
CELLSTYLE
  1
TABLEFORMAT_BEGIN
 90
        5
170
     1
 91
        0
 92
        0
 62
   257
 93
        1
300
CONTENTFORMAT
  1
CONTENTFORMAT_BEGIN
 90
        0
 91
        0
 92
        4
 93
        0
300

 40
0.0
140
1.0
 94
        2
 62
     0
340
11
144
0.18
309
CONTENTFORMAT_END
171
     1
301
MARGIN
  1
CELLMARGIN_BEGIN
 40
0.06
 40
0.06
 40
0.06
 40
0.06
 40
0.06
 40
0.06
309
CELLMARGIN_END
 94
        6
 95
        1
302
GRIDFORMAT
  1
GRIDFORMAT_BEGIN
 90
        0
 91
        1
 62
     0
 92
       -2
340
14
 93
        0
 40
0.045
309
GRIDFORMAT_END
 95
        2
302
GRIDFORMAT
  1
GRIDFORMAT_BEGIN
 90
        0
 91
        1
 62
     0
 92
       -2
340
14
 93
        0
 40
0.045
309
GRIDFORMAT_END
 95
        4
302
GRIDFORMAT
  1
GRIDFORMAT_BEGIN
 90
        0
 91
        1
 62
     0
 92
       -2
340
14
 93
        0
 40
0.045
309
GRIDFORMAT_END
 95
        8
302
GRIDFORMAT
  1
GRIDFORMAT_BEGIN
 90
        0
 91
        1
 62
     0
 92
       -2
340
14
 93
        0
 40
0.045
309
GRIDFORMAT_END
 95
       16
302
GRIDFORMAT
  1
GRIDFORMAT_BEGIN
 90
        0
 91
        1
 62
     0
 92
       -2
340
14
 93
        0
 40
0.045
309
GRIDFORMAT_END
 95
       32
302
GRIDFORMAT
  1
GRIDFORMAT_BEGIN
 90
        0
 91
        1
 62
     0
 92
       -2
340
14
 93
        0
 40
0.045
309
GRIDFORMAT_END
309
TABLEFORMAT_END
  1
CELLSTYLE_BEGIN
 90
        3
 91
        2
300
_DATA
309
CELLSTYLE_END
  0
ENDSEC
  0
EOF