0
SECTION
  2
HEADER
  9
$ACADVER
  1
AC1027
  9
$ACADMAINTVER
 70
     8
  9
$DWGCODEPAGE
  3
ANSI_1252
  9
$REQUIREDVERSIONS
160
                 0
  9
$COMMENTS
  1
File was created by Cadenas
  9
$CUSTOMPROPERTYTAG
  1
NN
  9
$CUSTOMPROPERTY
  1
Unisphere II Pillow Block Inch Bore
  9
$CUSTOMPROPERTYTAG
  1
NT
  9
$CUSTOMPROPERTY
  1
Unisphere II
  9
$CUSTOMPROPERTYTAG
  1
NB
  9
$CUSTOMPROPERTY
  1
048007
  9
$CUSTOMPROPERTYTAG
  1
NBSYN
  9
$CUSTOMPROPERTY
  1
$PN.
  9
$CUSTOMPROPERTYTAG
  1
LINA
  9
$CUSTOMPROPERTY
  1
048007
  9
$CUSTOMPROPERTYTAG
  1
SS
  9
$CUSTOMPROPERTY
  1
2-7/16
  9
$CUSTOMPROPERTYTAG
  1
TYPE
  9
$CUSTOMPROPERTY
  1
Non Expansion Type
  9
$CUSTOMPROPERTYTAG
  1
PN
  9
$CUSTOMPROPERTY
  1
048007
  9
$CUSTOMPROPERTYTAG
  1
DESCRIPTION
  9
$CUSTOMPROPERTY
  1
P2B-UN2-207
  9
$CUSTOMPROPERTYTAG
  1
WEIGHT
  9
$CUSTOMPROPERTY
  1
13.6
  9
$CUSTOMPROPERTYTAG
  1
A
  9
$CUSTOMPROPERTY
  1
2-13/64
  9
$CUSTOMPROPERTYTAG
  1
B
  9
$CUSTOMPROPERTY
  1
9-1/4
  9
$CUSTOMPROPERTYTAG
  1
C
  9
$CUSTOMPROPERTY
  1
2-9/16
  9
$CUSTOMPROPERTYTAG
  1
DMIN
  9
$CUSTOMPROPERTY
  1
6-13/16
  9
$CUSTOMPROPERTYTAG
  1
DMAX
  9
$CUSTOMPROPERTY
  1
7-7/16
  9
$CUSTOMPROPERTYTAG
  1
E
  9
$CUSTOMPROPERTY
  1
3/16
  9
$CUSTOMPROPERTYTAG
  1
F
  9
$CUSTOMPROPERTY
  1
5/8
  9
$CUSTOMPROPERTYTAG
  1
G
  9
$CUSTOMPROPERTY
  1
1
  9
$CUSTOMPROPERTYTAG
  1
H
  9
$CUSTOMPROPERTY
  1
1-3/4
  9
$CUSTOMPROPERTYTAG
  1
J
  9
$CUSTOMPROPERTY
  1
5-11/16
  9
$CUSTOMPROPERTYTAG
  1
L
  9
$CUSTOMPROPERTY
  1
4-1/16
  9
$CUSTOMPROPERTYTAG
  1
M
  9
$CUSTOMPROPERTY
  1
2-3/4
  9
$CUSTOMPROPERTYTAG
  1
R
  9
$CUSTOMPROPERTY
  1
21/32
  9
$CUSTOMPROPERTYTAG
  1
S
  9
$CUSTOMPROPERTY
  1
1-35/64
  9
$CUSTOMPROPERTYTAG
  1
MRPM
  9
$CUSTOMPROPERTY
  1
1900
  9
$CUSTOMPROPERTYTAG
  1
CS
  9
$CUSTOMPROPERTY
  1
46500
  9
$CUSTOMPROPERTYTAG
  1
CD
  9
$CUSTOMPROPERTY
  1
38000
  9
$CUSTOMPROPERTYTAG
  1
RN
  9
$CUSTOMPROPERTY
  1
18
  9
$CUSTOMPROPERTYTAG
  1
RM
  9
$CUSTOMPROPERTY
  1
0.5827
  9
$CUSTOMPROPERTYTAG
  1
PD
  9
$CUSTOMPROPERTY
  1
3.795
  9
$CUSTOMPROPERTYTAG
  1
RC
  9
$CUSTOMPROPERTY
  1
0.0016-0.0026
  9
$CUSTOMPROPERTYTAG
  1
CSS
  9
$CUSTOMPROPERTY
  1
3/8-16x3/4
  9
$CUSTOMPROPERTYTAG
  1
CST
  9
$CUSTOMPROPERTY
  1
290
  9
$CUSTOMPROPERTYTAG
  1
MH
  9
$CUSTOMPROPERTY
  1
Ductile Iron Grade 65-45-12 ASTM A536
  9
$CUSTOMPROPERTYTAG
  1
MIR
  9
$CUSTOMPROPERTY
  1
4118 Case Carb.
  9
$CUSTOMPROPERTYTAG
  1
MOR
  9
$CUSTOMPROPERTY
  1
E52100 Steel
  9
$CUSTOMPROPERTYTAG
  1
MR
  9
$CUSTOMPROPERTY
  1
Polyamide
  9
$CUSTOMPROPERTYTAG
  1
MRO
  9
$CUSTOMPROPERTY
  1
E52100 Steel
  9
$CUSTOMPROPERTYTAG
  1
SM
  9
$CUSTOMPROPERTY
  1
2°
  9
$CUSTOMPROPERTYTAG
  1
COMPANY
  9
$CUSTOMPROPERTY
  1
baldor
  9
$INSBASE
 10
0.0
 20
0.0
 30
0.0
  9
$EXTMIN
 10
1.000000000000000E+20
 20
1.000000000000000E+20
 30
1.000000000000000E+20
  9
$EXTMAX
 10
-1.000000000000000E+20
 20
-1.000000000000000E+20
 30
-1.000000000000000E+20
  9
$LIMMIN
 10
0.0
 20
0.0
  9
$LIMMAX
 10
12.0
 20
9.0
  9
$ORTHOMODE
 70
     0
  9
$REGENMODE
 70
     1
  9
$FILLMODE
 70
     1
  9
$QTEXTMODE
 70
     0
  9
$MIRRTEXT
 70
     1
  9
$LTSCALE
 40
1.0
  9
$ATTMODE
 70
     1
  9
$TEXTSIZE
 40
0.2
  9
$TRACEWID
 40
0.05
  9
$TEXTSTYLE
  7
Standard
  9
$CLAYER
  8
0
  9
$CELTYPE
  6
ByLayer
  9
$CECOLOR
 62
   256
  9
$CELTSCALE
 40
1.0
  9
$DISPSILH
 70
     0
  9
$DIMSCALE
 40
1.0
  9
$DIMASZ
 40
0.18
  9
$DIMEXO
 40
0.0625
  9
$DIMDLI
 40
0.38
  9
$DIMRND
 40
0.0
  9
$DIMDLE
 40
0.0
  9
$DIMEXE
 40
0.18
  9
$DIMTP
 40
0.0
  9
$DIMTM
 40
0.0
  9
$DIMTXT
 40
0.18
  9
$DIMCEN
 40
0.09
  9
$DIMTSZ
 40
0.0
  9
$DIMTOL
 70
     0
  9
$DIMLIM
 70
     0
  9
$DIMTIH
 70
     1
  9
$DIMTOH
 70
     1
  9
$DIMSE1
 70
     0
  9
$DIMSE2
 70
     0
  9
$DIMTAD
 70
     0
  9
$DIMZIN
 70
     0
  9
$DIMBLK
  1

  9
$DIMASO
 70
     1
  9
$DIMSHO
 70
     1
  9
$DIMPOST
  1

  9
$DIMAPOST
  1

  9
$DIMALT
 70
     0
  9
$DIMALTD
 70
     2
  9
$DIMALTF
 40
25.4
  9
$DIMLFAC
 40
1.0
  9
$DIMTOFL
 70
     0
  9
$DIMTVP
 40
0.0
  9
$DIMTIX
 70
     0
  9
$DIMSOXD
 70
     0
  9
$DIMSAH
 70
     0
  9
$DIMBLK1
  1

  9
$DIMBLK2
  1

  9
$DIMSTYLE
  2
Standard
  9
$DIMCLRD
 70
     0
  9
$DIMCLRE
 70
     0
  9
$DIMCLRT
 70
     0
  9
$DIMTFAC
 40
1.0
  9
$DIMGAP
 40
0.09
  9
$DIMJUST
 70
     0
  9
$DIMSD1
 70
     0
  9
$DIMSD2
 70
     0
  9
$DIMTOLJ
 70
     1
  9
$DIMTZIN
 70
     0
  9
$DIMALTZ
 70
     0
  9
$DIMALTTZ
 70
     0
  9
$DIMUPT
 70
     0
  9
$DIMDEC
 70
     4
  9
$DIMTDEC
 70
     4
  9
$DIMALTU
 70
     2
  9
$DIMALTTD
 70
     2
  9
$DIMTXSTY
  7
Standard
  9
$DIMAUNIT
 70
     0
  9
$DIMADEC
 70
     0
  9
$DIMALTRND
 40
0.0
  9
$DIMAZIN
 70
     0
  9
$DIMDSEP
 70
    46
  9
$DIMATFIT
 70
     3
  9
$DIMFRAC
 70
     0
  9
$DIMLDRBLK
  1

  9
$DIMLUNIT
 70
     2
  9
$DIMLWD
 70
    -2
  9
$DIMLWE
 70
    -2
  9
$DIMTMOVE
 70
     0
  9
$DIMFXL
 40
1.0
  9
$DIMFXLON
 70
     0
  9
$DIMJOGANG
 40
0.7853981633974483
  9
$DIMTFILL
 70
     0
  9
$DIMTFILLCLR
 70
     0
  9
$DIMARCSYM
 70
     0
  9
$DIMLTYPE
  6

  9
$DIMLTEX1
  6

  9
$DIMLTEX2
  6

  9
$DIMTXTDIRECTION
 70
     0
  9
$LUNITS
 70
     2
  9
$LUPREC
 70
     4
  9
$SKETCHINC
 40
0.1
  9
$FILLETRAD
 40
0.5
  9
$AUNITS
 70
     0
  9
$AUPREC
 70
     0
  9
$MENU
  1
.
  9
$ELEVATION
 40
0.0
  9
$PELEVATION
 40
0.0
  9
$THICKNESS
 40
0.0
  9
$LIMCHECK
 70
     0
  9
$CHAMFERA
 40
0.0
  9
$CHAMFERB
 40
0.0
  9
$CHAMFERC
 40
0.0
  9
$CHAMFERD
 40
0.0
  9
$SKPOLY
 70
     0
  9
$TDCREATE
 40
2458169.003028287
  9
$TDUCREATE
 40
2458168.961361621
  9
$TDUPDATE
 40
2458169.003028472
  9
$TDUUPDATE
 40
2458168.961361805
  9
$TDINDWG
 40
0.0000000116
  9
$TDUSRTIMER
 40
0.0000000116
  9
$USRTIMER
 70
     1
  9
$ANGBASE
 50
0.0
  9
$ANGDIR
 70
     0
  9
$PDMODE
 70
     0
  9
$PDSIZE
 40
0.0
  9
$PLINEWID
 40
0.0
  9
$SPLFRAME
 70
     0
  9
$SPLINETYPE
 70
     6
  9
$SPLINESEGS
 70
     8
  9
$HANDSEED
  5
202
  9
$SURFTAB1
 70
     6
  9
$SURFTAB2
 70
     6
  9
$SURFTYPE
 70
     6
  9
$SURFU
 70
     6
  9
$SURFV
 70
     6
  9
$UCSBASE
  2

  9
$UCSNAME
  2

  9
$UCSORG
 10
0.0
 20
0.0
 30
0.0
  9
$UCSXDIR
 10
1.0
 20
0.0
 30
0.0
  9
$UCSYDIR
 10
0.0
 20
1.0
 30
0.0
  9
$UCSORTHOREF
  2

  9
$UCSORTHOVIEW
 70
     0
  9
$UCSORGTOP
 10
0.0
 20
0.0
 30
0.0
  9
$UCSORGBOTTOM
 10
0.0
 20
0.0
 30
0.0
  9
$UCSORGLEFT
 10
0.0
 20
0.0
 30
0.0
  9
$UCSORGRIGHT
 10
0.0
 20
0.0
 30
0.0
  9
$UCSORGFRONT
 10
0.0
 20
0.0
 30
0.0
  9
$UCSORGBACK
 10
0.0
 20
0.0
 30
0.0
  9
$PUCSBASE
  2

  9
$PUCSNAME
  2

  9
$PUCSORG
 10
0.0
 20
0.0
 30
0.0
  9
$PUCSXDIR
 10
1.0
 20
0.0
 30
0.0
  9
$PUCSYDIR
 10
0.0
 20
1.0
 30
0.0
  9
$PUCSORTHOREF
  2

  9
$PUCSORTHOVIEW
 70
     0
  9
$PUCSORGTOP
 10
0.0
 20
0.0
 30
0.0
  9
$PUCSORGBOTTOM
 10
0.0
 20
0.0
 30
0.0
  9
$PUCSORGLEFT
 10
0.0
 20
0.0
 30
0.0
  9
$PUCSORGRIGHT
 10
0.0
 20
0.0
 30
0.0
  9
$PUCSORGFRONT
 10
0.0
 20
0.0
 30
0.0
  9
$PUCSORGBACK
 10
0.0
 20
0.0
 30
0.0
  9
$USERI1
 70
     0
  9
$USERI2
 70
     0
  9
$USERI3
 70
     0
  9
$USERI4
 70
     0
  9
$USERI5
 70
     0
  9
$USERR1
 40
0.0
  9
$USERR2
 40
0.0
  9
$USERR3
 40
0.0
  9
$USERR4
 40
0.0
  9
$USERR5
 40
0.0
  9
$WORLDVIEW
 70
     1
  9
$SHADEDGE
 70
     3
  9
$SHADEDIF
 70
    70
  9
$TILEMODE
 70
     1
  9
$MAXACTVP
 70
    64
  9
$PINSBASE
 10
0.0
 20
0.0
 30
0.0
  9
$PLIMCHECK
 70
     0
  9
$PEXTMIN
 10
1.000000000000000E+20
 20
1.000000000000000E+20
 30
1.000000000000000E+20
  9
$PEXTMAX
 10
-1.000000000000000E+20
 20
-1.000000000000000E+20
 30
-1.000000000000000E+20
  9
$PLIMMIN
 10
0.0
 20
0.0
  9
$PLIMMAX
 10
12.0
 20
9.0
  9
$UNITMODE
 70
     0
  9
$VISRETAIN
 70
     1
  9
$PLINEGEN
 70
     0
  9
$PSLTSCALE
 70
     1
  9
$TREEDEPTH
 70
  3020
  9
$CMLSTYLE
  2
Standard
  9
$CMLJUST
 70
     0
  9
$CMLSCALE
 40
1.0
  9
$PROXYGRAPHICS
 70
     1
  9
$MEASUREMENT
 70
     0
  9
$CELWEIGHT
370
    -1
  9
$ENDCAPS
280
     0
  9
$JOINSTYLE
280
     0
  9
$LWDISPLAY
290
     0
  9
$INSUNITS
 70
     1
  9
$HYPERLINKBASE
  1

  9
$STYLESHEET
  1

  9
$XEDIT
290
     1
  9
$CEPSNTYPE
380
     0
  9
$PSTYLEMODE
290
     1
  9
$FINGERPRINTGUID
  2
{15675D6D-760B-4D2A-A23B-64C77C8D9216}
  9
$VERSIONGUID
  2
{FAEB1C32-E019-11D5-929B-00C0DF256EC4}
  9
$EXTNAMES
290
     1
  9
$PSVPSCALE
 40
0.0
  9
$OLESTARTUP
290
     0
  9
$SORTENTS
280
   127
  9
$INDEXCTL
280
     0
  9
$HIDETEXT
280
     1
  9
$XCLIPFRAME
280
     2
  9
$HALOGAP
280
     0
  9
$OBSCOLOR
 70
   257
  9
$OBSLTYPE
280
     0
  9
$INTERSECTIONDISPLAY
280
     0
  9
$INTERSECTIONCOLOR
 70
   257
  9
$DIMASSOC
280
     2
  9
$PROJECTNAME
  1

  9
$CAMERADISPLAY
290
     0
  9
$LENSLENGTH
 40
50.0
  9
$CAMERAHEIGHT
 40
0.0
  9
$STEPSPERSEC
 40
2.0
  9
$STEPSIZE
 40
6.0
  9
$3DDWFPREC
 40
2.0
  9
$PSOLWIDTH
 40
0.25
  9
$PSOLHEIGHT
 40
4.0
  9
$LOFTANG1
 40
1.570796326794897
  9
$LOFTANG2
 40
1.570796326794897
  9
$LOFTMAG1
 40
0.0
  9
$LOFTMAG2
 40
0.0
  9
$LOFTPARAM
 70
     7
  9
$LOFTNORMALS
280
     1
  9
$LATITUDE
 40
37.795
  9
$LONGITUDE
 40
-122.394
  9
$NORTHDIRECTION
 40
0.0
  9
$TIMEZONE
 70
 -8000
  9
$LIGHTGLYPHDISPLAY
280
     1
  9
$TILEMODELIGHTSYNCH
280
     1
  9
$CMATERIAL
347
44
  9
$SOLIDHIST
280
     0
  9
$SHOWHIST
280
     1
  9
$DWFFRAME
280
     2
  9
$DGNFRAME
280
     2
  9
$REALWORLDSCALE
290
     1
  9
$INTERFERECOLOR
 62
   256
  9
$CSHADOW
280
     0
  9
$SHADOWPLANELOCATION
 40
0.0
  0
ENDSEC
  0
SECTION
  2
CLASSES
  0
CLASS
  1
ACDBDICTIONARYWDFLT
  2
AcDbDictionaryWithDefault
  3
ObjectDBX Classes
 90
        0
 91
        4
280
     0
281
     0
  0
CLASS
  1
VISUALSTYLE
  2
AcDbVisualStyle
  3
ObjectDBX Classes
 90
     4095
 91
        4
280
     0
281
     0
  0
CLASS
  1
MATERIAL
  2
AcDbMaterial
  3
ObjectDBX Classes
 90
     1153
 91
        4
280
     0
281
     0
  0
CLASS
  1
SCALE
  2
AcDbScale
  3
ObjectDBX Classes
 90
     1153
 91
        4
280
     0
281
     0
  0
CLASS
  1
TABLESTYLE
  2
AcDbTableStyle
  3
ObjectDBX Classes
 90
     4095
 91
        4
280
     0
281
     0
  0
CLASS
  1
MLEADERSTYLE
  2
AcDbMLeaderStyle
  3
ACDB_MLEADERSTYLE_CLASS
 90
     4095
 91
        4
280
     0
281
     0
  0
CLASS
  1
SUN
  2
AcDbSun
  3
SCENEOE
 90
     1153
 91
        4
280
     0
281
     0
  0
CLASS
  1
DICTIONARYVAR
  2
AcDbDictionaryVar
  3
ObjectDBX Classes
 90
        0
 91
        4
280
     0
281
     0
  0
CLASS
  1
CELLSTYLEMAP
  2
AcDbCellStyleMap
  3
ObjectDBX Classes
 90
     1152
 91
        4
280
     0
281
     0
  0
ENDSEC
  0
SECTION
  2
TABLES
  0
TABLE
  2
VPORT
  5
8
330
0
100
AcDbSymbolTable
 70
     1
  0
VPORT
  5
29
330
8
100
AcDbSymbolTableRecord
100
AcDbViewportTableRecord
  2
*Active
 70
     0
 10
0.0
 20
0.0
 11
1.0
 21
1.0
 12
0.0
 22
-0.1238307499999998
 13
0.0
 23
0.0
 14
0.5
 24
0.5
 15
0.5
 25
0.5
 16
0.0
 26
0.0
 36
1.0
 17
0.0
 27
0.0
 37
0.0
 40
3.12773973
 41
3.03693747561278
 42
50.0
 43
0.0
 44
0.0
 50
0.0
 51
0.0
 71
     0
 72
   100
 73
     1
 74
     3
 75
     0
 76
     0
 77
     0
 78
     0
281
     0
 65
     1
110
0.0
120
0.0
130
0.0
111
1.0
121
0.0
131
0.0
112
0.0
122
1.0
132
0.0
 79
     0
146
0.0
348
2F
 60
     3
 61
     5
292
     1
282
     1
141
0.0
142
0.0
 63
   250
361
6D
  0
ENDTAB
  0
TABLE
  2
LTYPE
  5
5
330
0
100
AcDbSymbolTable
 70
     3
  0
LTYPE
  5
14
330
5
100
AcDbSymbolTableRecord
100
AcDbLinetypeTableRecord
  2
ByBlock
 70
     0
  3

 72
    65
 73
     0
 40
0.0
  0
LTYPE
  5
15
330
5
100
AcDbSymbolTableRecord
100
AcDbLinetypeTableRecord
  2
ByLayer
 70
     0
  3

 72
    65
 73
     0
 40
0.0
  0
LTYPE
  5
16
330
5
100
AcDbSymbolTableRecord
100
AcDbLinetypeTableRecord
  2
Continuous
 70
     0
  3
Solid line
 72
    65
 73
     0
 40
0.0
  0
LTYPE
  5
B2
330
5
100
AcDbSymbolTableRecord
100
AcDbLinetypeTableRecord
  2
Dashed
 70
     0
  3

 72
    65
 73
     2
 40
2.0
 49
1.0
 74
     0
 49
-1.0
 74
     0
  0
LTYPE
  5
D2
330
5
100
AcDbSymbolTableRecord
100
AcDbLinetypeTableRecord
  2
Center
 70
     0
  3

 72
    65
 73
     4
 40
1.5
 49
0.45
 74
     0
 49
-0.5
 74
     0
 49
0.05
 74
     0
 49
-0.5
 74
     0
  0
ENDTAB
  0
TABLE
  2
LAYER
  5
2
330
0
100
AcDbSymbolTable
 70
     7
  0
LAYER
  5
10
330
2
100
AcDbSymbolTableRecord
100
AcDbLayerTableRecord
  2
0
 70
     0
 62
     7
  6
Continuous
370
    -3
390
F
347
46
348
0
  0
LAYER
  5
72
330
2
100
AcDbSymbolTableRecord
100
AcDbLayerTableRecord
  2
AM_6
 70
     0
 62
    -2
  6
Continuous
370
    35
390
F
347
46
348
0
  0
LAYER
  5
B3
330
2
100
AcDbSymbolTableRecord
100
AcDbLayerTableRecord
  2
AM_9
 70
     0
 62
     6
  6
Dashed
370
    25
390
F
347
46
348
0
  0
LAYER
  5
D3
330
2
100
AcDbSymbolTableRecord
100
AcDbLayerTableRecord
  2
AM_7
 70
     0
 62
     7
  6
Center
370
    25
390
F
347
46
348
0
  0
LAYER
  5
D5
330
2
100
AcDbSymbolTableRecord
100
AcDbLayerTableRecord
  2
AM_4
 70
     0
 62
     7
  6
Continuous
370
    50
390
F
347
46
348
0
  0
LAYER
  5
E3
330
2
100
AcDbSymbolTableRecord
100
AcDbLayerTableRecord
  2
AM_5
 70
     0
 62
     3
  6
Continuous
370
    25
390
F
347
46
348
0
  0
LAYER
  5
1F5
330
2
100
AcDbSymbolTableRecord
100
AcDbLayerTableRecord
  2
ConnectionPoints
 70
     0
 62
     7
  6
Continuous
370
    50
390
F
347
46
348
0
  0
ENDTAB
  0
TABLE
  2
STYLE
  5
3
330
0
100
AcDbSymbolTable
 70
     1
  0
STYLE
  5
11
330
3
100
AcDbSymbolTableRecord
100
AcDbTextStyleTableRecord
  2
Standard
 70
     0
 40
0.0
 41
1.0
 50
0.0
 71
     0
 42
0.2
  3
txt
  4

  0
ENDTAB
  0
TABLE
  2
VIEW
  5
6
330
0
100
AcDbSymbolTable
 70
     0
  0
ENDTAB
  0
TABLE
  2
UCS
  5
7
330
0
100
AcDbSymbolTable
 70
     0
  0
ENDTAB
  0
TABLE
  2
APPID
  5
9
330
0
100
AcDbSymbolTable
 70
     1
  0
APPID
  5
12
330
9
100
AcDbSymbolTableRecord
100
AcDbRegAppTableRecord
  2
ACAD
 70
     0
  0
ENDTAB
  0
TABLE
  2
DIMSTYLE
  5
A
330
0
100
AcDbSymbolTable
 70
     1
100
AcDbDimStyleTable
  0
DIMSTYLE
105
27
330
A
100
AcDbSymbolTableRecord
100
AcDbDimStyleTableRecord
  2
Standard
 70
     0
178
     0
340
11
  0
ENDTAB
  0
TABLE
  2
BLOCK_RECORD
  5
1
330
0
100
AcDbSymbolTable
 70
     5
  0
BLOCK_RECORD
  5
1F
330
1
100
AcDbSymbolTableRecord
100
AcDbBlockTableRecord
  2
*Model_Space
340
22
 70
     0
280
     1
281
     0
  0
BLOCK_RECORD
  5
1B
330
1
100
AcDbSymbolTableRecord
100
AcDbBlockTableRecord
  2
*Paper_Space
340
1E
 70
     0
280
     1
281
     0
  0
BLOCK_RECORD
  5
23
330
1
100
AcDbSymbolTableRecord
100
AcDbBlockTableRecord
  2
*Paper_Space0
340
26
 70
     0
280
     1
281
     0
  0
BLOCK_RECORD
  5
6E
330
1
100
AcDbSymbolTableRecord
100
AcDbBlockTableRecord
  2
1_048007_4
340
0
102
{BLKREFS
331
6F
102
}
 70
     0
280
     1
281
     0
  0
BLOCK_RECORD
  5
9B
330
1
100
AcDbSymbolTableRecord
100
AcDbBlockTableRecord
  2
2_421250_0_in_048007_4
340
0
102
{BLKREFS
331
9C
102
}
 70
     0
280
     1
281
     0
  0
BLOCK_RECORD
  5
E5
330
1
100
AcDbSymbolTableRecord
100
AcDbBlockTableRecord
  2
3_405020c_Inch_0_in_048007_4
340
0
102
{BLKREFS
331
E6
102
}
 70
     0
280
     1
281
     0
  0
BLOCK_RECORD
  5
13E
330
1
100
AcDbSymbolTableRecord
100
AcDbBlockTableRecord
  2
4_048007B_0_in_048007_4
340
0
102
{BLKREFS
331
13F
102
}
 70
     0
280
     1
281
     0
  0
ENDTAB
  0
ENDSEC
  0
SECTION
  2
BLOCKS
  0
BLOCK
  5
20
330
1F
100
AcDbEntity
  8
0
100
AcDbBlockBegin
  2
*Model_Space
 70
     0
 10
0.0
 20
0.0
 30
0.0
  3
*Model_Space
  1

  0
ENDBLK
  5
21
330
1F
100
AcDbEntity
  8
0
100
AcDbBlockEnd
  0
BLOCK
  5
1C
330
1B
100
AcDbEntity
 67
     1
  8
0
100
AcDbBlockBegin
  2
*Paper_Space
 70
     0
 10
0.0
 20
0.0
 30
0.0
  3
*Paper_Space
  1

  0
ENDBLK
  5
1D
330
1B
100
AcDbEntity
 67
     1
  8
0
100
AcDbBlockEnd
  0
BLOCK
  5
24
330
23
100
AcDbEntity
  8
0
100
AcDbBlockBegin
  2
*Paper_Space0
 70
     0
 10
0.0
 20
0.0
 30
0.0
  3
*Paper_Space0
  1

  0
ENDBLK
  5
25
330
23
100
AcDbEntity
  8
0
100
AcDbBlockEnd
  0
BLOCK
  5
70
330
6E
100
AcDbEntity
  8
0
100
AcDbBlockBegin
  2
1_048007_4
 70
     2
 10
0.0
 20
0.0
 30
0.0
  3
1_048007_4
  1

  0
ATTDEF
  5
73
330
6E
100
AcDbEntity
  8
AM_6
100
AcDbText
 10
9.65625
 20
1.409375
 30
0.0
 40
0.5
  1
Unisphere II Pillow Block Inch Bore
100
AcDbAttributeDefinition
  3

  2
NN
 70
     8
280
     0
  0
ATTDEF
  5
74
330
6E
100
AcDbEntity
  8
AM_6
100
AcDbText
 10
9.65625
 20
0.909375
 30
0.0
 40
0.5
  1
Unisphere II
100
AcDbAttributeDefinition
  3

  2
NT
 70
     8
280
     0
  0
ATTDEF
  5
75
330
6E
100
AcDbEntity
  8
AM_6
100
AcDbText
 10
9.65625
 20
0.409375
 30
0.0
 40
0.5
  1
048007
100
AcDbAttributeDefinition
  3

  2
NB
 70
     8
280
     0
  0
ATTDEF
  5
76
330
6E
100
AcDbEntity
  8
AM_6
100
AcDbText
 10
9.65625
 20
-0.090625
 30
0.0
 40
0.5
  1
$PN.
100
AcDbAttributeDefinition
  3

  2
NBSYN
 70
     8
280
     0
  0
ATTDEF
  5
77
330
6E
100
AcDbEntity
  8
AM_6
100
AcDbText
 10
9.65625
 20
-0.590625
 30
0.0
 40
0.5
  1
048007
100
AcDbAttributeDefinition
  3

  2
LINA
 70
     8
280
     0
  0
ATTDEF
  5
78
330
6E
100
AcDbEntity
  8
AM_6
100
AcDbText
 10
9.65625
 20
-1.090625
 30
0.0
 40
0.5
  1
2-7/16
100
AcDbAttributeDefinition
  3

  2
SS
 70
     8
280
     0
  0
ATTDEF
  5
79
330
6E
100
AcDbEntity
  8
AM_6
100
AcDbText
 10
9.65625
 20
-1.590625
 30
0.0
 40
0.5
  1
Non Expansion Type
100
AcDbAttributeDefinition
  3

  2
TYPE
 70
     8
280
     0
  0
ATTDEF
  5
7A
330
6E
100
AcDbEntity
  8
AM_6
100
AcDbText
 10
9.65625
 20
-2.090625
 30
0.0
 40
0.5
  1
048007
100
AcDbAttributeDefinition
  3

  2
PN
 70
     8
280
     0
  0
ATTDEF
  5
7B
330
6E
100
AcDbEntity
  8
AM_6
100
AcDbText
 10
9.65625
 20
-2.590625
 30
0.0
 40
0.5
  1
P2B-UN2-207
100
AcDbAttributeDefinition
  3

  2
DESCRIPTION
 70
     8
280
     0
  0
ATTDEF
  5
7C
330
6E
100
AcDbEntity
  8
AM_6
100
AcDbText
 10
9.65625
 20
-3.090625
 30
0.0
 40
0.5
  1
13.6
100
AcDbAttributeDefinition
  3

  2
WEIGHT
 70
     8
280
     0
  0
ATTDEF
  5
7D
330
6E
100
AcDbEntity
  8
AM_6
100
AcDbText
 10
9.65625
 20
-3.590625
 30
0.0
 40
0.5
  1
2-13/64
100
AcDbAttributeDefinition
  3

  2
A
 70
     8
280
     0
  0
ATTDEF
  5
7E
330
6E
100
AcDbEntity
  8
AM_6
100
AcDbText
 10
9.65625
 20
-4.090625
 30
0.0
 40
0.5
  1
9-1/4
100
AcDbAttributeDefinition
  3

  2
B
 70
     8
280
     0
  0
ATTDEF
  5
7F
330
6E
100
AcDbEntity
  8
AM_6
100
AcDbText
 10
9.65625
 20
-4.590625
 30
0.0
 40
0.5
  1
2-9/16
100
AcDbAttributeDefinition
  3

  2
C
 70
     8
280
     0
  0
ATTDEF
  5
80
330
6E
100
AcDbEntity
  8
AM_6
100
AcDbText
 10
9.65625
 20
-5.090625
 30
0.0
 40
0.5
  1
6-13/16
100
AcDbAttributeDefinition
  3

  2
DMIN
 70
     8
280
     0
  0
ATTDEF
  5
81
330
6E
100
AcDbEntity
  8
AM_6
100
AcDbText
 10
9.65625
 20
-5.590625
 30
0.0
 40
0.5
  1
7-7/16
100
AcDbAttributeDefinition
  3

  2
DMAX
 70
     8
280
     0
  0
ATTDEF
  5
82
330
6E
100
AcDbEntity
  8
AM_6
100
AcDbText
 10
9.65625
 20
-6.090625
 30
0.0
 40
0.5
  1
3/16
100
AcDbAttributeDefinition
  3

  2
E
 70
     8
280
     0
  0
ATTDEF
  5
83
330
6E
100
AcDbEntity
  8
AM_6
100
AcDbText
 10
9.65625
 20
-6.590625
 30
0.0
 40
0.5
  1
5/8
100
AcDbAttributeDefinition
  3

  2
F
 70
     8
280
     0
  0
ATTDEF
  5
84
330
6E
100
AcDbEntity
  8
AM_6
100
AcDbText
 10
9.65625
 20
-7.090625
 30
0.0
 40
0.5
  1
1
100
AcDbAttributeDefinition
  3

  2
G
 70
     8
280
     0
  0
ATTDEF
  5
85
330
6E
100
AcDbEntity
  8
AM_6
100
AcDbText
 10
9.65625
 20
-7.590625
 30
0.0
 40
0.5
  1
1-3/4
100
AcDbAttributeDefinition
  3

  2
H
 70
     8
280
     0
  0
ATTDEF
  5
86
330
6E
100
AcDbEntity
  8
AM_6
100
AcDbText
 10
9.65625
 20
-8.090625
 30
0.0
 40
0.5
  1
5-11/16
100
AcDbAttributeDefinition
  3

  2
J
 70
     8
280
     0
  0
ATTDEF
  5
87
330
6E
100
AcDbEntity
  8
AM_6
100
AcDbText
 10
9.65625
 20
-8.590625
 30
0.0
 40
0.5
  1
4-1/16
100
AcDbAttributeDefinition
  3

  2
L
 70
     8
280
     0
  0
ATTDEF
  5
88
330
6E
100
AcDbEntity
  8
AM_6
100
AcDbText
 10
9.65625
 20
-9.090625
 30
0.0
 40
0.5
  1
2-3/4
100
AcDbAttributeDefinition
  3

  2
M
 70
     8
280
     0
  0
ATTDEF
  5
89
330
6E
100
AcDbEntity
  8
AM_6
100
AcDbText
 10
9.65625
 20
-9.590625
 30
0.0
 40
0.5
  1
21/32
100
AcDbAttributeDefinition
  3

  2
R
 70
     8
280
     0
  0
ATTDEF
  5
8A
330
6E
100
AcDbEntity
  8
AM_6
100
AcDbText
 10
9.65625
 20
-10.090625
 30
0.0
 40
0.5
  1
1-35/64
100
AcDbAttributeDefinition
  3

  2
S
 70
     8
280
     0
  0
ATTDEF
  5
8B
330
6E
100
AcDbEntity
  8
AM_6
100
AcDbText
 10
9.65625
 20
-10.590625
 30
0.0
 40
0.5
  1
1900
100
AcDbAttributeDefinition
  3

  2
MRPM
 70
     8
280
     0
  0
ATTDEF
  5
8C
330
6E
100
AcDbEntity
  8
AM_6
100
AcDbText
 10
9.65625
 20
-11.090625
 30
0.0
 40
0.5
  1
46500
100
AcDbAttributeDefinition
  3

  2
CS
 70
     8
280
     0
  0
ATTDEF
  5
8D
330
6E
100
AcDbEntity
  8
AM_6
100
AcDbText
 10
9.65625
 20
-11.590625
 30
0.0
 40
0.5
  1
38000
100
AcDbAttributeDefinition
  3

  2
CD
 70
     8
280
     0
  0
ATTDEF
  5
8E
330
6E
100
AcDbEntity
  8
AM_6
100
AcDbText
 10
9.65625
 20
-12.090625
 30
0.0
 40
0.5
  1
18
100
AcDbAttributeDefinition
  3

  2
RN
 70
     8
280
     0
  0
ATTDEF
  5
8F
330
6E
100
AcDbEntity
  8
AM_6
100
AcDbText
 10
9.65625
 20
-12.590625
 30
0.0
 40
0.5
  1
0.5827
100
AcDbAttributeDefinition
  3

  2
RM
 70
     8
280
     0
  0
ATTDEF
  5
90
330
6E
100
AcDbEntity
  8
AM_6
100
AcDbText
 10
9.65625
 20
-13.090625
 30
0.0
 40
0.5
  1
3.795
100
AcDbAttributeDefinition
  3

  2
PD
 70
     8
280
     0
  0
ATTDEF
  5
91
330
6E
100
AcDbEntity
  8
AM_6
100
AcDbText
 10
9.65625
 20
-13.590625
 30
0.0
 40
0.5
  1
0.0016-0.0026
100
AcDbAttributeDefinition
  3

  2
RC
 70
     8
280
     0
  0
ATTDEF
  5
92
330
6E
100
AcDbEntity
  8
AM_6
100
AcDbText
 10
9.65625
 20
-14.090625
 30
0.0
 40
0.5
  1
3/8-16x3/4
100
AcDbAttributeDefinition
  3

  2
CSS
 70
     8
280
     0
  0
ATTDEF
  5
93
330
6E
100
AcDbEntity
  8
AM_6
100
AcDbText
 10
9.65625
 20
-14.590625
 30
0.0
 40
0.5
  1
290
100
AcDbAttributeDefinition
  3

  2
CST
 70
     8
280
     0
  0
ATTDEF
  5
94
330
6E
100
AcDbEntity
  8
AM_6
100
AcDbText
 10
9.65625
 20
-15.090625
 30
0.0
 40
0.5
  1
Ductile Iron Grade 65-45-12 ASTM A536
100
AcDbAttributeDefinition
  3

  2
MH
 70
     8
280
     0
  0
ATTDEF
  5
95
330
6E
100
AcDbEntity
  8
AM_6
100
AcDbText
 10
9.65625
 20
-15.590625
 30
0.0
 40
0.5
  1
4118 Case Carb.
100
AcDbAttributeDefinition
  3

  2
MIR
 70
     8
280
     0
  0
ATTDEF
  5
96
330
6E
100
AcDbEntity
  8
AM_6
100
AcDbText
 10
9.65625
 20
-16.090625
 30
0.0
 40
0.5
  1
E52100 Steel
100
AcDbAttributeDefinition
  3

  2
MOR
 70
     8
280
     0
  0
ATTDEF
  5
97
330
6E
100
AcDbEntity
  8
AM_6
100
AcDbText
 10
9.65625
 20
-16.590625
 30
0.0
 40
0.5
  1
Polyamide
100
AcDbAttributeDefinition
  3

  2
MR
 70
     8
280
     0
  0
ATTDEF
  5
98
330
6E
100
AcDbEntity
  8
AM_6
100
AcDbText
 10
9.65625
 20
-17.090625
 30
0.0
 40
0.5
  1
E52100 Steel
100
AcDbAttributeDefinition
  3

  2
MRO
 70
     8
280
     0
  0
ATTDEF
  5
99
330
6E
100
AcDbEntity
  8
AM_6
100
AcDbText
 10
9.65625
 20
-17.590625
 30
0.0
 40
0.5
  1
2°
100
AcDbAttributeDefinition
  3

  2
SM
 70
     8
280
     0
  0
ATTDEF
  5
9A
330
6E
100
AcDbEntity
  8
AM_6
100
AcDbText
 10
9.65625
 20
-18.090625
 30
0.0
 40
0.5
  1
baldor
100
AcDbAttributeDefinition
  3

  2
COMPANY
 70
     8
280
     0
  0
INSERT
  5
9C
330
6E
100
AcDbEntity
  8
0
100
AcDbBlockReference
  2
2_421250_0_in_048007_4
 10
0.0
 20
0.0
 30
0.0
  0
INSERT
  5
E6
330
6E
100
AcDbEntity
  8
0
100
AcDbBlockReference
  2
3_405020c_Inch_0_in_048007_4
 10
0.0
 20
0.0
 30
0.0
  0
INSERT
  5
13F
330
6E
100
AcDbEntity
  8
0
100
AcDbBlockReference
  2
4_048007B_0_in_048007_4
 10
0.0
 20
0.0
 30
0.0
  0
ENDBLK
  5
71
330
6E
100
AcDbEntity
  8
0
100
AcDbBlockEnd
  0
BLOCK
  5
9D
330
9B
100
AcDbEntity
  8
0
100
AcDbBlockBegin
  2
2_421250_0_in_048007_4
 70
     2
 10
0.0
 20
0.0
 30
0.0
  3
2_421250_0_in_048007_4
  1

  0
ATTDEF
  5
9F
330
9B
100
AcDbEntity
  8
AM_6
100
AcDbText
 10
7.03125
 20
0.6562500000000001
 30
0.0
 40
0.5
  1
Unisphere II Insert With Seal - Inch
100
AcDbAttributeDefinition
  3

  2
NN
 70
     8
280
     0
  0
ATTDEF
  5
A0
330
9B
100
AcDbEntity
  8
AM_6
100
AcDbText
 10
7.03125
 20
0.1562500000000001
 30
0.0
 40
0.5
  1
Unisphere II
100
AcDbAttributeDefinition
  3

  2
NT
 70
     8
280
     0
  0
ATTDEF
  5
A1
330
9B
100
AcDbEntity
  8
AM_6
100
AcDbText
 10
7.03125
 20
-0.3437499999999999
 30
0.0
 40
0.5
  1
421250
100
AcDbAttributeDefinition
  3

  2
NB
 70
     8
280
     0
  0
ATTDEF
  5
A2
330
9B
100
AcDbEntity
  8
AM_6
100
AcDbText
 10
7.03125
 20
-0.8437499999999999
 30
0.0
 40
0.5
  1
$PN.
100
AcDbAttributeDefinition
  3

  2
NBSYN
 70
     8
280
     0
  0
ATTDEF
  5
A3
330
9B
100
AcDbEntity
  8
AM_6
100
AcDbText
 10
7.03125
 20
-1.34375
 30
0.0
 40
0.5
  1
421250
100
AcDbAttributeDefinition
  3

  2
LINA
 70
     8
280
     0
  0
ATTDEF
  5
A4
330
9B
100
AcDbEntity
  8
AM_6
100
AcDbText
 10
7.03125
 20
-1.84375
 30
0.0
 40
0.5
  1
2-7/16
100
AcDbAttributeDefinition
  3

  2
SS
 70
     8
280
     0
  0
ATTDEF
  5
A5
330
9B
100
AcDbEntity
  8
AM_6
100
AcDbText
 10
7.03125
 20
-2.34375
 30
0.0
 40
0.5
  1
2.43750
100
AcDbAttributeDefinition
  3

  2
SS1
 70
     8
280
     0
  0
ATTDEF
  5
A6
330
9B
100
AcDbEntity
  8
AM_6
100
AcDbText
 10
7.03125
 20
-2.84375
 30
0.0
 40
0.5
  1
4.7244
100
AcDbAttributeDefinition
  3

  2
A
 70
     8
280
     0
  0
ATTDEF
  5
A7
330
9B
100
AcDbEntity
  8
AM_6
100
AcDbText
 10
7.03125
 20
-3.34375
 30
0.0
 40
0.5
  1
4.06250
100
AcDbAttributeDefinition
  3

  2
A1
 70
     8
280
     0
  0
ATTDEF
  5
A8
330
9B
100
AcDbEntity
  8
AM_6
100
AcDbText
 10
7.03125
 20
-3.84375
 30
0.0
 40
0.5
  1
1.2705
100
AcDbAttributeDefinition
  3

  2
B
 70
     8
280
     0
  0
ATTDEF
  5
A9
330
9B
100
AcDbEntity
  8
AM_6
100
AcDbText
 10
7.03125
 20
-4.34375
 30
0.0
 40
0.5
  1
1.27050
100
AcDbAttributeDefinition
  3

  2
B1
 70
     8
280
     0
  0
ATTDEF
  5
AA
330
9B
100
AcDbEntity
  8
AM_6
100
AcDbText
 10
7.03125
 20
-4.84375
 30
0.0
 40
0.5
  1
2-13/64
100
AcDbAttributeDefinition
  3

  2
C
 70
     8
280
     0
  0
ATTDEF
  5
AB
330
9B
100
AcDbEntity
  8
AM_6
100
AcDbText
 10
7.03125
 20
-5.34375
 30
0.0
 40
0.5
  1
2.20313
100
AcDbAttributeDefinition
  3

  2
C1
 70
     8
280
     0
  0
ATTDEF
  5
AC
330
9B
100
AcDbEntity
  8
AM_6
100
AcDbText
 10
7.03125
 20
-5.84375
 30
0.0
 40
0.5
  1
0.747
100
AcDbAttributeDefinition
  3

  2
D
 70
     8
280
     0
  0
ATTDEF
  5
AD
330
9B
100
AcDbEntity
  8
AM_6
100
AcDbText
 10
7.03125
 20
-6.34375
 30
0.0
 40
0.5
  1
0.74700
100
AcDbAttributeDefinition
  3

  2
D1
 70
     8
280
     0
  0
ATTDEF
  5
AE
330
9B
100
AcDbEntity
  8
AM_6
100
AcDbText
 10
7.03125
 20
-6.84375
 30
0.0
 40
0.5
  1
0.317
100
AcDbAttributeDefinition
  3

  2
E
 70
     8
280
     0
  0
ATTDEF
  5
AF
330
9B
100
AcDbEntity
  8
AM_6
100
AcDbText
 10
7.03125
 20
-7.34375
 30
0.0
 40
0.5
  1
0.31700
100
AcDbAttributeDefinition
  3

  2
E1
 70
     8
280
     0
  0
ATTDEF
  5
B0
330
9B
100
AcDbEntity
  8
AM_6
100
AcDbText
 10
7.03125
 20
-7.84375
 30
0.0
 40
0.5
  1
421250
100
AcDbAttributeDefinition
  3

  2
PN
 70
     8
280
     0
  0
ATTDEF
  5
B1
330
9B
100
AcDbEntity
  8
AM_6
100
AcDbText
 10
7.03125
 20
-8.34375
 30
0.0
 40
0.5
  1
baldor
100
AcDbAttributeDefinition
  3

  2
COMPANY
 70
     8
280
     0
  0
LINE
  5
B4
330
9B
100
AcDbEntity
  8
AM_9
100
AcDbLine
 10
-1.811917533984799
 20
-1.373970909090909
 30
0.0
 11
-1.104562318077956
 21
-1.373970909090909
 31
0.0
  0
LINE
  5
B5
330
9B
100
AcDbEntity
  8
AM_9
100
AcDbLine
 10
-1.104512228683432
 20
-1.085789090909091
 30
0.0
 11
-1.811917533984799
 21
-1.085789090909091
 31
0.0
  0
LWPOLYLINE
  5
B6
330
9B
100
AcDbEntity
  8
AM_9
100
AcDbPolyline
 90
       21
 70
     0
 43
0.0
 10
-1.104557158508974
 20
-1.085789091487621
 10
-1.111311815275323
 20
-1.086702763636797
 10
-1.120809277788289
 20
-1.091423046163234
 10
-1.129475285430513
 20
-1.09998872690895
 10
-1.1371389137278
 20
-1.112239696853742
 10
-1.143676914243092
 20
-1.127766016255498
 10
-1.149026279232307
 20
-1.146298636014775
 10
-1.153117286881021
 20
-1.167196536070586
 10
-1.155915728231252
 20
-1.189910541962985
 10
-1.157426385292346
 20
-1.213766602980898
 10
-1.157636940273521
 20
-1.23794386466098
 10
-1.156572895139807
 20
-1.261892686898208
 10
-1.15423164361696
 20
-1.284855815277177
 10
-1.150629799143932
 20
-1.306280569930765
 10
-1.145741247754878
 20
-1.325633016401994
 10
-1.139628306547856
 20
-1.342303007761338
 10
-1.132295520217197
 20
-1.35584596285077
 10
-1.123893434373373
 20
-1.36582999414889
 10
-1.114583757746415
 20
-1.371902989767201
 10
-1.104576594272126
 20
-1.373970905294235
 10
-1.104562714570295
 20
-1.373970909090718
  0
LWPOLYLINE
  5
B7
330
9B
100
AcDbEntity
  8
AM_9
100
AcDbPolyline
 90
       10
 70
     0
 43
0.0
 10
-1.104562714570295
 20
-1.373970909090718
 10
-1.094192193155466
 20
-1.371939385770098
 10
-1.083693244677211
 20
-1.365950227092948
 10
-1.073426569944168
 20
-1.356126757207401
 10
-1.063752337774227
 20
-1.342798726824409
 10
-1.054996552071056
 20
-1.326186531173617
 10
-1.047557301160908
 20
-1.306864994050253
 10
-1.041756739272491
 20
-1.285270348249502
 10
-1.037850210716698
 20
-1.262094970817082
 10
-1.035920231036759
 20
-1.22988
  0
ELLIPSE
  5
B8
330
9B
100
AcDbEntity
  8
AM_9
100
AcDbEllipse
 10
-1.811917533984799
 20
-1.229879999999999
 30
0.0
 11
-2.646907059066234E-17
 21
-0.1440909090909104
 31
0.0
210
0.0
220
0.0
230
1.0
 40
0.422618261740698
 41
0.3008382907007112
 42
2.849304521267851
  0
LINE
  5
B9
330
9B
100
AcDbEntity
  8
AM_9
100
AcDbLine
 10
-1.78352151952094
 20
-1.102413923448507
 30
0.0
 11
-1.80486672033283
 21
-1.075790340806821
 31
0.0
  0
LINE
  5
BA
330
9B
100
AcDbEntity
  8
AM_9
100
AcDbLine
 10
-1.805013593082283
 20
-1.384152851603375
 30
0.0
 11
-1.78352151952094
 21
-1.357346076551493
 31
0.0
  0
LWPOLYLINE
  5
BB
330
9B
100
AcDbEntity
  8
AM_9
100
AcDbPolyline
 90
       11
 70
     0
 43
0.0
 10
-1.035920231036759
 20
-1.22988
 10
-1.037004141994567
 20
-1.205786427810003
 10
-1.040169717199014
 20
-1.182374284764502
 10
-1.045303470008306
 20
-1.160325587853564
 10
-1.052148583002359
 20
-1.140227019080628
 10
-1.060475594982056
 20
-1.122595370239045
 10
-1.069898130640625
 20
-1.107978147460764
 10
-1.080090667964789
 20
-1.09680431705384
 10
-1.090644132277826
 20
-1.08939442160451
 10
-1.101142232387643
 20
-1.086027802967933
 10
-1.104557158508974
 20
-1.085789091487621
  0
LINE
  5
BC
330
9B
100
AcDbEntity
  8
AM_9
100
AcDbLine
 10
1.21875
 20
-1.54688
 30
0.0
 11
1.21875
 21
0.6562499999999996
 31
0.0
  0
LINE
  5
BD
330
9B
100
AcDbEntity
  8
AM_9
100
AcDbLine
 10
-1.21875
 20
0.6562499999999996
 30
0.0
 11
-1.21875
 21
-1.54688
 31
0.0
  0
LINE
  5
BE
330
9B
100
AcDbEntity
  8
AM_9
100
AcDbLine
 10
1.450892857142857
 20
-0.9128799999999998
 30
0.0
 11
1.450892857142857
 21
-0.6142500000000002
 31
0.0
  0
LINE
  5
BF
330
9B
100
AcDbEntity
  8
AM_9
100
AcDbLine
 10
-1.450892857142857
 20
-0.6142500000000002
 30
0.0
 11
-1.450892857142857
 21
-0.9128799999999998
 31
0.0
  0
LINE
  5
C0
330
9B
100
AcDbEntity
  8
AM_9
100
AcDbLine
 10
1.031522506073
 20
-0.9128799999999997
 30
0.0
 11
2.011249999994507
 21
-0.9128799999999998
 31
0.0
  0
LINE
  5
C1
330
9B
100
AcDbEntity
  8
AM_9
100
AcDbLine
 10
-2.01125
 20
-0.9128799999999998
 30
0.0
 11
-1.031522506073
 21
-0.9128799999999997
 31
0.0
  0
ARC
  5
C2
330
9B
100
AcDbEntity
  8
AM_9
100
AcDbCircle
 10
2.01125
 20
-0.9328799999999997
 30
0.0
 40
0.02
100
AcDbArc
 50
0.0
 51
90.0
  0
ARC
  5
C3
330
9B
100
AcDbEntity
  8
AM_9
100
AcDbCircle
 10
-2.01125
 20
-0.9328799999999997
 30
0.0
 40
0.0199999999999999
100
AcDbArc
 50
90.0
 51
180.0
  0
LINE
  5
C4
330
9B
100
AcDbEntity
  8
AM_9
100
AcDbLine
 10
1.463337855461394
 20
-0.9328799999999993
 30
0.0
 11
2.03125
 21
-0.9328799999999994
 31
0.0
  0
LINE
  5
C5
330
9B
100
AcDbEntity
  8
AM_9
100
AcDbLine
 10
-2.03125
 20
-0.9328799999999994
 30
0.0
 11
-1.463337855461394
 21
-0.9328799999999993
 31
0.0
  0
LINE
  5
C6
330
9B
100
AcDbEntity
  8
AM_9
100
AcDbLine
 10
2.03125
 20
-0.9802187121197188
 30
0.0
 11
2.03125
 21
-0.9328799999999994
 31
0.0
  0
LINE
  5
C7
330
9B
100
AcDbEntity
  8
AM_9
100
AcDbLine
 10
-2.03125
 20
-0.9328799999999994
 30
0.0
 11
-2.03125
 21
-0.9802187121197188
 31
0.0
  0
LINE
  5
C8
330
9B
100
AcDbEntity
  8
AM_9
100
AcDbLine
 10
-2.01125
 20
-0.6142500000000002
 30
0.0
 11
2.011249999994507
 21
-0.6142500000000002
 31
0.0
  0
ARC
  5
C9
330
9B
100
AcDbEntity
  8
AM_9
100
AcDbCircle
 10
2.011250000000001
 20
-0.5942500000000009
 30
0.0
 40
0.0199999999999992
100
AcDbArc
 50
270.0
 51
0.0
  0
ARC
  5
CA
330
9B
100
AcDbEntity
  8
AM_9
100
AcDbCircle
 10
-2.01125
 20
-0.5942500000000003
 30
0.0
 40
0.02
100
AcDbArc
 50
180.0
 51
270.0
  0
LINE
  5
CB
330
9B
100
AcDbEntity
  8
AM_9
100
AcDbLine
 10
-2.01125
 20
0.6562499999999999
 30
0.0
 11
2.011249999994507
 21
0.6562499999999999
 31
0.0
  0
ARC
  5
CC
330
9B
100
AcDbEntity
  8
AM_9
100
AcDbCircle
 10
2.011250000000001
 20
0.6362500000000005
 30
0.0
 40
0.0199999999999996
100
AcDbArc
 50
0.0
 51
90.0
  0
ARC
  5
CD
330
9B
100
AcDbEntity
  8
AM_9
100
AcDbCircle
 10
-2.011250000000001
 20
0.6362500000000005
 30
0.0
 40
0.0199999999999994
100
AcDbArc
 50
90.0
 51
180.0
  0
LINE
  5
CE
330
9B
100
AcDbEntity
  8
AM_9
100
AcDbLine
 10
-2.03125
 20
-0.5942500000000002
 30
0.0
 11
2.03125
 21
-0.5942500000000002
 31
0.0
  0
LINE
  5
CF
330
9B
100
AcDbEntity
  8
AM_9
100
AcDbLine
 10
-2.03125
 20
0.6362500000000006
 30
0.0
 11
2.03125
 21
0.6362500000000006
 31
0.0
  0
LINE
  5
D0
330
9B
100
AcDbEntity
  8
AM_9
100
AcDbLine
 10
2.03125
 20
-0.5942500000000002
 30
0.0
 11
2.03125
 21
0.6362500000000006
 31
0.0
  0
LINE
  5
D1
330
9B
100
AcDbEntity
  8
AM_9
100
AcDbLine
 10
-2.03125
 20
0.6362500000000006
 30
0.0
 11
-2.03125
 21
-0.5942500000000002
 31
0.0
  0
LINE
  5
D4
330
9B
100
AcDbEntity
  8
AM_7
100
AcDbLine
 10
-0.1512954545454546
 20
-1.22988
 30
0.0
 11
0.1512954545454546
 21
-1.22988
 31
0.0
  0
ELLIPSE
  5
D6
330
9B
100
AcDbEntity
  8
AM_4
100
AcDbEllipse
 10
-1.811917533984799
 20
-1.22988
 30
0.0
 11
-2.646907059066214E-17
 21
-0.1440909090909093
 31
0.0
210
0.0
220
0.0
230
1.0
 40
0.4226182617406997
 41
2.849304521267853
 42
6.584023597880298
  0
LWPOLYLINE
  5
D7
330
9B
100
AcDbEntity
  8
AM_4
100
AcDbPolyline
 90
       15
 70
     0
 43
0.0
 10
-1.805066692190262
 20
-1.075540920103759
 10
-1.799983529559336
 20
-1.082429000281939
 10
-1.789827192812837
 20
-1.099953511830784
 10
-1.780952762973092
 20
-1.120729997451301
 10
-1.773409122921305
 20
-1.145173241479707
 10
-1.767799184379436
 20
-1.171807054276762
 10
-1.764252877841895
 20
-1.200976923847879
 10
-1.763102428974302
 20
-1.230929424768482
 10
-1.764476579110384
 20
-1.261458790974821
 10
-1.76833641159692
 20
-1.291097425020295
 10
-1.77458145484629
 20
-1.318980849605752
 10
-1.78294504877871
 20
-1.344278783865118
 10
-1.792920118212662
 20
-1.365727570930529
 10
-1.804265870818999
 20
-1.383206795002887
 10
-1.805070643476571
 20
-1.384224009352085
  0
LWPOLYLINE
  5
D8
330
9B
100
AcDbEntity
  8
AM_4
100
AcDbPolyline
 90
       19
 70
     0
 43
0.0
 10
-1.805070643476571
 20
-1.384224009352085
 10
-1.816096982168795
 20
-1.395623817363415
 10
-1.828396615166701
 20
-1.403336288176048
 10
-1.840258009770791
 20
-1.405964166109367
 10
-1.851803109302995
 20
-1.403881904353946
 10
-1.862504098740408
 20
-1.397258834811914
 10
-1.872335919724895
 20
-1.386392966393746
 10
-1.881195260134723
 20
-1.371359396106609
 10
-1.888816212728232
 20
-1.352798096886176
 10
-1.895287047161522
 20
-1.330382475488939
 10
-1.900265344514313
 20
-1.305401420168999
 10
-1.903805094627545
 20
-1.277425029727612
 10
-1.905681176609858
 20
-1.248180080206073
 10
-1.905853467995876
 20
-1.217663740826153
 10
-1.904266765908891
 20
-1.187487911959897
 10
-1.900878501450781
 20
-1.158319941969082
 10
-1.895728789011943
 20
-1.131213241257015
 10
-1.890609237129164
 20
-1.112411838261623
 10
-1.884508566574245
 20
-1.095672363090467
  0
LINE
  5
D9
330
9B
100
AcDbEntity
  8
AM_4
100
AcDbLine
 10
-1.031522506073
 20
-0.9128799999999997
 30
0.0
 11
1.031522506073
 21
-0.9128799999999997
 31
0.0
  0
LINE
  5
DA
330
9B
100
AcDbEntity
  8
AM_4
100
AcDbLine
 10
-1.463337855461394
 20
-0.9328799999999993
 30
0.0
 11
1.463337855461394
 21
-0.9328799999999993
 31
0.0
  0
LWPOLYLINE
  5
DB
330
9B
100
AcDbEntity
  8
AM_4
100
AcDbPolyline
 90
        9
 70
     0
 43
0.0
 10
-1.884508566574245
 20
-1.095672363090467
 10
-1.876754531603833
 20
-1.080145336713433
 10
-1.867983335001526
 20
-1.06790208528668
 10
-1.85726878110049
 20
-1.058663353777141
 10
-1.845740419376394
 20
-1.054172651348798
 10
-1.834091486486558
 20
-1.054584550845479
 10
-1.822312682785698
 20
-1.059593302004946
 10
-1.810858031546023
 20
-1.068992408617482
 10
-1.805066692190262
 20
-1.075540920103759
  0
LINE
  5
DC
330
9B
100
AcDbEntity
  8
AM_4
100
AcDbLine
 10
2.03125
 20
-1.5028174
 30
0.0
 11
2.03125
 21
-0.9802187121197188
 31
0.0
  0
LINE
  5
DD
330
9B
100
AcDbEntity
  8
AM_4
100
AcDbLine
 10
-2.03125
 20
-0.9802187121197188
 30
0.0
 11
-2.03125
 21
-1.5028174
 31
0.0
  0
LWPOLYLINE
  5
DE
330
9B
100
AcDbEntity
  8
AM_4
100
AcDbPolyline
 90
       39
 70
     0
 43
0.0
 10
-0.1218793257222729
 20
-1.107876383767588
 10
-0.1034038646862297
 20
-1.090588713857058
 10
-0.0820682516566785
 20
-1.075936859624079
 10
-0.0564483148292554
 20
-1.063889010412387
 10
-0.0282638525990876
 20
-1.056250933208035
 10
-0.0010553637986398
 20
-1.0537723252742
 10
0.0269964525898847
 20
-1.056031916648957
 10
0.0530250899563866
 20
-1.062667178795058
 10
0.0782884767691626
 20
-1.07381359979933
 10
0.1010763807828814
 20
-1.088746381704702
 10
0.1216865390108573
 20
-1.10766775625276
 10
0.1391270915306047
 20
-1.129873268828194
 10
0.1531229671209378
 20
-1.155273397455268
 10
0.1629353812941049
 20
-1.182927001175858
 10
0.1682476011223772
 20
-1.212614416260895
 10
0.1686132036813882
 20
-1.242711760135349
 10
0.1638371343605214
 20
-1.273299383468861
 10
0.1542185692493047
 20
-1.301998726473953
 10
0.1394303612904013
 20
-1.329427606313012
 10
0.1209900129409713
 20
-1.352840326870425
 10
0.0980672367917632
 20
-1.373299826994626
 10
0.0735659781725357
 20
-1.388422017242597
 10
0.0459436395540646
 20
-1.399354311744691
 10
0.0188777873256056
 20
-1.404888176874985
 10
-0.0095849847599719
 20
-1.405707434195936
 10
-0.0362303376917829
 20
-1.401893879294097
 10
-0.0626001961656575
 20
-1.393456976234612
 10
-0.0866381222190167
 20
-1.381079501066348
 10
-0.1089317577624552
 20
-1.364520244070694
 10
-0.1283249989962127
 20
-1.344488572466155
 10
-0.1446614845257855
 20
-1.320973856530441
 10
-0.15714570511506
 20
-1.294788715826402
 10
-0.1654327678895552
 20
-1.266155068570625
 10
-0.1689455016381425
 20
-1.236446144233995
 10
-0.1674623956132463
 20
-1.205719496232461
 10
-0.1609876118214598
 20
-1.176136416332876
 10
-0.1492772355660491
 20
-1.14725452812528
 10
-0.1370513205028487
 20
-1.126811482021964
 10
-0.1218793257772645
 20
-1.107876383733321
  0
LINE
  5
DF
330
9B
100
AcDbEntity
  8
AM_4
100
AcDbLine
 10
-1.9871874
 20
-1.54688
 30
0.0
 11
1.987187399999593
 21
-1.54688
 31
0.0
  0
LINE
  5
E0
330
9B
100
AcDbEntity
  8
AM_4
100
AcDbLine
 10
-2.03125
 20
-1.5028174
 30
0.0
 11
2.03125
 21
-1.5028174
 31
0.0
  0
ARC
  5
E1
330
9B
100
AcDbEntity
  8
AM_4
100
AcDbCircle
 10
1.9871874
 20
-1.5028174
 30
0.0
 40
0.0440626000000004
100
AcDbArc
 50
270.0
 51
0.0
  0
ARC
  5
E2
330
9B
100
AcDbEntity
  8
AM_4
100
AcDbCircle
 10
-1.987187399999999
 20
-1.5028174
 30
0.0
 40
0.0440626000000006
100
AcDbArc
 50
180.0
 51
270.0
  0
ARC
  5
E4
330
9B
100
AcDbEntity
  8
AM_5
100
AcDbCircle
 10
0.0
 20
-1.22988
 30
0.0
 40
0.144090909090909
100
AcDbArc
 50
75.0
 51
14.99999999999985
  0
ENDBLK
  5
9E
330
9B
100
AcDbEntity
  8
0
100
AcDbBlockEnd
  0
BLOCK
  5
E7
330
E5
100
AcDbEntity
  8
0
100
AcDbBlockBegin
  2
3_405020c_Inch_0_in_048007_4
 70
     2
 10
0.0
 20
0.0
 30
0.0
  3
3_405020c_Inch_0_in_048007_4
  1

  0
ATTDEF
  5
E9
330
E5
100
AcDbEntity
  8
AM_6
100
AcDbText
 10
6.723514187290243
 20
0.1624086307230419
 30
0.0
 40
0.5
  1
405020C -Inch
100
AcDbAttributeDefinition
  3

  2
NN
 70
     8
280
     0
  0
ATTDEF
  5
EA
330
E5
100
AcDbEntity
  8
AM_6
100
AcDbText
 10
6.723514187290243
 20
-0.3375913692769581
 30
0.0
 40
0.5
  1
Grease fitting
100
AcDbAttributeDefinition
  3

  2
NT
 70
     8
280
     0
  0
ATTDEF
  5
EB
330
E5
100
AcDbEntity
  8
AM_6
100
AcDbText
 10
6.723514187290243
 20
-0.8375913692769581
 30
0.0
 40
0.5
  1
405020c-Inch
100
AcDbAttributeDefinition
  3

  2
NB
 70
     8
280
     0
  0
ATTDEF
  5
EC
330
E5
100
AcDbEntity
  8
AM_6
100
AcDbText
 10
6.723514187290243
 20
-1.337591369276958
 30
0.0
 40
0.5
  1
$MN.-Inch
100
AcDbAttributeDefinition
  3

  2
NBSYN
 70
     8
280
     0
  0
ATTDEF
  5
ED
330
E5
100
AcDbEntity
  8
AM_6
100
AcDbText
 10
6.723514187290243
 20
-1.837591369276958
 30
0.0
 40
0.5
  1
405020c
100
AcDbAttributeDefinition
  3

  2
LINA
 70
     8
280
     0
  0
ATTDEF
  5
EE
330
E5
100
AcDbEntity
  8
AM_6
100
AcDbText
 10
6.723514187290243
 20
-2.337591369276958
 30
0.0
 40
0.5
  1
405020c
100
AcDbAttributeDefinition
  3

  2
MN
 70
     8
280
     0
  0
ATTDEF
  5
EF
330
E5
100
AcDbEntity
  8
AM_6
100
AcDbText
 10
6.723514187290243
 20
-2.837591369276958
 30
0.0
 40
0.5
  1
0.230
100
AcDbAttributeDefinition
  3

  2
NDR
 70
     8
280
     0
  0
ATTDEF
  5
F0
330
E5
100
AcDbEntity
  8
AM_6
100
AcDbText
 10
6.723514187290243
 20
-3.337591369276958
 30
0.0
 40
0.5
  1
0.210
100
AcDbAttributeDefinition
  3

  2
KDR
 70
     8
280
     0
  0
ATTDEF
  5
F1
330
E5
100
AcDbEntity
  8
AM_6
100
AcDbText
 10
6.723514187290243
 20
-3.837591369276958
 30
0.0
 40
0.5
  1
0.157
100
AcDbAttributeDefinition
  3

  2
BZE
 70
     8
280
     0
  0
ATTDEF
  5
F2
330
E5
100
AcDbEntity
  8
AM_6
100
AcDbText
 10
6.723514187290243
 20
-4.337591369276958
 30
0.0
 40
0.5
  1
9/32
100
AcDbAttributeDefinition
  3

  2
WAF
 70
     8
280
     0
  0
ATTDEF
  5
F3
330
E5
100
AcDbEntity
  8
AM_6
100
AcDbText
 10
6.723514187290243
 20
-4.837591369276958
 30
0.0
 40
0.5
  1
0.2813
100
AcDbAttributeDefinition
  3

  2
WAF1
 70
     8
280
     0
  0
ATTDEF
  5
F4
330
E5
100
AcDbEntity
  8
AM_6
100
AcDbText
 10
6.723514187290243
 20
-5.337591369276958
 30
0.0
 40
0.5
  1
0.545
100
AcDbAttributeDefinition
  3

  2
BL
 70
     8
280
     0
  0
ATTDEF
  5
F5
330
E5
100
AcDbEntity
  8
AM_6
100
AcDbText
 10
6.723514187290243
 20
-5.837591369276958
 30
0.0
 40
0.5
  1
0.200
100
AcDbAttributeDefinition
  3

  2
TL
 70
     8
280
     0
  0
ATTDEF
  5
F6
330
E5
100
AcDbEntity
  8
AM_6
100
AcDbText
 10
6.723514187290243
 20
-6.337591369276958
 30
0.0
 40
0.5
  1
baldor
100
AcDbAttributeDefinition
  3

  2
COMPANY
 70
     8
280
     0
  0
ELLIPSE
  5
F7
330
E5
100
AcDbEntity
  8
AM_9
100
AcDbEllipse
 10
1.36875
 20
0.0000000000000001
 30
0.0
 11
-1.838598171376523E-17
 21
-0.1000886227036577
 31
0.0
210
0.0
220
0.0
230
1.0
 40
0.8660254037844382
 41
0.0
 42
6.283185307179586
  0
LINE
  5
F8
330
E5
100
AcDbEntity
  8
AM_9
100
AcDbLine
 10
1.571389794168768
 20
0.094871965724902
 30
0.0
 11
1.593471576807604
 21
0.081204315361521
 31
0.0
  0
LINE
  5
F9
330
E5
100
AcDbEntity
  8
AM_9
100
AcDbLine
 10
1.529653236521141
 20
0.1218064730422815
 30
0.0
 11
1.571389794168768
 21
0.094871965724902
 31
0.0
  0
LWPOLYLINE
  5
FA
330
E5
100
AcDbEntity
  8
AM_9
100
AcDbPolyline
 90
        4
 70
     0
 43
0.0
 10
1.593471576807604
 20
0.081204315361521
 10
1.592322372260407
 20
0.0623017518439033
 10
1.591015768908418
 20
0.0312428256208205
 10
1.590556473042281
 20
0.0000000000000002
  0
LWPOLYLINE
  5
FB
330
E5
100
AcDbEntity
  8
AM_9
100
AcDbPolyline
 90
        3
 70
     0
 43
0.0
 10
1.575084120483276
 20
-0.0925621168663215
 10
1.561018008735289
 20
-0.1014141150849084
 10
1.529653236521141
 20
-0.1218064730422812
  0
LINE
  5
FC
330
E5
100
AcDbEntity
  8
AM_9
100
AcDbLine
 10
1.593471576807604
 20
-0.0812043153615207
 30
0.0
 11
1.575084120483276
 21
-0.0925621168663215
 31
0.0
  0
LWPOLYLINE
  5
FD
330
E5
100
AcDbEntity
  8
AM_9
100
AcDbPolyline
 90
        3
 70
     0
 43
0.0
 10
1.590556473042281
 20
0.0000000000000002
 10
1.591325910773516
 20
-0.0406021576807603
 10
1.593471576807604
 20
-0.0812043153615207
  0
LINE
  5
FE
330
E5
100
AcDbEntity
  8
AM_9
100
AcDbLine
 10
1.620974702610291
 20
-0.0812043153615207
 30
0.0
 11
1.593471576807604
 21
-0.0812043153615207
 31
0.0
  0
LINE
  5
FF
330
E5
100
AcDbEntity
  8
AM_9
100
AcDbLine
 10
1.620974702610291
 20
0.081204315361521
 30
0.0
 11
1.593471576807604
 21
0.081204315361521
 31
0.0
  0
LWPOLYLINE
  5
100
330
E5
100
AcDbEntity
  8
AM_9
100
AcDbPolyline
 90
        3
 70
     0
 43
0.0
 10
1.562986569854474
 20
-0.1218064730422811
 10
1.59266875038381
 20
-0.1015053942019009
 10
1.620974702610291
 20
-0.0812043153615207
  0
LWPOLYLINE
  5
101
330
E5
100
AcDbEntity
  8
AM_9
100
AcDbPolyline
 90
        3
 70
     0
 43
0.0
 10
1.620974702610291
 20
-0.0812043153615207
 10
1.623113571097526
 20
-0.0407847159147453
 10
1.623889806375614
 20
0.0000000000000002
  0
LWPOLYLINE
  5
102
330
E5
100
AcDbEntity
  8
AM_9
100
AcDbPolyline
 90
        3
 70
     0
 43
0.0
 10
1.620974702610291
 20
0.081204315361521
 10
1.592798871512444
 20
0.1014141150849087
 10
1.562986569854474
 20
0.1218064730422815
  0
LWPOLYLINE
  5
103
330
E5
100
AcDbEntity
  8
AM_9
100
AcDbPolyline
 90
        4
 70
     0
 43
0.0
 10
1.623889806375614
 20
0.0000000000000002
 10
1.623433178075432
 20
0.0311508759219517
 10
1.622123907157488
 20
0.0623017518439033
 10
1.620974702610291
 20
0.081204315361521
  0
LWPOLYLINE
  5
104
330
E5
100
AcDbEntity
  8
AM_9
100
AcDbPolyline
 90
        3
 70
     0
 43
0.0
 10
1.471665103765323
 20
0.1624086307230419
 10
1.499840934863171
 20
0.1421988309996542
 10
1.529653236521141
 20
0.1218064730422815
  0
LWPOLYLINE
  5
105
330
E5
100
AcDbEntity
  8
AM_9
100
AcDbPolyline
 90
        3
 70
     0
 43
0.0
 10
1.529653236521141
 20
-0.1218064730422812
 10
1.499971055991805
 20
-0.1421075518826614
 10
1.471665103765323
 20
-0.1624086307230415
  0
LINE
  5
106
330
E5
100
AcDbEntity
  8
AM_9
100
AcDbLine
 10
1.368737797620406
 20
-0.1102543821984235
 30
0.0
 11
1.463292745618578
 21
-0.1161730389165064
 31
0.0
  0
LINE
  5
107
330
E5
100
AcDbEntity
  8
AM_9
100
AcDbLine
 10
1.463292745618578
 20
0.1161730389165067
 30
0.0
 11
1.368737797620406
 21
0.1102543821984237
 31
0.0
  0
LINE
  5
108
330
E5
100
AcDbEntity
  8
AM_9
100
AcDbLine
 10
1.562986569854474
 20
0.1218064730422815
 30
0.0
 11
1.552012380346402
 21
0.1290560268917064
 31
0.0
  0
LINE
  5
109
330
E5
100
AcDbEntity
  8
AM_9
100
AcDbLine
 10
1.552063859268057
 20
-0.1290223235530604
 30
0.0
 11
1.562986569854474
 21
-0.1218064730422811
 31
0.0
  0
ELLIPSE
  5
10A
330
E5
100
AcDbEntity
  8
AM_9
100
AcDbEllipse
 10
1.50208333333321
 20
-0.0000000000000768
 30
0.0
 11
8.612328615009058E-18
 21
0.1406500000000865
 31
0.0
210
0.0
220
0.0
230
1.0
 40
0.8660254037847278
 41
3.545381405698159
 42
5.878268126800306
  0
ELLIPSE
  5
10B
330
E5
100
AcDbEntity
  8
AM_9
100
AcDbEllipse
 10
1.517743608043448
 20
0.0000000000000001
 30
0.0
 11
6.694498085252778E-18
 21
0.1093294505797712
 31
0.0
210
0.0
220
0.0
230
1.0
 40
0.8660254037844298
 41
3.131586507953231
 42
6.283185307179586
  0
LWPOLYLINE
  5
10C
330
E5
100
AcDbEntity
  8
AM_9
100
AcDbPolyline
 90
        4
 70
     0
 43
0.0
 10
1.484271312957046
 20
-0.0691735730497429
 10
1.482433264314181
 20
-0.0669519928187739
 10
1.47529780980567
 20
-0.0566698298706446
 10
1.47449659142584
 20
-0.0553095241239439
  0
LWPOLYLINE
  5
10D
330
E5
100
AcDbEntity
  8
AM_9
100
AcDbPolyline
 90
       27
 70
     0
 43
0.0
 10
1.535421277573111
 20
0.0946847896390989
 10
1.53963714748357
 20
0.0945328082471535
 10
1.550534602952622
 20
0.0927151099614863
 10
1.561168343506293
 20
0.0888622036527282
 10
1.571184676853258
 20
0.0831241332118707
 10
1.580372598538787
 20
0.0756883210636047
 10
1.588587875936262
 20
0.0667280954587628
 10
1.595696106435799
 20
0.0564166737984019
 10
1.601562345722929
 20
0.0449480210435191
 10
1.606060677489401
 20
0.0325461526497994
 10
1.609086899156468
 20
0.0194649016512842
 10
1.610568993012341
 20
0.0059820832089458
 10
1.610474289299587
 20
-0.0076093882568459
 10
1.608813361127409
 20
-0.0210117900777376
 10
1.605641576657732
 20
-0.0339313383868872
 10
1.601056427954816
 20
-0.0460938386107894
 10
1.595192175681469
 20
-0.0572528381469118
 10
1.588210648652297
 20
-0.0671993122311524
 10
1.580287576124054
 20
-0.0757683757976627
 10
1.571594464850744
 20
-0.082840460400537
 10
1.562277647239273
 20
-0.0883333127216556
 10
1.552440370296515
 20
-0.0921807718118313
 10
1.542143453768053
 20
-0.0942979734792581
 10
1.531454382725089
 20
-0.0945502399681202
 10
1.520559459235685
 20
-0.0927807054161035
 10
1.509914985111503
 20
-0.0889736893368441
 10
1.501572510264592
 20
-0.0843956997865968
  0
LWPOLYLINE
  5
10E
330
E5
100
AcDbEntity
  8
AM_9
100
AcDbPolyline
 90
        6
 70
     0
 43
0.0
 10
1.498972046331576
 20
0.0826470345427699
 10
1.499038857050271
 20
0.0826940226355617
 10
1.508342563723813
 20
0.0882242657832786
 10
1.518168577273261
 20
0.0921107098495514
 10
1.528455394277313
 20
0.0942693629330908
 10
1.535421277573111
 20
0.0946847896390989
  0
LINE
  5
10F
330
E5
100
AcDbEntity
  8
AM_9
100
AcDbLine
 10
1.477943062988367
 20
0.0608329589364086
 30
0.0
 11
1.480977422113628
 21
0.0650826180449104
 31
0.0
  0
ELLIPSE
  5
110
330
E5
100
AcDbEntity
  8
AM_9
100
AcDbEllipse
 10
1.545986734116627
 20
0.0000000000000012
 30
0.0
 11
6.084620899749573E-18
 21
0.09936940028726524
 31
0.0
210
0.0
220
0.0
230
1.0
 40
0.8660254037844339
 41
2.201405349610326
 42
7.22337261115907
  0
ELLIPSE
  5
111
330
E5
100
AcDbEntity
  8
AM_9
100
AcDbEllipse
 10
1.58016214438732
 20
0.0000000000000001
 30
0.0
 11
8.036249332247504E-18
 21
0.1312419113468904
 31
0.0
210
0.0
220
0.0
230
1.0
 40
0.8660254037844392
 41
2.201405349610305
 42
7.223372611159073
  0
ELLIPSE
  5
112
330
E5
100
AcDbEntity
  8
AM_9
100
AcDbEllipse
 10
1.600495879143069
 20
0.0000000000000002
 30
0.0
 11
8.079715312105935E-18
 21
0.1319517646676797
 31
0.0
210
0.0
220
0.0
230
1.0
 40
0.8660254037844374
 41
3.967571964592128
 42
5.457205996177252
  0
ELLIPSE
  5
113
330
E5
100
AcDbEntity
  8
AM_9
100
AcDbEllipse
 10
1.468750000000002
 20
0.0000000000000011
 30
0.0
 11
8.612328615003875E-18
 21
0.1406500000000019
 31
0.0
210
0.0
220
0.0
230
1.0
 40
0.8660254037844392
 41
0.0
 42
6.283185307179586
  0
ELLIPSE
  5
114
330
E5
100
AcDbEntity
  8
AM_9
100
AcDbEllipse
 10
1.46875
 20
0.0000000000000002
 30
0.0
 11
7.124004163867287E-18
 21
0.1163438171532771
 31
0.0
210
0.0
220
0.0
230
1.0
 40
0.8660254037844332
 41
0.0
 42
6.283185307179586
  0
ELLIPSE
  5
115
330
E5
100
AcDbEntity
  8
AM_9
100
AcDbEllipse
 10
1.373913818445166
 20
0.0000000000000001
 30
0.0
 11
6.761045944280099E-18
 21
0.1104162595939891
 31
0.0
210
0.0
220
0.0
230
1.0
 40
0.866025403784447
 41
0.0
 42
6.283185307179586
  0
LWPOLYLINE
  5
116
330
E5
100
AcDbEntity
  8
AM_4
100
AcDbPolyline
 90
        3
 70
     0
 43
0.0
 10
1.552012380346402
 20
0.1290560268917064
 10
1.531765513862669
 20
0.1421075518826617
 10
1.49916822956801
 20
0.1624086307230419
  0
LWPOLYLINE
  5
117
330
E5
100
AcDbEntity
  8
AM_4
100
AcDbPolyline
 90
        3
 70
     0
 43
0.0
 10
1.49916822956801
 20
-0.1624086307230415
 10
1.531621797640326
 20
-0.1421988309996539
 10
1.552063859268057
 20
-0.1290223235530604
  0
LWPOLYLINE
  5
118
330
E5
100
AcDbEntity
  8
AM_4
100
AcDbPolyline
 90
        4
 70
     0
 43
0.0
 10
1.346943526957719
 20
0.0000000000000002
 10
1.347400155257902
 20
0.0311508759219517
 10
1.348709426175845
 20
0.0623017518439033
 10
1.349858630723042
 20
0.081204315361521
  0
LWPOLYLINE
  5
119
330
E5
100
AcDbEntity
  8
AM_4
100
AcDbPolyline
 90
        3
 70
     0
 43
0.0
 10
1.349858630723042
 20
-0.0812043153615207
 10
1.347719762235808
 20
-0.0407847159147453
 10
1.346943526957719
 20
0.0000000000000002
  0
LINE
  5
11A
330
E5
100
AcDbEntity
  8
AM_4
100
AcDbLine
 10
1.377361756525729
 20
-0.0812043153615207
 30
0.0
 11
1.349858630723042
 21
-0.0812043153615207
 31
0.0
  0
LWPOLYLINE
  5
11B
330
E5
100
AcDbEntity
  8
AM_4
100
AcDbPolyline
 90
        3
 70
     0
 43
0.0
 10
1.407846763478859
 20
-0.1218064730422811
 10
1.378164582949523
 20
-0.1015053942019009
 10
1.349858630723042
 20
-0.0812043153615207
  0
LWPOLYLINE
  5
11C
330
E5
100
AcDbEntity
  8
AM_4
100
AcDbPolyline
 90
        3
 70
     0
 43
0.0
 10
1.471665103765323
 20
-0.1624086307230415
 10
1.439211535693008
 20
-0.1421988309996539
 10
1.407846763478859
 20
-0.1218064730422811
  0
LINE
  5
11D
330
E5
100
AcDbEntity
  8
AM_4
100
AcDbLine
 10
1.49916822956801
 20
-0.1624086307230415
 30
0.0
 11
1.471665103765323
 21
-0.1624086307230415
 31
0.0
  0
LWPOLYLINE
  5
11E
330
E5
100
AcDbEntity
  8
AM_4
100
AcDbPolyline
 90
        3
 70
     0
 43
0.0
 10
1.441180096812193
 20
-0.1218064730422811
 10
1.470862277341529
 20
-0.1421075518826614
 10
1.49916822956801
 20
-0.1624086307230415
  0
LWPOLYLINE
  5
11F
330
E5
100
AcDbEntity
  8
AM_4
100
AcDbPolyline
 90
        3
 70
     0
 43
0.0
 10
1.380276860291052
 20
0.0000000000000002
 10
1.379507422559818
 20
-0.0406021576807603
 10
1.377361756525729
 20
-0.0812043153615207
  0
LWPOLYLINE
  5
120
330
E5
100
AcDbEntity
  8
AM_4
100
AcDbPolyline
 90
        3
 70
     0
 43
0.0
 10
1.377361756525729
 20
-0.0812043153615207
 10
1.409815324598044
 20
-0.1014141150849084
 10
1.441180096812193
 20
-0.1218064730422811
  0
LINE
  5
121
330
E5
100
AcDbEntity
  8
AM_4
100
AcDbLine
 10
1.49916822956801
 20
0.1624086307230419
 30
0.0
 11
1.471665103765323
 21
0.1624086307230419
 31
0.0
  0
LWPOLYLINE
  5
122
330
E5
100
AcDbEntity
  8
AM_4
100
AcDbPolyline
 90
        3
 70
     0
 43
0.0
 10
1.407846763478859
 20
0.1218064730422814
 10
1.439067819470664
 20
0.1421075518826617
 10
1.471665103765323
 20
0.1624086307230419
  0
LWPOLYLINE
  5
123
330
E5
100
AcDbEntity
  8
AM_4
100
AcDbPolyline
 90
        3
 70
     0
 43
0.0
 10
1.349858630723042
 20
0.081204315361521
 10
1.37803446182089
 20
0.1014141150849087
 10
1.407846763478859
 20
0.1218064730422814
  0
LINE
  5
124
330
E5
100
AcDbEntity
  8
AM_4
100
AcDbLine
 10
1.377361756525729
 20
0.081204315361521
 30
0.0
 11
1.349858630723042
 21
0.081204315361521
 31
0.0
  0
LWPOLYLINE
  5
125
330
E5
100
AcDbEntity
  8
AM_4
100
AcDbPolyline
 90
        3
 70
     0
 43
0.0
 10
1.49916822956801
 20
0.1624086307230419
 10
1.470992398470162
 20
0.1421988309996542
 10
1.441180096812193
 20
0.1218064730422814
  0
LWPOLYLINE
  5
126
330
E5
100
AcDbEntity
  8
AM_4
100
AcDbPolyline
 90
        3
 70
     0
 43
0.0
 10
1.441180096812193
 20
0.1218064730422814
 10
1.409959040820388
 20
0.1015053942019012
 10
1.377361756525729
 20
0.081204315361521
  0
LWPOLYLINE
  5
127
330
E5
100
AcDbEntity
  8
AM_4
100
AcDbPolyline
 90
        4
 70
     0
 43
0.0
 10
1.377361756525729
 20
0.081204315361521
 10
1.378510961072926
 20
0.0623017518439033
 10
1.379817564424916
 20
0.0312428256208206
 10
1.380276860291052
 20
0.0000000000000002
  0
ELLIPSE
  5
128
330
E5
100
AcDbEntity
  8
AM_4
100
AcDbEllipse
 10
1.502083333333333
 20
-0.0000000000000003
 30
0.0
 11
8.612328615003787E-18
 21
0.1406500000000004
 31
0.0
210
0.0
220
0.0
230
1.0
 40
0.866025403784437
 41
5.878268126800902
 42
9.82856671287672
  0
ELLIPSE
  5
129
330
E5
100
AcDbEntity
  8
AM_4
100
AcDbEllipse
 10
1.517743608043448
 20
0.0
 30
0.0
 11
6.694498085252788E-18
 21
0.1093294505797714
 31
0.0
210
0.0
220
0.0
230
1.0
 40
0.8660254037844327
 41
0.0
 42
3.131586507953231
  0
ELLIPSE
  5
12A
330
E5
100
AcDbEntity
  8
AM_4
100
AcDbEllipse
 10
1.545986734116629
 20
0.0000000000000003
 30
0.0
 11
6.084620899749625E-18
 21
0.09936940028726608
 31
0.0
210
0.0
220
0.0
230
1.0
 40
0.8660254037844421
 41
0.9401873039794859
 42
2.159168928788605
  0
LINE
  5
12B
330
E5
100
AcDbEntity
  8
AM_4
100
AcDbLine
 10
1.476481665606296
 20
-0.0585918508151906
 30
0.0
 11
1.488363481889388
 21
-0.0773850548368749
 31
0.0
  0
LINE
  5
12C
330
E5
100
AcDbEntity
  8
AM_4
100
AcDbLine
 10
1.488363481889388
 20
0.0773850548368752
 30
0.0
 11
1.476481665606296
 21
0.0585918508151909
 31
0.0
  0
ELLIPSE
  5
12D
330
E5
100
AcDbEntity
  8
AM_4
100
AcDbEllipse
 10
1.545986734115085
 20
-0.0000000000008705
 30
0.0
 11
6.084620899656806E-18
 21
0.09936940028575025
 31
0.0
210
0.0
220
0.0
230
1.0
 40
0.8660254037805609
 41
-4.124016378390382
 42
-4.081779957567909
  0
ELLIPSE
  5
12E
330
E5
100
AcDbEntity
  8
AM_4
100
AcDbEllipse
 10
1.580162144387843
 20
0.0000000000004482
 30
0.0
 11
8.036249332295788E-18
 21
0.131241911347679
 31
0.0
210
0.0
220
0.0
230
1.0
 40
0.8660254037842083
 41
-4.129174352193061
 42
-4.081779957569363
  0
LINE
  5
12F
330
E5
100
AcDbEntity
  8
AM_4
100
AcDbLine
 10
1.487146391748501
 20
0.0754235561494165
 30
0.0
 11
1.486029044993999
 21
0.0735552986411642
 31
0.0
  0
LWPOLYLINE
  5
130
330
E5
100
AcDbEntity
  8
AM_4
100
AcDbPolyline
 90
       10
 70
     0
 43
0.0
 10
1.590727600930837
 20
0.1359265219950581
 10
1.580057874679017
 20
0.1354282193185167
 10
1.564982940055735
 20
0.1329986952979168
 10
1.5503439316248
 20
0.1286002586929723
 10
1.536340773067467
 20
0.1223089124629525
 10
1.523158871146536
 20
0.1142165232295704
 10
1.510975454885091
 20
0.1044320442267423
 10
1.499960374155841
 20
0.0930840608978039
 10
1.490274792044398
 20
0.08032374895571
 10
1.487146391748501
 20
0.0754235561494165
  0
LINE
  5
131
330
E5
100
AcDbEntity
  8
AM_4
100
AcDbLine
 10
1.682399573441046
 20
-0.0920192532036148
 30
0.0
 11
1.68374009562039
 21
-0.0903984340420281
 31
0.0
  0
LWPOLYLINE
  5
132
330
E5
100
AcDbEntity
  8
AM_4
100
AcDbPolyline
 90
       16
 70
     0
 43
0.0
 10
1.488471678908222
 20
-0.0775559074246535
 10
1.498143265453538
 20
-0.0909218531431303
 10
1.50928190487349
 20
-0.1028612828372247
 10
1.521699402393858
 20
-0.1131720542547007
 10
1.535179672884259
 20
-0.12168633987003
 10
1.549487365186985
 20
-0.1282766381090171
 10
1.564377799090662
 20
-0.1328577980405966
 10
1.579606130748554
 20
-0.1353850430361643
 10
1.594934252045763
 20
-0.1358491876030001
 10
1.610134863062961
 20
-0.134270716589887
 10
1.624984621971595
 20
-0.1306968259054558
 10
1.639279950641094
 20
-0.1251960180165718
 10
1.652831357798394
 20
-0.1178533148003182
 10
1.665458353720398
 20
-0.1087702056706451
 10
1.676987938595911
 20
-0.0980665982264362
 10
1.68011705041376
 20
-0.094662549052793
  0
LINE
  5
133
330
E5
100
AcDbEntity
  8
AM_4
100
AcDbLine
 10
1.485183462670724
 20
-0.0720953215645523
 30
0.0
 11
1.488471678908222
 21
-0.0775559074246535
 31
0.0
  0
LWPOLYLINE
  5
134
330
E5
100
AcDbEntity
  8
AM_4
100
AcDbPolyline
 90
        9
 70
     0
 43
0.0
 10
1.680310326461666
 20
0.0944441698141851
 10
1.677053091930752
 20
0.0979981530672278
 10
1.665151680145411
 20
0.1090205587290985
 10
1.652093178286412
 20
0.1183128221714153
 10
1.638105973053346
 20
0.1257298873089374
 10
1.623432005150122
 20
0.1311687135433297
 10
1.608317045482498
 20
0.1345679020752317
 10
1.593884898471324
 20
0.1358829632224535
 10
1.590727600930837
 20
0.1359265219950581
  0
LINE
  5
135
330
E5
100
AcDbEntity
  8
AM_4
100
AcDbLine
 10
1.683880362559212
 20
0.0902257657626723
 30
0.0
 11
1.682747701774864
 21
0.0916033659313355
 31
0.0
  0
ELLIPSE
  5
136
330
E5
100
AcDbEntity
  8
AM_4
100
AcDbEllipse
 10
1.600495879143069
 20
0.0000000000000004
 30
0.0
 11
8.079715312105940E-18
 21
0.1319517646676797
 31
0.0
210
0.0
220
0.0
230
1.0
 40
0.8660254037844402
 41
5.457205996177248
 42
10.24113228230446
  0
ELLIPSE
  5
137
330
E5
100
AcDbEntity
  8
AM_4
100
AcDbEllipse
 10
1.580162144387319
 20
0.0000000000000002
 30
0.0
 11
8.036249332247525E-18
 21
0.1312419113468908
 31
0.0
210
0.0
220
0.0
230
1.0
 40
0.8660254037844337
 41
0.9745294354692451
 42
2.154010954986331
  0
ELLIPSE
  5
138
330
E5
100
AcDbEntity
  8
AM_4
100
AcDbEllipse
 10
1.5801621443883
 20
-0.0000000000006068
 30
0.0
 11
8.036249332312019E-18
 21
0.1312419113479441
 31
0.0
210
0.0
220
0.0
230
1.0
 40
0.8660254037859225
 41
0.9401873039800179
 42
0.9745294354694635
  0
ELLIPSE
  5
139
330
E5
100
AcDbEntity
  8
AM_4
100
AcDbEllipse
 10
1.64125
 20
0.0000000000000002
 30
0.0
 11
-1.484390032546748E-17
 21
-0.08080642971672804
 31
0.0
210
0.0
220
0.0
230
1.0
 40
0.8660254037844377
 41
0.0
 42
6.283185307179586
  0
ELLIPSE
  5
13A
330
E5
100
AcDbEntity
  8
AM_4
100
AcDbEllipse
 10
1.633634139106116
 20
0.0000000000000002
 30
0.0
 11
6.357083428130995E-18
 21
0.103819051053039
 31
0.0
210
0.0
220
0.0
230
1.0
 40
0.8660254037844388
 41
5.69215283046803
 42
10.06142821658747
  0
LINE
  5
13B
330
E5
100
AcDbEntity
  8
AM_4
100
AcDbLine
 10
1.699736998028307
 20
0.0703724241776376
 30
0.0
 11
1.684511180726839
 21
0.0894418265240921
 31
0.0
  0
LINE
  5
13C
330
E5
100
AcDbEntity
  8
AM_4
100
AcDbLine
 10
1.684511180726839
 20
-0.0894418265240917
 30
0.0
 11
1.699736998028307
 21
-0.0703724241776372
 31
0.0
  0
ELLIPSE
  5
13D
330
E5
100
AcDbEntity
  8
AM_4
100
AcDbEllipse
 10
1.633634139106119
 20
0.0000000000000052
 30
0.0
 11
6.357083428131422E-18
 21
0.103819051053046
 31
0.0
210
0.0
220
0.0
230
1.0
 40
0.8660254037843871
 41
3.778242909407854
 42
5.692152830468006
  0
ENDBLK
  5
E8
330
E5
100
AcDbEntity
  8
0
100
AcDbBlockEnd
  0
BLOCK
  5
140
330
13E
100
AcDbEntity
  8
0
100
AcDbBlockBegin
  2
4_048007B_0_in_048007_4
 70
     2
 10
0.0
 20
0.0
 30
0.0
  3
4_048007B_0_in_048007_4
  1

  0
ATTDEF
  5
142
330
13E
100
AcDbEntity
  8
AM_6
100
AcDbText
 10
9.65625
 20
1.409375
 30
0.0
 40
0.5
  1
Unisphere II - Pillow Block Bearing - Inch - Body
100
AcDbAttributeDefinition
  3

  2
NN
 70
     8
280
     0
  0
ATTDEF
  5
143
330
13E
100
AcDbEntity
  8
AM_6
100
AcDbText
 10
9.65625
 20
0.909375
 30
0.0
 40
0.5
  1
Unisphere II
100
AcDbAttributeDefinition
  3

  2
NT
 70
     8
280
     0
  0
ATTDEF
  5
144
330
13E
100
AcDbEntity
  8
AM_6
100
AcDbText
 10
9.65625
 20
0.409375
 30
0.0
 40
0.5
  1
048007B
100
AcDbAttributeDefinition
  3

  2
NB
 70
     8
280
     0
  0
ATTDEF
  5
145
330
13E
100
AcDbEntity
  8
AM_6
100
AcDbText
 10
9.65625
 20
-0.090625
 30
0.0
 40
0.5
  1
$PN.
100
AcDbAttributeDefinition
  3

  2
NBSYN
 70
     8
280
     0
  0
ATTDEF
  5
146
330
13E
100
AcDbEntity
  8
AM_6
100
AcDbText
 10
9.65625
 20
-0.590625
 30
0.0
 40
0.5
  1
048007B
100
AcDbAttributeDefinition
  3

  2
LINA
 70
     8
280
     0
  0
ATTDEF
  5
147
330
13E
100
AcDbEntity
  8
AM_6
100
AcDbText
 10
9.65625
 20
-1.090625
 30
0.0
 40
0.5
  1
2-7/16
100
AcDbAttributeDefinition
  3

  2
SS
 70
     8
280
     0
  0
ATTDEF
  5
148
330
13E
100
AcDbEntity
  8
AM_6
100
AcDbText
 10
9.65625
 20
-1.590625
 30
0.0
 40
0.5
  1
2.43750
100
AcDbAttributeDefinition
  3

  2
SS1
 70
     8
280
     0
  0
ATTDEF
  5
149
330
13E
100
AcDbEntity
  8
AM_6
100
AcDbText
 10
9.65625
 20
-2.090625
 30
0.0
 40
0.5
  1
Non Expansion Type
100
AcDbAttributeDefinition
  3

  2
TYPE
 70
     8
280
     0
  0
ATTDEF
  5
14A
330
13E
100
AcDbEntity
  8
AM_6
100
AcDbText
 10
9.65625
 20
-2.590625
 30
0.0
 40
0.5
  1
048007B
100
AcDbAttributeDefinition
  3

  2
PNNE
 70
     8
280
     0
  0
ATTDEF
  5
14B
330
13E
100
AcDbEntity
  8
AM_6
100
AcDbText
 10
9.65625
 20
-3.090625
 30
0.0
 40
0.5
  1
048024B
100
AcDbAttributeDefinition
  3

  2
PNE
 70
     8
280
     0
  0
ATTDEF
  5
14C
330
13E
100
AcDbEntity
  8
AM_6
100
AcDbText
 10
9.65625
 20
-3.590625
 30
0.0
 40
0.5
  1
P2B-UN2-207
100
AcDbAttributeDefinition
  3

  2
DESCRIPTIONNE
 70
     8
280
     0
  0
ATTDEF
  5
14D
330
13E
100
AcDbEntity
  8
AM_6
100
AcDbText
 10
9.65625
 20
-4.090625
 30
0.0
 40
0.5
  1
P2B-UN2-207E
100
AcDbAttributeDefinition
  3

  2
DESCRIPTIONE
 70
     8
280
     0
  0
ATTDEF
  5
14E
330
13E
100
AcDbEntity
  8
AM_6
100
AcDbText
 10
9.65625
 20
-4.590625
 30
0.0
 40
0.5
  1
13.6
100
AcDbAttributeDefinition
  3

  2
WEIGHT
 70
     8
280
     0
  0
ATTDEF
  5
14F
330
13E
100
AcDbEntity
  8
AM_6
100
AcDbText
 10
9.65625
 20
-5.090625
 30
0.0
 40
0.5
  1
2-13/64
100
AcDbAttributeDefinition
  3

  2
A
 70
     8
280
     0
  0
ATTDEF
  5
150
330
13E
100
AcDbEntity
  8
AM_6
100
AcDbText
 10
9.65625
 20
-5.590625
 30
0.0
 40
0.5
  1
2.20313
100
AcDbAttributeDefinition
  3

  2
A1
 70
     8
280
     0
  0
ATTDEF
  5
151
330
13E
100
AcDbEntity
  8
AM_6
100
AcDbText
 10
9.65625
 20
-6.090625
 30
0.0
 40
0.5
  1
9-1/4
100
AcDbAttributeDefinition
  3

  2
B
 70
     8
280
     0
  0
ATTDEF
  5
152
330
13E
100
AcDbEntity
  8
AM_6
100
AcDbText
 10
9.65625
 20
-6.590625
 30
0.0
 40
0.5
  1
9.25000
100
AcDbAttributeDefinition
  3

  2
B1
 70
     8
280
     0
  0
ATTDEF
  5
153
330
13E
100
AcDbEntity
  8
AM_6
100
AcDbText
 10
9.65625
 20
-7.090625
 30
0.0
 40
0.5
  1
2-9/16
100
AcDbAttributeDefinition
  3

  2
C
 70
     8
280
     0
  0
ATTDEF
  5
154
330
13E
100
AcDbEntity
  8
AM_6
100
AcDbText
 10
9.65625
 20
-7.590625
 30
0.0
 40
0.5
  1
2.56250
100
AcDbAttributeDefinition
  3

  2
C1
 70
     8
280
     0
  0
ATTDEF
  5
155
330
13E
100
AcDbEntity
  8
AM_6
100
AcDbText
 10
9.65625
 20
-8.090625
 30
0.0
 40
0.5
  1
6-13/16
100
AcDbAttributeDefinition
  3

  2
DMIN
 70
     8
280
     0
  0
ATTDEF
  5
156
330
13E
100
AcDbEntity
  8
AM_6
100
AcDbText
 10
9.65625
 20
-8.590625
 30
0.0
 40
0.5
  1
6.81250
100
AcDbAttributeDefinition
  3

  2
DMIN1
 70
     8
280
     0
  0
ATTDEF
  5
157
330
13E
100
AcDbEntity
  8
AM_6
100
AcDbText
 10
9.65625
 20
-9.090625
 30
0.0
 40
0.5
  1
7-7/16
100
AcDbAttributeDefinition
  3

  2
DMAX
 70
     8
280
     0
  0
ATTDEF
  5
158
330
13E
100
AcDbEntity
  8
AM_6
100
AcDbText
 10
9.65625
 20
-9.590625
 30
0.0
 40
0.5
  1
7.43750
100
AcDbAttributeDefinition
  3

  2
DMAX1
 70
     8
280
     0
  0
ATTDEF
  5
159
330
13E
100
AcDbEntity
  8
AM_6
100
AcDbText
 10
9.65625
 20
-10.090625
 30
0.0
 40
0.5
  1
3/16
100
AcDbAttributeDefinition
  3

  2
E
 70
     8
280
     0
  0
ATTDEF
  5
15A
330
13E
100
AcDbEntity
  8
AM_6
100
AcDbText
 10
9.65625
 20
-10.590625
 30
0.0
 40
0.5
  1
0.18750
100
AcDbAttributeDefinition
  3

  2
E1
 70
     8
280
     0
  0
ATTDEF
  5
15B
330
13E
100
AcDbEntity
  8
AM_6
100
AcDbText
 10
9.65625
 20
-11.090625
 30
0.0
 40
0.5
  1
5/8
100
AcDbAttributeDefinition
  3

  2
F
 70
     8
280
     0
  0
ATTDEF
  5
15C
330
13E
100
AcDbEntity
  8
AM_6
100
AcDbText
 10
9.65625
 20
-11.590625
 30
0.0
 40
0.5
  1
0.62500
100
AcDbAttributeDefinition
  3

  2
F1
 70
     8
280
     0
  0
ATTDEF
  5
15D
330
13E
100
AcDbEntity
  8
AM_6
100
AcDbText
 10
9.65625
 20
-12.090625
 30
0.0
 40
0.5
  1
1
100
AcDbAttributeDefinition
  3

  2
G
 70
     8
280
     0
  0
ATTDEF
  5
15E
330
13E
100
AcDbEntity
  8
AM_6
100
AcDbText
 10
9.65625
 20
-12.590625
 30
0.0
 40
0.5
  1
1.00000
100
AcDbAttributeDefinition
  3

  2
G1
 70
     8
280
     0
  0
ATTDEF
  5
15F
330
13E
100
AcDbEntity
  8
AM_6
100
AcDbText
 10
9.65625
 20
-13.090625
 30
0.0
 40
0.5
  1
1-3/4
100
AcDbAttributeDefinition
  3

  2
H
 70
     8
280
     0
  0
ATTDEF
  5
160
330
13E
100
AcDbEntity
  8
AM_6
100
AcDbText
 10
9.65625
 20
-13.590625
 30
0.0
 40
0.5
  1
1.75000
100
AcDbAttributeDefinition
  3

  2
H1
 70
     8
280
     0
  0
ATTDEF
  5
161
330
13E
100
AcDbEntity
  8
AM_6
100
AcDbText
 10
9.65625
 20
-14.090625
 30
0.0
 40
0.5
  1
5-11/16
100
AcDbAttributeDefinition
  3

  2
J
 70
     8
280
     0
  0
ATTDEF
  5
162
330
13E
100
AcDbEntity
  8
AM_6
100
AcDbText
 10
9.65625
 20
-14.590625
 30
0.0
 40
0.5
  1
5.68750
100
AcDbAttributeDefinition
  3

  2
J1
 70
     8
280
     0
  0
ATTDEF
  5
163
330
13E
100
AcDbEntity
  8
AM_6
100
AcDbText
 10
9.65625
 20
-15.090625
 30
0.0
 40
0.5
  1
4-1/16
100
AcDbAttributeDefinition
  3

  2
L
 70
     8
280
     0
  0
ATTDEF
  5
164
330
13E
100
AcDbEntity
  8
AM_6
100
AcDbText
 10
9.65625
 20
-15.590625
 30
0.0
 40
0.5
  1
4.06250
100
AcDbAttributeDefinition
  3

  2
L1
 70
     8
280
     0
  0
ATTDEF
  5
165
330
13E
100
AcDbEntity
  8
AM_6
100
AcDbText
 10
9.65625
 20
-16.090625
 30
0.0
 40
0.5
  1
2-3/4
100
AcDbAttributeDefinition
  3

  2
M
 70
     8
280
     0
  0
ATTDEF
  5
166
330
13E
100
AcDbEntity
  8
AM_6
100
AcDbText
 10
9.65625
 20
-16.590625
 30
0.0
 40
0.5
  1
2.75000
100
AcDbAttributeDefinition
  3

  2
M1
 70
     8
280
     0
  0
ATTDEF
  5
167
330
13E
100
AcDbEntity
  8
AM_6
100
AcDbText
 10
9.65625
 20
-17.090625
 30
0.0
 40
0.5
  1
21/32
100
AcDbAttributeDefinition
  3

  2
R
 70
     8
280
     0
  0
ATTDEF
  5
168
330
13E
100
AcDbEntity
  8
AM_6
100
AcDbText
 10
9.65625
 20
-17.590625
 30
0.0
 40
0.5
  1
0.65625
100
AcDbAttributeDefinition
  3

  2
R1
 70
     8
280
     0
  0
ATTDEF
  5
169
330
13E
100
AcDbEntity
  8
AM_6
100
AcDbText
 10
9.65625
 20
-18.090625
 30
0.0
 40
0.5
  1
1-35/64
100
AcDbAttributeDefinition
  3

  2
S
 70
     8
280
     0
  0
ATTDEF
  5
16A
330
13E
100
AcDbEntity
  8
AM_6
100
AcDbText
 10
9.65625
 20
-18.590625
 30
0.0
 40
0.5
  1
1.54688
100
AcDbAttributeDefinition
  3

  2
S1
 70
     8
280
     0
  0
ATTDEF
  5
16B
330
13E
100
AcDbEntity
  8
AM_6
100
AcDbText
 10
9.65625
 20
-19.090625
 30
0.0
 40
0.5
  1
1900
100
AcDbAttributeDefinition
  3

  2
MRP
 70
     8
280
     0
  0
ATTDEF
  5
16C
330
13E
100
AcDbEntity
  8
AM_6
100
AcDbText
 10
9.65625
 20
-19.590625
 30
0.0
 40
0.5
  1
46500
100
AcDbAttributeDefinition
  3

  2
CS
 70
     8
280
     0
  0
ATTDEF
  5
16D
330
13E
100
AcDbEntity
  8
AM_6
100
AcDbText
 10
9.65625
 20
-20.090625
 30
0.0
 40
0.5
  1
38000
100
AcDbAttributeDefinition
  3

  2
CD
 70
     8
280
     0
  0
ATTDEF
  5
16E
330
13E
100
AcDbEntity
  8
AM_6
100
AcDbText
 10
9.65625
 20
-20.590625
 30
0.0
 40
0.5
  1
18
100
AcDbAttributeDefinition
  3

  2
RN
 70
     8
280
     0
  0
ATTDEF
  5
16F
330
13E
100
AcDbEntity
  8
AM_6
100
AcDbText
 10
9.65625
 20
-21.090625
 30
0.0
 40
0.5
  1
0.5827
100
AcDbAttributeDefinition
  3

  2
RM
 70
     8
280
     0
  0
ATTDEF
  5
170
330
13E
100
AcDbEntity
  8
AM_6
100
AcDbText
 10
9.65625
 20
-21.590625
 30
0.0
 40
0.5
  1
3.795
100
AcDbAttributeDefinition
  3

  2
PDI
 70
     8
280
     0
  0
ATTDEF
  5
171
330
13E
100
AcDbEntity
  8
AM_6
100
AcDbText
 10
9.65625
 20
-22.090625
 30
0.0
 40
0.5
  1
0.0016-0.0026
100
AcDbAttributeDefinition
  3

  2
RC
 70
     8
280
     0
  0
ATTDEF
  5
172
330
13E
100
AcDbEntity
  8
AM_6
100
AcDbText
 10
9.65625
 20
-22.590625
 30
0.0
 40
0.5
  1
3/8-16x3/4
100
AcDbAttributeDefinition
  3

  2
COS
 70
     8
280
     0
  0
ATTDEF
  5
173
330
13E
100
AcDbEntity
  8
AM_6
100
AcDbText
 10
9.65625
 20
-23.090625
 30
0.0
 40
0.5
  1
290
100
AcDbAttributeDefinition
  3

  2
CT
 70
     8
280
     0
  0
ATTDEF
  5
174
330
13E
100
AcDbEntity
  8
AM_6
100
AcDbText
 10
9.65625
 20
-23.590625
 30
0.0
 40
0.5
  1
Ductile Iron Grade 65-45-13 ASTM A536
100
AcDbAttributeDefinition
  3

  2
MH
 70
     8
280
     0
  0
ATTDEF
  5
175
330
13E
100
AcDbEntity
  8
AM_6
100
AcDbText
 10
9.65625
 20
-24.090625
 30
0.0
 40
0.5
  1
4118 Case Carb,
100
AcDbAttributeDefinition
  3

  2
MIR
 70
     8
280
     0
  0
ATTDEF
  5
176
330
13E
100
AcDbEntity
  8
AM_6
100
AcDbText
 10
9.65625
 20
-24.590625
 30
0.0
 40
0.5
  1
E52100 Steel
100
AcDbAttributeDefinition
  3

  2
MOR
 70
     8
280
     0
  0
ATTDEF
  5
177
330
13E
100
AcDbEntity
  8
AM_6
100
AcDbText
 10
9.65625
 20
-25.090625
 30
0.0
 40
0.5
  1
Polyamide
100
AcDbAttributeDefinition
  3

  2
MR
 70
     8
280
     0
  0
ATTDEF
  5
178
330
13E
100
AcDbEntity
  8
AM_6
100
AcDbText
 10
9.65625
 20
-25.590625
 30
0.0
 40
0.5
  1
E52100 Steel
100
AcDbAttributeDefinition
  3

  2
MRO
 70
     8
280
     0
  0
ATTDEF
  5
179
330
13E
100
AcDbEntity
  8
AM_6
100
AcDbText
 10
9.65625
 20
-26.090625
 30
0.0
 40
0.5
  1
2°
100
AcDbAttributeDefinition
  3

  2
SM
 70
     8
280
     0
  0
ATTDEF
  5
17A
330
13E
100
AcDbEntity
  8
AM_6
100
AcDbText
 10
9.65625
 20
-26.590625
 30
0.0
 40
0.5
  1
baldor
100
AcDbAttributeDefinition
  3

  2
COMPANY
 70
     8
280
     0
  0
LINE
  5
17B
330
13E
100
AcDbEntity
  8
AM_9
100
AcDbLine
 10
-4.5325
 20
-0.3272136152423984
 30
0.0
 11
-4.5325
 21
0.327213615242398
 31
0.0
  0
LINE
  5
17C
330
13E
100
AcDbEntity
  8
AM_9
100
AcDbLine
 10
2.917708209354914
 20
1.106036324786325
 30
0.0
 11
2.917708209354914
 21
0.5782115362842744
 31
0.0
  0
LWPOLYLINE
  5
17D
330
13E
100
AcDbEntity
  8
AM_9
100
AcDbPolyline
 90
        4
 70
     0
 43
0.0
 10
2.923652742901959
 20
-0.5809026272389499
 10
2.919985642429193
 20
-0.5792005120358625
 10
2.917711444595398
 20
-0.5781030241705539
 10
2.917708209355772
 20
-0.5781014793640719
  0
LINE
  5
17E
330
13E
100
AcDbEntity
  8
AM_9
100
AcDbLine
 10
2.917708209354914
 20
-0.5781355613108942
 30
0.0
 11
2.917708209354914
 21
-1.106036324786325
 31
0.0
  0
LINE
  5
17F
330
13E
100
AcDbEntity
  8
AM_9
100
AcDbLine
 10
-2.922978443006893
 20
0.5805886276431259
 30
0.0
 11
-2.917708209355765
 21
0.5781014793640681
 31
0.0
  0
LINE
  5
180
330
13E
100
AcDbEntity
  8
AM_9
100
AcDbLine
 10
-2.917708209354914
 20
0.5781353504314211
 30
0.0
 11
-2.917708209354914
 21
1.106036324786325
 31
0.0
  0
LINE
  5
181
330
13E
100
AcDbEntity
  8
AM_9
100
AcDbLine
 10
-2.917708209354914
 20
-1.106036324786325
 30
0.0
 11
-2.917708209354914
 21
-0.5782275972443003
 31
0.0
  0
LINE
  5
182
330
13E
100
AcDbEntity
  8
AM_9
100
AcDbLine
 10
2.03125
 20
-0.6174671052631582
 30
0.0
 11
2.03125
 21
0.6174671052631578
 31
0.0
  0
LINE
  5
183
330
13E
100
AcDbEntity
  8
AM_9
100
AcDbLine
 10
-2.03125
 20
0.6174671052631578
 30
0.0
 11
-2.03125
 21
-0.6174671052631582
 31
0.0
  0
LINE
  5
184
330
13E
100
AcDbEntity
  8
AM_9
100
AcDbLine
 10
-2.03125
 20
-0.6174671052631582
 30
0.0
 11
2.03125
 21
-0.6174671052631582
 31
0.0
  0
ARC
  5
185
330
13E
100
AcDbEntity
  8
AM_9
100
AcDbCircle
 10
2.088125000000001
 20
-0.617467105263158
 30
0.0
 40
0.0568750000000002
100
AcDbArc
 50
179.9999991462263
 51
270.0
  0
ARC
  5
186
330
13E
100
AcDbEntity
  8
AM_9
100
AcDbCircle
 10
-2.088125000000001
 20
-0.617467105263158
 30
0.0
 40
0.0568749999999999
100
AcDbArc
 50
270.0
 51
0.0000008537736463
  0
LINE
  5
187
330
13E
100
AcDbEntity
  8
AM_9
100
AcDbLine
 10
-2.03125
 20
0.6174671052631578
 30
0.0
 11
2.03125
 21
0.6174671052631578
 31
0.0
  0
ARC
  5
188
330
13E
100
AcDbEntity
  8
AM_9
100
AcDbCircle
 10
2.088124999999999
 20
0.6174671052631587
 30
0.0
 40
0.0568749999999991
100
AcDbArc
 50
90.0
 51
180.0
  0
ARC
  5
189
330
13E
100
AcDbEntity
  8
AM_9
100
AcDbCircle
 10
-2.088124999999999
 20
0.6174671052631587
 30
0.0
 40
0.0568749999999993
100
AcDbArc
 50
0.0
 51
90.0
  0
LINE
  5
18A
330
13E
100
AcDbEntity
  8
AM_9
100
AcDbLine
 10
-2.332830882352941
 20
0.674342105263158
 30
0.0
 11
2.332830882352487
 21
0.674342105263158
 31
0.0
  0
ARC
  5
18B
330
13E
100
AcDbEntity
  8
AM_9
100
AcDbCircle
 10
2.33283088235294
 20
0.7312171052631584
 30
0.0
 40
0.0568750000000005
100
AcDbArc
 50
270.0
 51
0.0
  0
ARC
  5
18C
330
13E
100
AcDbEntity
  8
AM_9
100
AcDbCircle
 10
-2.332830882352942
 20
0.7312171052631573
 30
0.0
 40
0.0568749999999993
100
AcDbArc
 50
180.0
 51
270.0
  0
LINE
  5
18D
330
13E
100
AcDbEntity
  8
AM_9
100
AcDbLine
 10
-2.389705882352941
 20
0.7312171052631574
 30
0.0
 11
2.389705882352941
 21
0.7312171052631574
 31
0.0
  0
LINE
  5
18E
330
13E
100
AcDbEntity
  8
AM_9
100
AcDbLine
 10
2.389705882352941
 20
0.7312171052631574
 30
0.0
 11
2.389705882352941
 21
1.074748168498168
 31
0.0
  0
LINE
  5
18F
330
13E
100
AcDbEntity
  8
AM_9
100
AcDbLine
 10
-2.389705882352941
 20
1.074748168498168
 30
0.0
 11
-2.389705882352941
 21
0.7312171052631574
 31
0.0
  0
LINE
  5
190
330
13E
100
AcDbEntity
  8
AM_9
100
AcDbLine
 10
-2.332830882352942
 20
-0.6743421052631579
 30
0.0
 11
2.332830882352487
 21
-0.6743421052631579
 31
0.0
  0
ARC
  5
191
330
13E
100
AcDbEntity
  8
AM_9
100
AcDbCircle
 10
2.332830882352941
 20
-0.7312171052631582
 30
0.0
 40
0.0568750000000007
100
AcDbArc
 50
0.0
 51
90.0
  0
ARC
  5
192
330
13E
100
AcDbEntity
  8
AM_9
100
AcDbCircle
 10
-2.332830882352941
 20
-0.7312171052631582
 30
0.0
 40
0.0568750000000003
100
AcDbArc
 50
90.0
 51
180.0
  0
LINE
  5
193
330
13E
100
AcDbEntity
  8
AM_9
100
AcDbLine
 10
-2.389705882352942
 20
-0.731217105263158
 30
0.0
 11
2.389705882352941
 21
-0.731217105263158
 31
0.0
  0
LINE
  5
194
330
13E
100
AcDbEntity
  8
AM_9
100
AcDbLine
 10
2.389705882352941
 20
-1.074748168498168
 30
0.0
 11
2.389705882352941
 21
-0.731217105263158
 31
0.0
  0
LINE
  5
195
330
13E
100
AcDbEntity
  8
AM_9
100
AcDbLine
 10
-2.389705882352941
 20
-0.731217105263158
 30
0.0
 11
-2.389705882352941
 21
-1.074748168498168
 31
0.0
  0
LWPOLYLINE
  5
196
330
13E
100
AcDbEntity
  8
AM_9
100
AcDbPolyline
 90
        4
 70
     0
 43
0.0
 10
-1.765660519734982
 20
-1.195669788301516
 10
-1.899290463491442
 20
-1.183653993720404
 10
-2.018465659997795
 20
-1.170809360050217
 10
-2.03125
 20
-1.169277624876618
  0
LWPOLYLINE
  5
197
330
13E
100
AcDbEntity
  8
AM_9
100
AcDbPolyline
 90
        5
 70
     0
 43
0.0
 10
-1.15808656701904
 20
-1.231715242305679
 10
-1.335865008237652
 20
-1.223538650050919
 10
-1.50347671012623
 20
-1.214229672389394
 10
-1.65964604642669
 20
-1.203859156262022
 10
-1.765660519734982
 20
-1.195669788301516
  0
LWPOLYLINE
  5
198
330
13E
100
AcDbEntity
  8
AM_9
100
AcDbPolyline
 90
        7
 70
     0
 43
0.0
 10
-0.1420785332202882
 20
-1.253877509882159
 10
-0.3494460360124687
 20
-1.252266012680013
 10
-0.5541540434693087
 20
-1.249303497495439
 10
-0.7546446040479874
 20
-1.245012510857806
 10
-0.9493918635229907
 20
-1.239425709766395
 10
-1.136913677658103
 20
-1.232585613150915
 10
-1.15808656701904
 20
-1.231715242305679
  0
LINE
  5
199
330
13E
100
AcDbEntity
  8
AM_9
100
AcDbLine
 10
0.1420785332202887
 20
-1.253877509882159
 30
0.0
 11
-0.1420785332202882
 21
-1.253877509882159
 31
0.0
  0
LWPOLYLINE
  5
19A
330
13E
100
AcDbEntity
  8
AM_9
100
AcDbPolyline
 90
       12
 70
     0
 43
0.0
 10
2.03125
 20
-1.169277624876618
 10
1.913803978053027
 20
-1.182211756445808
 10
1.781792752246634
 20
-1.194328025222427
 10
1.636221007719764
 20
-1.205534219085084
 10
1.478196633346891
 20
-1.215745052131997
 10
1.308922290034716
 20
-1.224882813758212
 10
1.129686257746491
 20
-1.232877960080219
 10
0.9418526309136019
 20
-1.239669643206909
 10
0.7468509368532928
 20
-1.245206174328756
 10
0.546165256202605
 20
-1.249445417100875
 10
0.341322928168617
 20
-1.252355108326044
 10
0.1420785332202887
 20
-1.253877509882159
  0
LINE
  5
19B
330
13E
100
AcDbEntity
  8
AM_9
100
AcDbLine
 10
-2.03125
 20
-1.28125
 30
0.0
 11
2.03125
 21
-1.28125
 31
0.0
  0
LINE
  5
19C
330
13E
100
AcDbEntity
  8
AM_9
100
AcDbLine
 10
-2.924274206251389
 20
-1.095656367723903
 30
0.0
 11
-2.924274206251389
 21
-0.5811911795687852
 31
0.0
  0
LINE
  5
19D
330
13E
100
AcDbEntity
  8
AM_9
100
AcDbLine
 10
2.924274206251388
 20
-1.095656367723903
 30
0.0
 11
2.924274206251388
 21
-0.5811911795687846
 31
0.0
  0
LINE
  5
19E
330
13E
100
AcDbEntity
  8
AM_9
100
AcDbLine
 10
2.924274206251388
 20
0.5811911795687846
 30
0.0
 11
2.924274206251388
 21
1.095656367723903
 31
0.0
  0
LINE
  5
19F
330
13E
100
AcDbEntity
  8
AM_9
100
AcDbLine
 10
-2.924274206251389
 20
0.5811911795687852
 30
0.0
 11
-2.924274206251389
 21
1.095656367723903
 31
0.0
  0
LINE
  5
1A0
330
13E
100
AcDbEntity
  8
AM_7
100
AcDbLine
 10
0.0
 20
-1.6570365
 30
0.0
 11
0.0
 21
1.409375
 31
0.0
  0
LINE
  5
1A1
330
13E
100
AcDbEntity
  8
AM_7
100
AcDbLine
 10
3.376420454545458
 20
-0.3296164772727275
 30
0.0
 11
3.376420454545458
 21
0.3296164772727347
 31
0.0
  0
LINE
  5
1A2
330
13E
100
AcDbEntity
  8
AM_7
100
AcDbLine
 10
2.5375
 20
0.0
 30
0.0
 11
4.65625
 21
-0.0000000000000002
 31
0.0
  0
LINE
  5
1A3
330
13E
100
AcDbEntity
  8
AM_7
100
AcDbLine
 10
4.0
 20
-0.6562500000000002
 30
0.0
 11
4.0
 21
0.6562499999999998
 31
0.0
  0
LINE
  5
1A4
330
13E
100
AcDbEntity
  8
AM_7
100
AcDbLine
 10
3.193750000000001
 20
-0.6562500000000004
 30
0.0
 11
3.193750000000001
 21
0.6562500000000004
 31
0.0
  0
LINE
  5
1A5
330
13E
100
AcDbEntity
  8
AM_7
100
AcDbLine
 10
-3.748579545454543
 20
-0.3296164772727277
 30
0.0
 11
-3.748579545454543
 21
0.3296164772727344
 31
0.0
  0
LINE
  5
1A6
330
13E
100
AcDbEntity
  8
AM_7
100
AcDbLine
 10
-4.65625
 20
0.0000000000000001
 30
0.0
 11
-2.5375
 21
0.0000000000000001
 31
0.0
  0
LINE
  5
1A7
330
13E
100
AcDbEntity
  8
AM_7
100
AcDbLine
 10
-4.0
 20
-0.6562499999999999
 30
0.0
 11
-4.0
 21
0.6562500000000001
 31
0.0
  0
LINE
  5
1A8
330
13E
100
AcDbEntity
  8
AM_7
100
AcDbLine
 10
-3.19375
 20
-0.6562499999999999
 30
0.0
 11
-3.19375
 21
0.6562500000000001
 31
0.0
  0
LINE
  5
1A9
330
13E
100
AcDbEntity
  8
AM_7
100
AcDbLine
 10
-3.376420454545458
 20
-0.3296164772727275
 30
0.0
 11
-3.376420454545458
 21
0.3296164772727347
 31
0.0
  0
LINE
  5
1AA
330
13E
100
AcDbEntity
  8
AM_7
100
AcDbLine
 10
3.748579545454543
 20
-0.3296164772727276
 30
0.0
 11
3.748579545454543
 21
0.3296164772727345
 31
0.0
  0
LINE
  5
1AB
330
13E
100
AcDbEntity
  8
AM_4
100
AcDbLine
 10
-4.5325
 20
-1.215544871794872
 30
0.0
 11
-4.5325
 21
-0.3272136152423984
 31
0.0
  0
LINE
  5
1AC
330
13E
100
AcDbEntity
  8
AM_4
100
AcDbLine
 10
-4.5325
 20
0.327213615242398
 30
0.0
 11
-4.5325
 21
1.215544871794871
 31
0.0
  0
LINE
  5
1AD
330
13E
100
AcDbEntity
  8
AM_4
100
AcDbLine
 10
3.40625
 20
-0.3125000000000001
 30
0.0
 11
3.71875
 21
-0.3125000000000001
 31
0.0
  0
ARC
  5
1AE
330
13E
100
AcDbEntity
  8
AM_4
100
AcDbCircle
 10
3.748579545454543
 20
0.0000000000000035
 30
0.0
 40
0.3139204545454579
100
AcDbArc
 50
264.5473780121879
 51
95.45262198782565
  0
ARC
  5
1AF
330
13E
100
AcDbEntity
  8
AM_4
100
AcDbCircle
 10
3.376420454545458
 20
0.0000000000000036
 30
0.0
 40
0.3139204545454577
100
AcDbArc
 50
84.54737801217442
 51
275.4526219878119
  0
LINE
  5
1B0
330
13E
100
AcDbEntity
  8
AM_4
100
AcDbLine
 10
3.718749999999925
 20
0.3125000000000001
 30
0.0
 11
3.406250000000075
 21
0.3124999999999999
 31
0.0
  0
ARC
  5
1B1
330
13E
100
AcDbEntity
  8
AM_4
100
AcDbCircle
 10
3.193750000000001
 20
0.0000000000000001
 30
0.0
 40
0.625
100
AcDbArc
 50
90.0
 51
270.0
  0
LINE
  5
1B2
330
13E
100
AcDbEntity
  8
AM_4
100
AcDbLine
 10
4.0
 20
0.625
 30
0.0
 11
3.193750000000001
 21
0.625
 31
0.0
  0
LINE
  5
1B3
330
13E
100
AcDbEntity
  8
AM_4
100
AcDbLine
 10
3.193750000000001
 20
-0.625
 30
0.0
 11
4.0
 21
-0.625
 31
0.0
  0
ARC
  5
1B4
330
13E
100
AcDbEntity
  8
AM_4
100
AcDbCircle
 10
4.0
 20
-0.0000000000000001
 30
0.0
 40
0.6249999999999999
100
AcDbArc
 50
270.0
 51
90.0
  0
LINE
  5
1B5
330
13E
100
AcDbEntity
  8
AM_4
100
AcDbLine
 10
-3.406250000000075
 20
0.3125000000000001
 30
0.0
 11
-3.718749999999925
 21
0.3124999999999999
 31
0.0
  0
LINE
  5
1B6
330
13E
100
AcDbEntity
  8
AM_4
100
AcDbLine
 10
-3.71875
 20
-0.3125000000000001
 30
0.0
 11
-3.40625
 21
-0.3125000000000001
 31
0.0
  0
ARC
  5
1B7
330
13E
100
AcDbEntity
  8
AM_4
100
AcDbCircle
 10
-3.748579545454543
 20
0.0000000000000034
 30
0.0
 40
0.313920454545458
100
AcDbArc
 50
84.54737801217435
 51
275.4526219878121
  0
ARC
  5
1B8
330
13E
100
AcDbEntity
  8
AM_4
100
AcDbCircle
 10
-3.376420454545458
 20
0.0000000000000037
 30
0.0
 40
0.313920454545458
100
AcDbArc
 50
264.5473780121881
 51
95.45262198782557
  0
LINE
  5
1B9
330
13E
100
AcDbEntity
  8
AM_4
100
AcDbLine
 10
-3.193750000000001
 20
0.625
 30
0.0
 11
-4.0
 21
0.625
 31
0.0
  0
ARC
  5
1BA
330
13E
100
AcDbEntity
  8
AM_4
100
AcDbCircle
 10
-4.0
 20
0.0000000000000001
 30
0.0
 40
0.6249999999999999
100
AcDbArc
 50
90.0
 51
270.0
  0
LINE
  5
1BB
330
13E
100
AcDbEntity
  8
AM_4
100
AcDbLine
 10
-4.0
 20
-0.625
 30
0.0
 11
-3.193750000000001
 21
-0.625
 31
0.0
  0
ARC
  5
1BC
330
13E
100
AcDbEntity
  8
AM_4
100
AcDbCircle
 10
-3.193750000000001
 20
0.0
 30
0.0
 40
0.625
100
AcDbArc
 50
270.0
 51
90.0
  0
LINE
  5
1BD
330
13E
100
AcDbEntity
  8
AM_4
100
AcDbLine
 10
3.193750000000001
 20
0.6406249999999998
 30
0.0
 11
4.376041542688247
 21
0.6406249999999998
 31
0.0
  0
LINE
  5
1BE
330
13E
100
AcDbEntity
  8
AM_4
100
AcDbLine
 10
4.376041542688247
 20
0.6406249999999998
 30
0.0
 11
4.376041542688248
 21
1.215544871794871
 31
0.0
  0
LWPOLYLINE
  5
1BF
330
13E
100
AcDbEntity
  8
AM_4
100
AcDbPolyline
 90
       19
 70
     0
 43
0.0
 10
2.917708209354914
 20
1.106036324786325
 10
2.923257607971119
 20
1.115580623538071
 10
2.939863569545444
 20
1.125052284413312
 10
2.967399712683356
 20
1.134379222353641
 10
3.005656470708797
 20
1.143490453729573
 10
3.054342686593132
 20
1.152316636568826
 10
3.11308782883594
 20
1.160790598290598
 10
3.181444811433467
 20
1.168847846929468
 10
3.25889339647307
 20
1.176427061958194
 10
3.344844153457864
 20
1.183470560973954
 10
3.438642945228709
 20
1.189924738696255
 10
3.53957590634297
 20
1.195740474935493
 10
3.646874876021579
 20
1.200873508427249
 10
3.759723244316392
 20
1.20528477368724
 10
3.877262167004978
 20
1.208940698323243
 10
3.998597101913735
 20
1.211813458541271
 10
4.122804616923972
 20
1.213881190901443
 10
4.24893941784791
 20
1.21512815871197
 10
4.376041542688244
 20
1.215544871794871
  0
LWPOLYLINE
  5
1C0
330
13E
100
AcDbEntity
  8
AM_4
100
AcDbPolyline
 90
        9
 70
     0
 43
0.0
 10
2.937352053381949
 20
0.5870779195260597
 10
2.950321887260542
 20
0.592573324199719
 10
2.977825927707767
 20
0.6031465863238681
 10
3.013409952388351
 20
0.6147177058231101
 10
3.042262759250413
 20
0.6224598190704795
 10
3.074772142696994
 20
0.6294831105835901
 10
3.110830171393748
 20
0.6352359346328822
 10
3.150503308079534
 20
0.6391636052396411
 10
3.193750000000001
 20
0.6406249999999997
  0
LWPOLYLINE
  5
1C1
330
13E
100
AcDbEntity
  8
AM_4
100
AcDbPolyline
 90
        4
 70
     0
 43
0.0
 10
2.923637374411706
 20
0.580895481238061
 10
2.926256768101566
 20
0.5821192303577218
 10
2.936373495806901
 20
0.5866620452319313
 10
2.937352053381949
 20
0.5870779195260597
  0
LWPOLYLINE
  5
1C2
330
13E
100
AcDbEntity
  8
AM_4
100
AcDbPolyline
 90
        4
 70
     0
 43
0.0
 10
2.917708209360049
 20
0.5781014793661133
 10
2.917741068418053
 20
0.5781315893200575
 10
2.920029344374311
 20
0.579204103325281
 10
2.923637374411706
 20
0.580895481238061
  0
LWPOLYLINE
  5
1C3
330
13E
100
AcDbEntity
  8
AM_4
100
AcDbPolyline
 90
        4
 70
     0
 43
0.0
 10
2.93744204026292
 20
-0.5871172118073316
 10
2.937061465859566
 20
-0.5869509238989533
 10
2.92644998916357
 20
-0.5822117447559778
 10
2.923652742901959
 20
-0.5809026272389499
  0
LWPOLYLINE
  5
1C4
330
13E
100
AcDbEntity
  8
AM_4
100
AcDbPolyline
 90
       10
 70
     0
 43
0.0
 10
3.193750000000001
 20
-0.6406250000000001
 10
3.152185235310793
 20
-0.6392778932884259
 10
3.113736300192549
 20
-0.6356109302769428
 10
3.078569961014058
 20
-0.6301856466504111
 10
3.045920441559261
 20
-0.6233388875934575
 10
3.016824874097864
 20
-0.6157129930924237
 10
2.991375525446595
 20
-0.6078198439292959
 10
2.969473989538622
 20
-0.6000916523876889
 10
2.951342863988942
 20
-0.592999940457728
 10
2.93744204026292
 20
-0.5871172118073316
  0
LINE
  5
1C5
330
13E
100
AcDbEntity
  8
AM_4
100
AcDbLine
 10
4.376041542688248
 20
-1.215544871794872
 30
0.0
 11
4.376041542688247
 21
-0.6406250000000001
 31
0.0
  0
LINE
  5
1C6
330
13E
100
AcDbEntity
  8
AM_4
100
AcDbLine
 10
4.376041542688247
 20
-0.6406250000000001
 30
0.0
 11
3.193750000000001
 21
-0.6406250000000001
 31
0.0
  0
LWPOLYLINE
  5
1C7
330
13E
100
AcDbEntity
  8
AM_4
100
AcDbPolyline
 90
        3
 70
     0
 43
0.0
 10
2.917708209354914
 20
-1.106036324786325
 10
2.923257607971118
 20
-1.096492026034578
 10
2.924274206251388
 20
-1.095656367723903
  0
LINE
  5
1C8
330
13E
100
AcDbEntity
  8
AM_4
100
AcDbLine
 10
-2.937455468162108
 20
0.5871230736182963
 30
0.0
 11
-2.922978443006893
 21
0.5805886276431259
 31
0.0
  0
LWPOLYLINE
  5
1C9
330
13E
100
AcDbEntity
  8
AM_4
100
AcDbPolyline
 90
       11
 70
     0
 43
0.0
 10
-3.193750000000001
 20
0.6406249999999998
 10
-3.162387158276932
 20
0.6398570101366694
 10
-3.13276860611973
 20
0.6377159714366728
 10
-3.104740004525351
 20
0.6344114529879561
 10
-3.078569961014058
 20
0.6301856466504111
 10
-3.053814416666839
 20
0.625154979882003
 10
-3.031050832151845
 20
0.6196203445711882
 10
-2.991375525446595
 20
0.6078198439292958
 10
-2.960012933674088
 20
0.5964623830975059
 10
-2.947446607928003
 20
0.5913847756449138
 10
-2.937455468162108
 20
0.5871230736182963
  0
LINE
  5
1CA
330
13E
100
AcDbEntity
  8
AM_4
100
AcDbLine
 10
-4.376041542688247
 20
0.6406249999999998
 30
0.0
 11
-4.376041542688247
 21
1.215544871794871
 31
0.0
  0
LINE
  5
1CB
330
13E
100
AcDbEntity
  8
AM_4
100
AcDbLine
 10
-4.376041542688247
 20
0.6406249999999998
 30
0.0
 11
-3.193750000000001
 21
0.6406249999999998
 31
0.0
  0
LWPOLYLINE
  5
1CC
330
13E
100
AcDbEntity
  8
AM_4
100
AcDbPolyline
 90
        3
 70
     0
 43
0.0
 10
-2.917708209354914
 20
1.106036324786325
 10
-2.923257607971119
 20
1.096492026034578
 10
-2.924274206251389
 20
1.095656367723903
  0
LINE
  5
1CD
330
13E
100
AcDbEntity
  8
AM_4
100
AcDbLine
 10
-3.193750000000001
 20
-0.6406250000000001
 30
0.0
 11
-4.376041542688247
 21
-0.6406250000000001
 31
0.0
  0
LINE
  5
1CE
330
13E
100
AcDbEntity
  8
AM_4
100
AcDbLine
 10
-4.376041542688247
 20
-1.215544871794872
 30
0.0
 11
-4.376041542688247
 21
-0.6406250000000001
 31
0.0
  0
LWPOLYLINE
  5
1CF
330
13E
100
AcDbEntity
  8
AM_4
100
AcDbPolyline
 90
       19
 70
     0
 43
0.0
 10
-2.917708209354914
 20
-1.106036324786325
 10
-2.923257607971119
 20
-1.115580623538072
 10
-2.939863569545444
 20
-1.125052284413312
 10
-2.967399712683356
 20
-1.134379222353641
 10
-3.005656470708797
 20
-1.143490453729574
 10
-3.054342686593133
 20
-1.152316636568827
 10
-3.11308782883594
 20
-1.160790598290598
 10
-3.181444811433467
 20
-1.168847846929468
 10
-3.25889339647307
 20
-1.176427061958195
 10
-3.344844153457865
 20
-1.183470560973954
 10
-3.438642945228709
 20
-1.189924738696256
 10
-3.539575906342971
 20
-1.195740474935493
 10
-3.646874876021579
 20
-1.200873508427249
 10
-3.759723244316392
 20
-1.20528477368724
 10
-3.877262167004978
 20
-1.208940698323243
 10
-3.998597101913735
 20
-1.211813458541271
 10
-4.122804616923971
 20
-1.213881190901444
 10
-4.248939417847909
 20
-1.21512815871197
 10
-4.376041542688244
 20
-1.215544871794872
  0
LWPOLYLINE
  5
1D0
330
13E
100
AcDbEntity
  8
AM_4
100
AcDbPolyline
 90
       11
 70
     0
 43
0.0
 10
-2.9373093895908
 20
-0.5870592848750088
 10
-2.939461758603985
 20
-0.5879956712861484
 10
-2.950321887260542
 20
-0.592573324199719
 10
-2.977729582088587
 20
-0.6031049408439448
 10
-3.01340995238835
 20
-0.6147177058231101
 10
-3.03463714378631
 20
-0.6205512450942748
 10
-3.05790525298567
 20
-0.6260563835099938
 10
-3.083360133240018
 20
-0.6310426260823021
 10
-3.110830171393747
 20
-0.6352359346328822
 10
-3.150503308079534
 20
-0.6391636052396413
 10
-3.193750000000001
 20
-0.6406250000000001
  0
LINE
  5
1D1
330
13E
100
AcDbEntity
  8
AM_4
100
AcDbLine
 10
-2.924158078082316
 20
-0.5811373213464522
 30
0.0
 11
-2.9373093895908
 21
-0.5870592848750088
 31
0.0
  0
LINE
  5
1D2
330
13E
100
AcDbEntity
  8
AM_4
100
AcDbLine
 10
-2.917708209354921
 20
-0.5781014793636651
 30
0.0
 11
-2.924158078082316
 21
-0.5811373213464522
 31
0.0
  0
LWPOLYLINE
  5
1D3
330
13E
100
AcDbEntity
  8
AM_4
100
AcDbPolyline
 90
       37
 70
     0
 43
0.0
 10
2.389705882352941
 20
1.074748168498168
 10
2.380612329998657
 20
1.059108351215894
 10
2.353400880360056
 20
1.043587562386718
 10
2.308278628999612
 20
1.028303924585339
 10
2.245588983495737
 20
1.013373755523937
 10
2.165809049903759
 20
0.9989106828041531
 10
2.069546001690755
 20
0.9850247791424263
 10
1.957532458778841
 20
0.9718217246501605
 10
1.830620911865206
 20
0.9594020025442641
 10
1.689777234453148
 20
0.9478601344091961
 10
1.536073331971511
 20
0.9372839608306349
 10
1.370678983927134
 20
0.9277539728755818
 10
1.194852941176473
 20
0.9193426995067385
 10
1.009933346071527
 20
0.9121141555933077
 10
0.8173275483885499
 20
0.9061233547191847
 10
0.6185013945464687
 20
0.9014158904963664
 10
0.4149680716305361
 20
0.8980275895700325
 10
0.2082765911249227
 20
0.895984238956145
 10
0.0000000000000045
 20
0.895301389786684
 10
-0.2082765911249136
 20
0.8959842389561449
 10
-0.4149680716305271
 20
0.8980275895700324
 10
-0.6185013945464599
 20
0.9014158904963661
 10
-0.8173275483885413
 20
0.9061233547191846
 10
-1.009933346071519
 20
0.9121141555933074
 10
-1.194852941176465
 20
0.9193426995067381
 10
-1.370678983927127
 20
0.9277539728755814
 10
-1.536073331971504
 20
0.9372839608306345
 10
-1.689777234453142
 20
0.9478601344091956
 10
-1.8306209118652
 20
0.9594020025442636
 10
-1.957532458778836
 20
0.9718217246501599
 10
-2.06954600169075
 20
0.9850247791424257
 10
-2.165809049903756
 20
0.9989106828041524
 10
-2.245588983495734
 20
1.013373755523936
 10
-2.308278628999609
 20
1.028303924585338
 10
-2.353400880360054
 20
1.043587562386718
 10
-2.380612329998656
 20
1.059108351215894
 10
-2.389705882352941
 20
1.074748168498168
  0
LWPOLYLINE
  5
1D4
330
13E
100
AcDbEntity
  8
AM_4
100
AcDbPolyline
 90
       19
 70
     0
 43
0.0
 10
-2.389705882352941
 20
1.074748168498168
 10
-2.380612329998657
 20
1.090387985780443
 10
-2.353400880360056
 20
1.105908774609619
 10
-2.308278628999612
 20
1.121192412410998
 10
-2.245588983495737
 20
1.1361225814724
 10
-2.16580904990376
 20
1.150585654192184
 10
-2.069546001690755
 20
1.164471557853911
 10
-1.957532458778842
 20
1.177674612346176
 10
-1.830620911865206
 20
1.190094334452073
 10
-1.689777234453148
 20
1.201636202587141
 10
-1.536073331971511
 20
1.212212376165702
 10
-1.370678983927134
 20
1.221742364120755
 10
-1.194852941176473
 20
1.230153637489598
 10
-1.009933346071528
 20
1.237382181403029
 10
-0.8173275483885502
 20
1.243372982277152
 10
-0.6185013945464689
 20
1.24808044649997
 10
-0.4149680716305363
 20
1.251468747426304
 10
-0.208276591124923
 20
1.253512098040192
 10
-0.0000000000000048
 20
1.254194947209653
  0
LWPOLYLINE
  5
1D5
330
13E
100
AcDbEntity
  8
AM_4
100
AcDbPolyline
 90
        8
 70
     0
 43
0.0
 10
-2.03125
 20
-1.169277624876618
 10
-2.13323698294469
 20
-1.155624067065941
 10
-2.218988744365462
 20
-1.141354994832962
 10
-2.287852661579576
 20
-1.126579004433273
 10
-2.339304638595863
 20
-1.111408550075804
 10
-2.372953094801674
 20
-1.095959088078385
 10
-2.388541945127792
 20
-1.080348198175457
 10
-2.389705882352941
 20
-1.074748168498168
  0
LWPOLYLINE
  5
1D6
330
13E
100
AcDbEntity
  8
AM_4
100
AcDbPolyline
 90
        8
 70
     0
 43
0.0
 10
2.389705882352941
 20
-1.074748168498168
 10
2.380612329998657
 20
-1.090387985780442
 10
2.353400880360056
 20
-1.105908774609619
 10
2.308278628999612
 20
-1.121192412410998
 10
2.245588983495737
 20
-1.1361225814724
 10
2.16580904990376
 20
-1.150585654192184
 10
2.069546001690755
 20
-1.164471557853911
 10
2.03125
 20
-1.169277624876618
  0
LWPOLYLINE
  5
1D7
330
13E
100
AcDbEntity
  8
AM_4
100
AcDbPolyline
 90
       19
 70
     0
 43
0.0
 10
-2.389705882352941
 20
-1.074748168498168
 10
-2.380612329998657
 20
-1.059108351215894
 10
-2.353400880360056
 20
-1.043587562386718
 10
-2.308278628999612
 20
-1.028303924585338
 10
-2.245588983495737
 20
-1.013373755523937
 10
-2.16580904990376
 20
-0.9989106828041528
 10
-2.069546001690755
 20
-0.985024779142426
 10
-1.957532458778842
 20
-0.9718217246501603
 10
-1.830620911865207
 20
-0.9594020025442638
 10
-1.689777234453149
 20
-0.9478601344091957
 10
-1.536073331971512
 20
-0.9372839608306347
 10
-1.370678983927135
 20
-0.9277539728755814
 10
-1.194852941176473
 20
-0.919342699506738
 10
-1.009933346071528
 20
-0.9121141555933071
 10
-0.8173275483885503
 20
-0.9061233547191844
 10
-0.618501394546469
 20
-0.9014158904963658
 10
-0.4149680716305364
 20
-0.8980275895700321
 10
-0.208276591124923
 20
-0.8959842389561444
 10
-0.0000000000000048
 20
-0.8953013897866835
  0
LWPOLYLINE
  5
1D8
330
13E
100
AcDbEntity
  8
AM_4
100
AcDbPolyline
 90
       19
 70
     0
 43
0.0
 10
0.0
 20
1.254194947209653
 10
0.2082765911249184
 20
1.253512098040192
 10
0.414968071630532
 20
1.251468747426304
 10
0.6185013945464648
 20
1.24808044649997
 10
0.8173275483885465
 20
1.243372982277152
 10
1.009933346071524
 20
1.237382181403029
 10
1.19485294117647
 20
1.230153637489598
 10
1.370678983927132
 20
1.221742364120755
 10
1.536073331971509
 20
1.212212376165702
 10
1.689777234453146
 20
1.201636202587141
 10
1.830620911865205
 20
1.190094334452073
 10
1.95753245877884
 20
1.177674612346176
 10
2.069546001690754
 20
1.164471557853911
 10
2.165809049903758
 20
1.150585654192184
 10
2.245588983495737
 20
1.1361225814724
 10
2.308278628999611
 20
1.121192412410998
 10
2.353400880360056
 20
1.105908774609619
 10
2.380612329998656
 20
1.090387985780443
 10
2.389705882352941
 20
1.074748168498169
  0
LINE
  5
1D9
330
13E
100
AcDbEntity
  8
AM_4
100
AcDbLine
 10
4.625
 20
1.28125
 30
0.0
 11
4.625
 21
-1.28125
 31
0.0
  0
LINE
  5
1DA
330
13E
100
AcDbEntity
  8
AM_4
100
AcDbLine
 10
-4.625
 20
1.28125
 30
0.0
 11
4.625
 21
1.28125
 31
0.0
  0
LWPOLYLINE
  5
1DB
330
13E
100
AcDbEntity
  8
AM_4
100
AcDbPolyline
 90
       19
 70
     0
 43
0.0
 10
-4.5325
 20
1.215544871794871
 10
-4.540561906204158
 20
1.215571303310415
 10
-4.548562456434191
 20
1.215650396697254
 10
-4.556440761671983
 20
1.215781550006957
 10
-4.564136863257624
 20
1.215963765083643
 10
-4.571592189211015
 20
1.216195655160555
 10
-4.57875
 20
1.216475455414189
 10
-4.585555820362472
 20
1.216801036395666
 10
-4.591957853896004
 20
1.217169920237126
 10
-4.597907377259756
 20
1.217579299509798
 10
-4.603359110988506
 20
1.218026058590226
 10
-4.608271564096731
 20
1.218506797372048
 10
-4.612607349850061
 20
1.219017857142857
 10
-4.61633347030089
 20
1.219555348429209
 10
-4.619421567422696
 20
1.22011518059787
 10
-4.621848138931739
 20
1.220693092988001
 10
-4.62359471715363
 20
1.221284687337359
 10
-4.624648009573487
 20
1.221885461255731
 10
-4.625
 20
1.222490842490842
  0
LINE
  5
1DC
330
13E
100
AcDbEntity
  8
AM_4
100
AcDbLine
 10
-4.376041542688247
 20
1.215544871794871
 30
0.0
 11
-4.5325
 21
1.215544871794871
 31
0.0
  0
LWPOLYLINE
  5
1DD
330
13E
100
AcDbEntity
  8
AM_4
100
AcDbPolyline
 90
       19
 70
     0
 43
0.0
 10
-4.376041542688247
 20
1.215544871794872
 10
-4.248939417847912
 20
1.21512815871197
 10
-4.122804616923974
 20
1.213881190901444
 10
-3.998597101913737
 20
1.211813458541271
 10
-3.87726216700498
 20
1.208940698323243
 10
-3.759723244316394
 20
1.20528477368724
 10
-3.646874876021581
 20
1.200873508427249
 10
-3.539575906342971
 20
1.195740474935493
 10
-3.438642945228711
 20
1.189924738696255
 10
-3.344844153457866
 20
1.183470560973954
 10
-3.258893396473071
 20
1.176427061958195
 10
-3.181444811433468
 20
1.168847846929468
 10
-3.113087828835942
 20
1.160790598290598
 10
-3.054342686593134
 20
1.152316636568827
 10
-3.005656470708798
 20
1.143490453729574
 10
-2.967399712683357
 20
1.134379222353642
 10
-2.939863569545445
 20
1.125052284413312
 10
-2.923257607971119
 20
1.115580623538072
 10
-2.917708209354914
 20
1.106036324786325
  0
LWPOLYLINE
  5
1DE
330
13E
100
AcDbEntity
  8
AM_4
100
AcDbPolyline
 90
        3
 70
     0
 43
0.0
 10
2.924274206251388
 20
1.095656367723903
 10
2.917751024495477
 20
1.105197193115679
 10
2.917708209354914
 20
1.106036324786325
  0
LINE
  5
1DF
330
13E
100
AcDbEntity
  8
AM_4
100
AcDbLine
 10
4.625
 20
1.215544871794872
 30
0.0
 11
4.376041542688248
 21
1.215544871794871
 31
0.0
  0
LWPOLYLINE
  5
1E0
330
13E
100
AcDbEntity
  8
AM_4
100
AcDbPolyline
 90
       19
 70
     0
 43
0.0
 10
0.0
 20
-0.8953013897866835
 10
0.2082765911249184
 20
-0.8959842389561444
 10
0.4149680716305321
 20
-0.8980275895700321
 10
0.6185013945464649
 20
-0.9014158904963658
 10
0.8173275483885466
 20
-0.9061233547191841
 10
1.009933346071525
 20
-0.9121141555933071
 10
1.194852941176471
 20
-0.919342699506738
 10
1.370678983927132
 20
-0.9277539728755813
 10
1.536073331971509
 20
-0.9372839608306344
 10
1.689777234453147
 20
-0.9478601344091956
 10
1.830620911865205
 20
-0.9594020025442636
 10
1.957532458778841
 20
-0.97182172465016
 10
2.069546001690754
 20
-0.9850247791424259
 10
2.165809049903759
 20
-0.9989106828041526
 10
2.245588983495737
 20
-1.013373755523937
 10
2.308278628999612
 20
-1.028303924585338
 10
2.353400880360056
 20
-1.043587562386718
 10
2.380612329998657
 20
-1.059108351215894
 10
2.389705882352941
 20
-1.074748168498168
  0
LWPOLYLINE
  5
1E1
330
13E
100
AcDbEntity
  8
AM_4
100
AcDbPolyline
 90
       19
 70
     0
 43
0.0
 10
4.376041542688247
 20
-1.215544871794872
 10
4.248939417847913
 20
-1.21512815871197
 10
4.122804616923974
 20
-1.213881190901444
 10
3.998597101913739
 20
-1.211813458541271
 10
3.877262167004981
 20
-1.208940698323243
 10
3.759723244316395
 20
-1.20528477368724
 10
3.646874876021581
 20
-1.200873508427249
 10
3.539575906342973
 20
-1.195740474935493
 10
3.438642945228712
 20
-1.189924738696256
 10
3.344844153457867
 20
-1.183470560973954
 10
3.258893396473072
 20
-1.176427061958195
 10
3.181444811433468
 20
-1.168847846929468
 10
3.113087828835942
 20
-1.160790598290598
 10
3.054342686593134
 20
-1.152316636568827
 10
3.005656470708798
 20
-1.143490453729574
 10
2.967399712683357
 20
-1.134379222353642
 10
2.939863569545444
 20
-1.125052284413312
 10
2.923257607971119
 20
-1.115580623538072
 10
2.917708209354914
 20
-1.106036324786325
  0
LWPOLYLINE
  5
1E2
330
13E
100
AcDbEntity
  8
AM_4
100
AcDbPolyline
 90
        3
 70
     0
 43
0.0
 10
-2.924274206251389
 20
-1.095656367723903
 10
-2.917751024495477
 20
-1.105197193115679
 10
-2.917708209354914
 20
-1.106036324786325
  0
LINE
  5
1E3
330
13E
100
AcDbEntity
  8
AM_4
100
AcDbLine
 10
-4.5325
 20
-1.215544871794872
 30
0.0
 11
-4.376041542688247
 21
-1.215544871794872
 31
0.0
  0
LWPOLYLINE
  5
1E4
330
13E
100
AcDbEntity
  8
AM_4
100
AcDbPolyline
 90
       19
 70
     0
 43
0.0
 10
-4.625
 20
-1.222490842490842
 10
-4.624648009573487
 20
-1.221885461255731
 10
-4.62359471715363
 20
-1.221284687337359
 10
-4.621848138931738
 20
-1.220693092988001
 10
-4.619421567422696
 20
-1.22011518059787
 10
-4.61633347030089
 20
-1.219555348429209
 10
-4.61260734985006
 20
-1.219017857142857
 10
-4.60827156409673
 20
-1.218506797372049
 10
-4.603359110988505
 20
-1.218026058590227
 10
-4.597907377259754
 20
-1.217579299509798
 10
-4.591957853896004
 20
-1.217169920237127
 10
-4.58555582036247
 20
-1.216801036395667
 10
-4.578749999999999
 20
-1.216475455414189
 10
-4.571592189211013
 20
-1.216195655160556
 10
-4.564136863257622
 20
-1.215963765083644
 10
-4.556440761671981
 20
-1.215781550006957
 10
-4.548562456434189
 20
-1.215650396697255
 10
-4.540561906204156
 20
-1.215571303310416
 10
-4.5325
 20
-1.215544871794872
  0
LINE
  5
1E5
330
13E
100
AcDbEntity
  8
AM_4
100
AcDbLine
 10
-4.625
 20
1.28125
 30
0.0
 11
-4.625
 21
-1.28125
 31
0.0
  0
LINE
  5
1E6
330
13E
100
AcDbEntity
  8
AM_4
100
AcDbLine
 10
2.03125
 20
-1.28125
 30
0.0
 11
4.625
 21
-1.28125
 31
0.0
  0
LINE
  5
1E7
330
13E
100
AcDbEntity
  8
AM_4
100
AcDbLine
 10
-4.625
 20
-1.28125
 30
0.0
 11
-2.03125
 21
-1.28125
 31
0.0
  0
LINE
  5
1E8
330
13E
100
AcDbEntity
  8
AM_4
100
AcDbLine
 10
4.376041542688248
 20
-1.215544871794872
 30
0.0
 11
4.625
 21
-1.215544871794872
 31
0.0
  0
LWPOLYLINE
  5
1E9
330
13E
100
AcDbEntity
  8
AM_4
100
AcDbPolyline
 90
        3
 70
     0
 43
0.0
 10
-2.924274206251389
 20
-1.095656367723903
 10
-2.937413758074009
 20
-1.076438419434755
 10
-2.9375
 20
-1.074748168498169
  0
LWPOLYLINE
  5
1EA
330
13E
100
AcDbEntity
  8
AM_4
100
AcDbPolyline
 90
        3
 70
     0
 43
0.0
 10
2.924274206251387
 20
1.095656367723903
 10
2.937413758074008
 20
1.076438419434755
 10
2.937499999999999
 20
1.074748168498168
  0
LINE
  5
1EB
330
13E
100
AcDbEntity
  8
AM_4
100
AcDbLine
 10
2.9375
 20
-1.074748168498169
 30
0.0
 11
2.9375
 21
-0.5870575812849901
 31
0.0
  0
LINE
  5
1EC
330
13E
100
AcDbEntity
  8
AM_4
100
AcDbLine
 10
2.9375
 20
0.5869171997461616
 30
0.0
 11
2.9375
 21
1.074748168498168
 31
0.0
  0
LINE
  5
1ED
330
13E
100
AcDbEntity
  8
AM_4
100
AcDbLine
 10
-2.9375
 20
1.074748168498168
 30
0.0
 11
-2.9375
 21
0.5870575812849901
 31
0.0
  0
LINE
  5
1EE
330
13E
100
AcDbEntity
  8
AM_4
100
AcDbLine
 10
-2.9375
 20
-0.586917199746162
 30
0.0
 11
-2.9375
 21
-1.074748168498169
 31
0.0
  0
LWPOLYLINE
  5
1EF
330
13E
100
AcDbEntity
  8
AM_4
100
AcDbPolyline
 90
       37
 70
     0
 43
0.0
 10
-2.9375
 20
-1.074748168498169
 10
-2.926321925644503
 20
-1.05552322386965
 10
-2.892872774473362
 20
-1.036444592678094
 10
-2.837407114724138
 20
-1.017657474826859
 10
-2.760347073558607
 20
-0.9993048516267672
 10
-2.662279124420161
 20
-0.9815263976219865
 10
-2.54394962361679
 20
-0.9644574175824178
 10
-2.406259130098915
 20
-0.9482278167526941
 10
-2.250255551662
 20
-0.9329611121948306
 10
-2.077126169735486
 20
-0.9187734927488008
 10
-1.888188603454212
 20
-0.905772934765308
 10
-1.684880781781201
 20
-0.8940583803405578
 10
-1.468750000000004
 20
-0.8837189843071642
 10
-1.241441143863309
 20
-0.8748334357120394
 10
-1.004684171019157
 20
-0.8674693589452329
 10
-0.7602809449886598
 20
-0.8616827990774915
 10
-0.5100915218966134
 20
-0.8575177953234289
 10
-0.2560199943212518
 20
-0.8550060458765116
 10
-0.0000000000000062
 20
-0.8541666666666666
 10
0.2560199943212394
 20
-0.8550060458765115
 10
0.5100915218966012
 20
-0.8575177953234288
 10
0.760280944988648
 20
-0.8616827990774911
 10
1.004684171019145
 20
-0.8674693589452326
 10
1.241441143863298
 20
-0.874833435712039
 10
1.468749999999993
 20
-0.8837189843071639
 10
1.684880781781191
 20
-0.8940583803405573
 10
1.888188603454203
 20
-0.9057729347653074
 10
2.077126169735477
 20
-0.9187734927488002
 10
2.250255551661992
 20
-0.9329611121948299
 10
2.406259130098908
 20
-0.9482278167526934
 10
2.543949623616783
 20
-0.9644574175824169
 10
2.662279124420155
 20
-0.9815263976219856
 10
2.760347073558603
 20
-0.9993048516267662
 10
2.837407114724135
 20
-1.017657474826859
 10
2.892872774473359
 20
-1.036444592678093
 10
2.926321925644501
 20
-1.055523223869649
 10
2.9375
 20
-1.074748168498168
  0
LWPOLYLINE
  5
1F0
330
13E
100
AcDbEntity
  8
AM_4
100
AcDbPolyline
 90
        3
 70
     0
 43
0.0
 10
2.9375
 20
-1.074748168498169
 10
2.926321925644502
 20
-1.093973113126687
 10
2.924274206251388
 20
-1.095656367723903
  0
LWPOLYLINE
  5
1F1
330
13E
100
AcDbEntity
  8
AM_4
100
AcDbPolyline
 90
       51
 70
     0
 43
0.0
 10
2.937499999999938
 20
0.5871425109161895
 10
2.93703908608152
 20
0.5869455882088734
 10
2.932991356864886
 20
0.5851540999218402
 10
2.924546281558207
 20
0.5813226353340438
 10
2.91177599711975
 20
0.575231303324748
 10
2.89456199252311
 20
0.5664761103101046
 10
2.87306704775956
 20
0.5545834786282001
 10
2.852520077210549
 20
0.5421879108649924
 10
2.829304922043213
 20
0.5268587816275548
 10
2.80328378633729
 20
0.5078827863280528
 10
2.774862526660969
 20
0.4846995722142142
 10
2.744523672873748
 20
0.4567379342979909
 10
2.712511401950708
 20
0.4228590809862678
 10
2.689833029019453
 20
0.3955822854273922
 10
2.666916231704525
 20
0.3645062838346796
 10
2.64421324780229
 20
0.3292563569758264
 10
2.631485604393394
 20
0.3070170860182367
 10
2.619102512381587
 20
0.2831618893828152
 10
2.607020432977952
 20
0.2571937659619603
 10
2.595617885001429
 20
0.229430520272123
 10
2.585226487538834
 20
0.2002450486950405
 10
2.575906391867969
 20
0.169321193343872
 10
2.567641833364659
 20
0.13558974673033
 10
2.561024989366797
 20
0.1002968172188016
 10
2.55492263639265
 20
0.0479582123466143
 10
2.553452894024882
 20
0.0204326225994654
 10
2.553165987920352
 20
-0.0072466608131835
 10
2.55403582170998
 20
-0.0341170236785874
 10
2.556011606548494
 20
-0.0607464578629244
 10
2.559157321367704
 20
-0.0876961098325029
 10
2.563356265394472
 20
-0.1140356522982828
 10
2.574392566740866
 20
-0.1636971609150794
 10
2.588746496990493
 20
-0.2106446105914532
 10
2.601707971452778
 20
-0.2447158211573312
 10
2.615749395451275
 20
-0.2762529488825567
 10
2.630970670440547
 20
-0.3060728900955669
 10
2.646729638787522
 20
-0.3334203278805441
 10
2.672556418715708
 20
-0.3725119229287714
 10
2.698475805234334
 20
-0.4063297461720237
 10
2.724569451882991
 20
-0.4362067794247458
 10
2.749818190109342
 20
-0.4618711279049651
 10
2.77942190650703
 20
-0.4886383491065848
 10
2.806971367872119
 20
-0.5107209348229133
 10
2.832172099705997
 20
-0.5288306086489133
 10
2.85534776209225
 20
-0.5439707098808211
 10
2.875785740063919
 20
-0.5561639538571838
 10
2.893381225023026
 20
-0.5658436088212287
 10
2.91293113555485
 20
-0.5758356437824679
 10
2.926844327393478
 20
-0.5824144235666897
 10
2.935042002034732
 20
-0.5860636163538934
 10
2.937499999995874
 20
-0.5871425109144163
  0
LWPOLYLINE
  5
1F2
330
13E
100
AcDbEntity
  8
AM_4
100
AcDbPolyline
 90
       37
 70
     0
 43
0.0
 10
2.937499999999999
 20
1.074748168498168
 10
2.926321925644502
 20
1.05552322386965
 10
2.892872774473361
 20
1.036444592678093
 10
2.837407114724138
 20
1.017657474826859
 10
2.760347073558606
 20
0.999304851626767
 10
2.662279124420159
 20
0.9815263976219862
 10
2.543949623616788
 20
0.9644574175824175
 10
2.406259130098914
 20
0.948227816752694
 10
2.250255551661999
 20
0.9329611121948306
 10
2.077126169735485
 20
0.9187734927488008
 10
1.888188603454211
 20
0.905772934765308
 10
1.6848807817812
 20
0.8940583803405578
 10
1.468750000000003
 20
0.8837189843071642
 10
1.241441143863308
 20
0.8748334357120394
 10
1.004684171019156
 20
0.8674693589452329
 10
0.7602809449886588
 20
0.8616827990774916
 10
0.5100915218966126
 20
0.857517795323429
 10
0.2560199943212509
 20
0.8550060458765117
 10
0.0000000000000053
 20
0.8541666666666666
 10
-0.2560199943212403
 20
0.8550060458765116
 10
-0.510091521896602
 20
0.8575177953234288
 10
-0.7602809449886486
 20
0.8616827990774912
 10
-1.004684171019146
 20
0.8674693589452327
 10
-1.241441143863298
 20
0.8748334357120391
 10
-1.468749999999994
 20
0.8837189843071639
 10
-1.684880781781191
 20
0.8940583803405574
 10
-1.888188603454203
 20
0.9057729347653074
 10
-2.077126169735477
 20
0.9187734927488002
 10
-2.250255551661993
 20
0.9329611121948299
 10
-2.406259130098908
 20
0.9482278167526932
 10
-2.543949623616783
 20
0.9644574175824169
 10
-2.662279124420155
 20
0.9815263976219855
 10
-2.760347073558603
 20
0.9993048516267662
 10
-2.837407114724135
 20
1.017657474826858
 10
-2.892872774473359
 20
1.036444592678093
 10
-2.926321925644501
 20
1.055523223869649
 10
-2.9375
 20
1.074748168498167
  0
LWPOLYLINE
  5
1F3
330
13E
100
AcDbEntity
  8
AM_4
100
AcDbPolyline
 90
        3
 70
     0
 43
0.0
 10
-2.9375
 20
1.074748168498168
 10
-2.926321925644502
 20
1.093973113126687
 10
-2.924274206251388
 20
1.095656367723903
  0
LWPOLYLINE
  5
1F4
330
13E
100
AcDbEntity
  8
AM_4
100
AcDbPolyline
 90
       51
 70
     0
 43
0.0
 10
-2.937499999999938
 20
-0.5871425109161899
 10
-2.93703908608152
 20
-0.5869455882088737
 10
-2.932991356864886
 20
-0.5851540999218403
 10
-2.924546281558207
 20
-0.5813226353340438
 10
-2.911775997119749
 20
-0.5752313033247478
 10
-2.894561992523109
 20
-0.5664761103101041
 10
-2.873067047759558
 20
-0.5545834786281992
 10
-2.852520077210548
 20
-0.5421879108649915
 10
-2.829304922043212
 20
-0.526858781627554
 10
-2.803283786337289
 20
-0.5078827863280521
 10
-2.774862526660968
 20
-0.4846995722142136
 10
-2.744523672873748
 20
-0.4567379342979906
 10
-2.712511401950708
 20
-0.4228590809862678
 10
-2.689833029019453
 20
-0.3955822854273923
 10
-2.666916231704526
 20
-0.3645062838346799
 10
-2.644213247802291
 20
-0.3292563569758269
 10
-2.631485604393394
 20
-0.3070170860182375
 10
-2.619102512381588
 20
-0.2831618893828161
 10
-2.607020432977954
 20
-0.2571937659619613
 10
-2.59561788500143
 20
-0.2294305202721241
 10
-2.585226487538834
 20
-0.2002450486950415
 10
-2.575906391867969
 20
-0.169321193343873
 10
-2.567641833364659
 20
-0.1355897467303315
 10
-2.561024989366797
 20
-0.1002968172188036
 10
-2.554922636392651
 20
-0.0479582123466163
 10
-2.553452894024882
 20
-0.0204326225994673
 10
-2.553165987920352
 20
0.0072466608131819
 10
-2.55403582170998
 20
0.0341170236785858
 10
-2.556011606548494
 20
0.0607464578629228
 10
-2.559157321367704
 20
0.0876961098325013
 10
-2.563356265394471
 20
0.1140356522982813
 10
-2.574392566740866
 20
0.1636971609150784
 10
-2.588746496990492
 20
0.2106446105914523
 10
-2.601707971452778
 20
0.2447158211573302
 10
-2.615749395451275
 20
0.2762529488825556
 10
-2.630970670440547
 20
0.3060728900955655
 10
-2.646729638787521
 20
0.3334203278805426
 10
-2.672556418715706
 20
0.3725119229287702
 10
-2.698475805234333
 20
0.4063297461720225
 10
-2.724569451882989
 20
0.4362067794247441
 10
-2.74981819010934
 20
0.4618711279049631
 10
-2.779421906507028
 20
0.4886383491065833
 10
-2.806971367872118
 20
0.5107209348229124
 10
-2.832172099705996
 20
0.5288306086489127
 10
-2.855347762092248
 20
0.5439707098808204
 10
-2.875785740063917
 20
0.556163953857183
 10
-2.893381225023024
 20
0.5658436088212279
 10
-2.912931135554849
 20
0.5758356437824674
 10
-2.926844327393478
 20
0.5824144235666894
 10
-2.935042002034732
 20
0.5860636163538934
 10
-2.937499999995875
 20
0.5871425109144166
  0
ENDBLK
  5
141
330
13E
100
AcDbEntity
  8
0
100
AcDbBlockEnd
  0
ENDSEC
  0
SECTION
  2
ENTITIES
  0
INSERT
  5
6F
330
1F
100
AcDbEntity
  8
0
100
AcDbBlockReference
  2
1_048007_4
 10
0.0
 20
0.0
 30
0.0
  0
POINT
  5
1F6
330
1F
100
AcDbEntity
  8
ConnectionPoints
100
AcDbPoint
 10
1.46875
 20
0.0000000000000002
 30
2.543949623616788
  0
POINT
  5
1F7
330
1F
100
AcDbEntity
  8
ConnectionPoints
100
AcDbPoint
 10
1.46875
 20
0.0000000000000002
 30
2.543949623616788
  0
POINT
  5
1F8
330
1F
100
AcDbEntity
  8
ConnectionPoints
100
AcDbPoint
 10
0.0
 20
-1.54688
 30
0.0000000000000001
  0
ENDSEC
  0
SECTION
  2
OBJECTS
  0
DICTIONARY
  5
C
330
0
100
AcDbDictionary
281
     1
  3
ACAD_DETAILVIEWSTYLE
350
200
  3
ACAD_GROUP
350
D
  3
ACAD_LAYOUT
350
1A
  3
ACAD_MATERIAL
350
43
  3
ACAD_MLEADERSTYLE
350
6B
  3
ACAD_MLINESTYLE
350
17
  3
ACAD_PLOTSETTINGS
350
19
  3
ACAD_PLOTSTYLENAME
350
E
  3
ACAD_SCALELIST
350
47
  3
ACAD_SECTIONVIEWSTYLE
350
201
  3
ACAD_TABLESTYLE
350
69
  3
ACAD_VISUALSTYLE
350
2A
  3
ACDB_RECOMPOSE_DATA
350
1FD
  3
AcDbVariableDictionary
350
1F9
  0
SUN
  5
6D
330
29
100
AcDbSun
 90
        1
290
     0
 63
     7
421
 16777215
 40
1.0
291
     1
 91
  2455826
 92
 54000000
292
     0
 70
     2
 71
   256
280
     1
  0
DICTIONARY
  5
200
102
{ACAD_REACTORS
330
C
102
}
330
C
100
AcDbDictionary
281
     1
  0
DICTIONARY
  5
D
102
{ACAD_REACTORS
330
C
102
}
330
C
100
AcDbDictionary
281
     1
  0
DICTIONARY
  5
1A
102
{ACAD_REACTORS
330
C
102
}
330
C
100
AcDbDictionary
281
     1
  3
Layout1
350
1E
  3
Layout2
350
26
  3
Model
350
22
  0
DICTIONARY
  5
43
102
{ACAD_REACTORS
330
C
102
}
330
C
100
AcDbDictionary
281
     1
  3
ByBlock
350
45
  3
ByLayer
350
44
  3
Global
350
46
  0
DICTIONARY
  5
6B
102
{ACAD_REACTORS
330
C
102
}
330
C
100
AcDbDictionary
281
     1
  3
Standard
350
6C
  0
DICTIONARY
  5
17
102
{ACAD_REACTORS
330
C
102
}
330
C
100
AcDbDictionary
281
     1
  3
Standard
350
18
  0
DICTIONARY
  5
19
102
{ACAD_REACTORS
330
C
102
}
330
C
100
AcDbDictionary
281
     1
  0
ACDBDICTIONARYWDFLT
  5
E
102
{ACAD_REACTORS
330
C
102
}
330
C
100
AcDbDictionary
281
     1
  3
Normal
350
F
100
AcDbDictionaryWithDefault
340
F
  0
DICTIONARY
  5
47
102
{ACAD_REACTORS
330
C
102
}
330
C
100
AcDbDictionary
281
     1
  3
A0
350
48
  3
A1
350
49
  3
A2
350
4A
  3
A3
350
4B
  3
A4
350
4C
  3
A5
350
4D
  3
A6
350
4E
  3
A7
350
4F
  3
A8
350
50
  3
A9
350
51
  3
B0
350
52
  3
B1
350
53
  3
B2
350
54
  3
B3
350
55
  3
B4
350
56
  3
B5
350
57
  3
B6
350
58
  3
B7
350
59
  3
B8
350
5A
  3
B9
350
5B
  3
C0
350
5C
  3
C1
350
5D
  3
C2
350
5E
  3
C3
350
5F
  3
C4
350
60
  3
C5
350
61
  3
C6
350
62
  3
C7
350
63
  3
C8
350
64
  3
C9
350
65
  3
D0
350
66
  3
D1
350
67
  3
D2
350
68
  0
DICTIONARY
  5
201
102
{ACAD_REACTORS
330
C
102
}
330
C
100
AcDbDictionary
281
     1
  0
DICTIONARY
  5
69
102
{ACAD_REACTORS
330
C
102
}
330
C
100
AcDbDictionary
281
     1
  3
Standard
350
6A
  0
DICTIONARY
  5
2A
102
{ACAD_REACTORS
330
C
102
}
330
C
100
AcDbDictionary
281
     1
  3
2dWireframe
350
2F
  3
Basic
350
32
  3
Brighten
350
36
  3
ColorChange
350
3A
  3
Conceptual
350
34
  3
Dim
350
35
  3
EdgeColorOff
350
3D
  3
Facepattern
350
39
  3
Flat
350
2B
  3
FlatWithEdges
350
2C
  3
Gouraud
350
2D
  3
GouraudWithEdges
350
2E
  3
Hidden
350
31
  3
JitterOff
350
3B
  3
Linepattern
350
38
  3
OverhangOff
350
3C
  3
Realistic
350
33
  3
Shaded
350
42
  3
Shaded with edges
350
41
  3
Shades of Gray
350
3E
  3
Sketchy
350
3F
  3
Thicken
350
37
  3
Wireframe
350
30
  3
X-Ray
350
40
  0
XRECORD
  5
1FD
102
{ACAD_REACTORS
330
C
102
}
330
C
100
AcDbXrecord
280
     1
 90
        1
330
6A
  0
DICTIONARY
  5
1F9
102
{ACAD_REACTORS
330
C
102
}
330
C
100
AcDbDictionary
281
     1
  3
CANNOSCALE
350
1FA
  3
CMLEADERSTYLE
350
1FF
  3
CTABLESTYLE
350
1FE
  0
LAYOUT
  5
1E
102
{ACAD_REACTORS
330
1A
102
}
330
1A
100
AcDbPlotSettings
  1

  2
none_device
  4

  6

 40
0.0
 41
0.0
 42
0.0
 43
0.0
 44
0.0
 45
0.0
 46
0.0
 47
0.0
 48
0.0
 49
0.0
140
0.0
141
0.0
142
1.0
143
1.0
 70
   688
 72
     0
 73
     0
 74
     5
  7

 75
    16
 76
     0
 77
     2
 78
   300
147
1.0
148
0.0
149
0.0
100
AcDbLayout
  1
Layout1
 70
     1
 71
     1
 10
0.0
 20
0.0
 11
12.0
 21
9.0
 12
0.0
 22
0.0
 32
0.0
 14
1.000000000000000E+20
 24
1.000000000000000E+20
 34
1.000000000000000E+20
 15
-1.000000000000000E+20
 25
-1.000000000000000E+20
 35
-1.000000000000000E+20
146
0.0
 13
0.0
 23
0.0
 33
0.0
 16
1.0
 26
0.0
 36
0.0
 17
0.0
 27
1.0
 37
0.0
 76
     0
330
1B
  0
LAYOUT
  5
26
102
{ACAD_REACTORS
330
1A
102
}
330
1A
100
AcDbPlotSettings
  1

  2
none_device
  4

  6

 40
0.0
 41
0.0
 42
0.0
 43
0.0
 44
0.0
 45
0.0
 46
0.0
 47
0.0
 48
0.0
 49
0.0
140
0.0
141
0.0
142
1.0
143
1.0
 70
   688
 72
     0
 73
     0
 74
     5
  7

 75
    16
 76
     0
 77
     2
 78
   300
147
1.0
148
0.0
149
0.0
100
AcDbLayout
  1
Layout2
 70
     1
 71
     2
 10
0.0
 20
0.0
 11
0.0
 21
0.0
 12
0.0
 22
0.0
 32
0.0
 14
0.0
 24
0.0
 34
0.0
 15
0.0
 25
0.0
 35
0.0
146
0.0
 13
0.0
 23
0.0
 33
0.0
 16
1.0
 26
0.0
 36
0.0
 17
0.0
 27
1.0
 37
0.0
 76
     0
330
23
  0
LAYOUT
  5
22
102
{ACAD_REACTORS
330
1A
102
}
330
1A
100
AcDbPlotSettings
  1

  2
none_device
  4
Letter_(8.50_x_11.00_Inches)
  6

 40
6.35
 41
6.35
 42
6.35000508
 43
6.35000508
 44
215.9
 45
279.4
 46
0.0
 47
0.0
 48
0.0
 49
0.0
140
0.0
141
0.0
142
1.0
143
1.0
 70
  1712
 72
     0
 73
     0
 74
     0
  7

 75
     0
 76
     0
 77
     2
 78
   300
147
1.0
148
0.0
149
0.0
100
AcDbLayout
  1
Model
 70
     1
 71
     0
 10
0.0
 20
0.0
 11
12.0
 21
9.0
 12
0.0
 22
0.0
 32
0.0
 14
1.000000000000000E+20
 24
1.000000000000000E+20
 34
1.000000000000000E+20
 15
-1.000000000000000E+20
 25
-1.000000000000000E+20
 35
-1.000000000000000E+20
146
0.0
 13
0.0
 23
0.0
 33
0.0
 16
1.0
 26
0.0
 36
0.0
 17
0.0
 27
1.0
 37
0.0
 76
     0
330
1F
331
29
  0
MATERIAL
  5
45
102
{ACAD_REACTORS
330
43
102
}
330
43
100
AcDbMaterial
  1
ByBlock
 72
     1
 94
      127
  0
MATERIAL
  5
44
102
{ACAD_REACTORS
330
43
102
}
330
43
100
AcDbMaterial
  1
ByLayer
 72
     1
 94
      127
  0
MATERIAL
  5
46
102
{ACAD_REACTORS
330
43
102
}
330
43
100
AcDbMaterial
  1
Global
 72
     1
 94
      127
  0
MLEADERSTYLE
  5
6C
102
{ACAD_REACTORS
330
6B
102
}
330
6B
100
AcDbMLeaderStyle
179
     2
170
     2
171
     1
172
     0
 90
        2
 40
0.0
 41
0.0
173
     1
 91
-1056964608
340
14
 92
       -2
290
     1
 42
0.09
291
     1
 43
0.36
  3
Standard
341
0
 44
0.18
300

342
11
174
     1
178
     6
175
     1
176
     0
 93
-1056964608
 45
0.18
292
     0
297
     0
 46
0.18
343
0
 94
-1056964608
 47
1.0
 49
1.0
140
1.0
293
     1
141
0.0
294
     1
177
     0
142
1.0
295
     0
296
     0
143
0.125
271
     0
272
     9
273
     9
298
     0
  0
MLINESTYLE
  5
18
102
{ACAD_REACTORS
330
17
102
}
330
17
100
AcDbMlineStyle
  2
Standard
 70
     0
  3

 62
   256
 51
90.0
 52
90.0
 71
     2
 49
0.5
 62
   256
  6
BYLAYER
 49
-0.5
 62
   256
  6
BYLAYER
  0
ACDBPLACEHOLDER
  5
F
102
{ACAD_REACTORS
330
E
102
}
330
E
  0
SCALE
  5
48
102
{ACAD_REACTORS
330
47
102
}
330
47
100
AcDbScale
 70
     0
300
1:1
140
1.0
141
1.0
290
     1
  0
SCALE
  5
49
102
{ACAD_REACTORS
330
47
102
}
330
47
100
AcDbScale
 70
     0
300
1:2
140
1.0
141
2.0
290
     0
  0
SCALE
  5
4A
102
{ACAD_REACTORS
330
47
102
}
330
47
100
AcDbScale
 70
     0
300
1:4
140
1.0
141
4.0
290
     0
  0
SCALE
  5
4B
102
{ACAD_REACTORS
330
47
102
}
330
47
100
AcDbScale
 70
     0
300
1:5
140
1.0
141
5.0
290
     0
  0
SCALE
  5
4C
102
{ACAD_REACTORS
330
47
102
}
330
47
100
AcDbScale
 70
     0
300
1:8
140
1.0
141
8.0
290
     0
  0
SCALE
  5
4D
102
{ACAD_REACTORS
330
47
102
}
330
47
100
AcDbScale
 70
     0
300
1:10
140
1.0
141
10.0
290
     0
  0
SCALE
  5
4E
102
{ACAD_REACTORS
330
47
102
}
330
47
100
AcDbScale
 70
     0
300
1:16
140
1.0
141
16.0
290
     0
  0
SCALE
  5
4F
102
{ACAD_REACTORS
330
47
102
}
330
47
100
AcDbScale
 70
     0
300
1:20
140
1.0
141
20.0
290
     0
  0
SCALE
  5
50
102
{ACAD_REACTORS
330
47
102
}
330
47
100
AcDbScale
 70
     0
300
1:30
140
1.0
141
30.0
290
     0
  0
SCALE
  5
51
102
{ACAD_REACTORS
330
47
102
}
330
47
100
AcDbScale
 70
     0
300
1:40
140
1.0
141
40.0
290
     0
  0
SCALE
  5
52
102
{ACAD_REACTORS
330
47
102
}
330
47
100
AcDbScale
 70
     0
300
1:50
140
1.0
141
50.0
290
     0
  0
SCALE
  5
53
102
{ACAD_REACTORS
330
47
102
}
330
47
100
AcDbScale
 70
     0
300
1:100
140
1.0
141
100.0
290
     0
  0
SCALE
  5
54
102
{ACAD_REACTORS
330
47
102
}
330
47
100
AcDbScale
 70
     0
300
2:1
140
2.0
141
1.0
290
     0
  0
SCALE
  5
55
102
{ACAD_REACTORS
330
47
102
}
330
47
100
AcDbScale
 70
     0
300
4:1
140
4.0
141
1.0
290
     0
  0
SCALE
  5
56
102
{ACAD_REACTORS
330
47
102
}
330
47
100
AcDbScale
 70
     0
300
8:1
140
8.0
141
1.0
290
     0
  0
SCALE
  5
57
102
{ACAD_REACTORS
330
47
102
}
330
47
100
AcDbScale
 70
     0
300
10:1
140
10.0
141
1.0
290
     0
  0
SCALE
  5
58
102
{ACAD_REACTORS
330
47
102
}
330
47
100
AcDbScale
 70
     0
300
100:1
140
100.0
141
1.0
290
     0
  0
SCALE
  5
59
102
{ACAD_REACTORS
330
47
102
}
330
47
100
AcDbScale
 70
     0
300
1/128" = 1'-0"
140
0.0078125
141
12.0
290
     0
  0
SCALE
  5
5A
102
{ACAD_REACTORS
330
47
102
}
330
47
100
AcDbScale
 70
     0
300
1/64" = 1'-0"
140
0.015625
141
12.0
290
     0
  0
SCALE
  5
5B
102
{ACAD_REACTORS
330
47
102
}
330
47
100
AcDbScale
 70
     0
300
1/32" = 1'-0"
140
0.03125
141
12.0
290
     0
  0
SCALE
  5
5C
102
{ACAD_REACTORS
330
47
102
}
330
47
100
AcDbScale
 70
     0
300
1/16" = 1'-0"
140
0.0625
141
12.0
290
     0
  0
SCALE
  5
5D
102
{ACAD_REACTORS
330
47
102
}
330
47
100
AcDbScale
 70
     0
300
3/32" = 1'-0"
140
0.09375
141
12.0
290
     0
  0
SCALE
  5
5E
102
{ACAD_REACTORS
330
47
102
}
330
47
100
AcDbScale
 70
     0
300
1/8" = 1'-0"
140
0.125
141
12.0
290
     0
  0
SCALE
  5
5F
102
{ACAD_REACTORS
330
47
102
}
330
47
100
AcDbScale
 70
     0
300
3/16" = 1'-0"
140
0.1875
141
12.0
290
     0
  0
SCALE
  5
60
102
{ACAD_REACTORS
330
47
102
}
330
47
100
AcDbScale
 70
     0
300
1/4" = 1'-0"
140
0.25
141
12.0
290
     0
  0
SCALE
  5
61
102
{ACAD_REACTORS
330
47
102
}
330
47
100
AcDbScale
 70
     0
300
3/8" = 1'-0"
140
0.375
141
12.0
290
     0
  0
SCALE
  5
62
102
{ACAD_REACTORS
330
47
102
}
330
47
100
AcDbScale
 70
     0
300
1/2" = 1'-0"
140
0.5
141
12.0
290
     0
  0
SCALE
  5
63
102
{ACAD_REACTORS
330
47
102
}
330
47
100
AcDbScale
 70
     0
300
3/4" = 1'-0"
140
0.75
141
12.0
290
     0
  0
SCALE
  5
64
102
{ACAD_REACTORS
330
47
102
}
330
47
100
AcDbScale
 70
     0
300
1" = 1'-0"
140
1.0
141
12.0
290
     0
  0
SCALE
  5
65
102
{ACAD_REACTORS
330
47
102
}
330
47
100
AcDbScale
 70
     0
300
1-1/2" = 1'-0"
140
1.5
141
12.0
290
     0
  0
SCALE
  5
66
102
{ACAD_REACTORS
330
47
102
}
330
47
100
AcDbScale
 70
     0
300
3" = 1'-0"
140
3.0
141
12.0
290
     0
  0
SCALE
  5
67
102
{ACAD_REACTORS
330
47
102
}
330
47
100
AcDbScale
 70
     0
300
6" = 1'-0"
140
6.0
141
12.0
290
     0
  0
SCALE
  5
68
102
{ACAD_REACTORS
330
47
102
}
330
47
100
AcDbScale
 70
     0
300
1'-0" = 1'-0"
140
12.0
141
12.0
290
     0
  0
TABLESTYLE
  5
6A
102
{ACAD_REACTORS
330
69
102
}
102
{ACAD_XDICTIONARY
360
1FB
102
}
330
69
100
AcDbTableStyle
  3
Standard
 70
     0
 71
     0
 40
0.06
 41
0.06
280
     0
281
     0
  7
Standard
140
0.18
170
     2
 62
     0
 63
   257
283
     0
 90
        4
 91
        0
  1

274
    -2
284
     1
 64
     0
275
    -2
285
     1
 65
     0
276
    -2
286
     1
 66
     0
277
    -2
287
     1
 67
     0
278
    -2
288
     1
 68
     0
279
    -2
289
     1
 69
     0
  7
Standard
140
0.25
170
     5
 62
     0
 63
   257
283
     0
 90
        4
 91
        0
  1

274
    -2
284
     1
 64
     0
275
    -2
285
     1
 65
     0
276
    -2
286
     1
 66
     0
277
    -2
287
     1
 67
     0
278
    -2
288
     1
 68
     0
279
    -2
289
     1
 69
     0
  7
Standard
140
0.18
170
     5
 62
     0
 63
   257
283
     0
 90
        4
 91
        0
  1

274
    -2
284
     1
 64
     0
275
    -2
285
     1
 65
     0
276
    -2
286
     1
 66
     0
277
    -2
287
     1
 67
     0
278
    -2
288
     1
 68
     0
279
    -2
289
     1
 69
     0
  0
VISUALSTYLE
  5
2F
102
{ACAD_REACTORS
330
2A
102
}
330
2A
100
AcDbVisualStyle
  2
2dWireframe
 70
     4
177
     3
291
     0
 70
    58
 90
        0
176
     1
 90
        2
176
     1
 90
        0
176
     1
 90
        0
176
     1
 40
0.6
176
     1
 40
30.0
176
     1
 62
     7
420
 16777215
176
     1
 90
        1
176
     1
 90
        4
176
     1
 62
     7
176
     1
 62
   257
176
     1
 90
        1
176
     1
 90
        1
176
     1
 40
1.0
176
     1
 90
        0
176
     1
 62
   257
176
     1
 40
1.0
176
     1
 90
        1
176
     1
 90
        6
176
     1
 90
        2
176
     1
 62
     7
176
     1
 90
        5
176
     1
 90
        0
176
     1
 90
        0
176
     1
290
     0
176
     1
 90
        1
176
     1
 40
0.0
176
     1
 90
        0
176
     1
290
     1
176
     1
290
     1
176
     1
290
     0
176
     1
290
     0
176
     1
290
     0
176
     1
290
     0
176
     1
290
     0
176
     1
290
     0
176
     1
290
     0
176
     1
 90
       50
176
     1
 40
0.0
176
     1
 40
1.0
176
     1
 90
        0
176
     1
 62
    18
420
        0
176
     1
 90
       50
176
     1
 90
        3
176
     1
 62
     5
420
      255
176
     1
290
     0
176
     1
 90
       50
176
     1
 90
       50
176
     1
 90
       50
176
     1
290
     0
176
     1
 90
       50
176
     1
 62
   256
176
     0
 40
1.0
176
     0
 90
        2
176
     1
  1
strokes_ogs.tif
176
     1
290
     0
176
     1
 40
1.0
176
     1
 40
1.0
176
     1
  0
VISUALSTYLE
  5
32
102
{ACAD_REACTORS
330
2A
102
}
330
2A
100
AcDbVisualStyle
  2
Basic
 70
     7
177
     3
291
     1
 70
    58
 90
        1
176
     1
 90
        0
176
     1
 90
        1
176
     1
 90
        0
176
     1
 40
0.6
176
     1
 40
30.0
176
     1
 62
     7
420
 16777215
176
     1
 90
        0
176
     1
 90
        4
176
     1
 62
     7
176
     1
 62
   257
176
     1
 90
        1
176
     1
 90
        1
176
     1
 40
1.0
176
     1
 90
        8
176
     1
 62
     7
176
     1
 40
1.0
176
     1
 90
        1
176
     1
 90
        6
176
     1
 90
        2
176
     1
 62
     7
176
     1
 90
        5
176
     1
 90
        0
176
     1
 90
        0
176
     1
290
     0
176
     1
 90
        1
176
     1
 40
0.0
176
     1
 90
        0
176
     1
290
     0
176
     1
290
     1
176
     1
290
     1
176
     1
290
     0
176
     1
290
     0
176
     1
290
     0
176
     1
290
     0
176
     1
290
     0
176
     1
290
     0
176
     1
 90
       50
176
     1
 40
0.0
176
     1
 40
1.0
176
     1
 90
        0
176
     1
 62
    18
420
        0
176
     1
 90
       50
176
     1
 90
        3
176
     1
 62
     5
420
      255
176
     1
290
     0
176
     1
 90
       50
176
     1
 90
       50
176
     1
 90
       50
176
     1
290
     0
176
     1
 90
       50
176
     1
 62
   256
176
     0
 40
1.0
176
     0
 90
        2
176
     1
  1
strokes_ogs.tif
176
     1
290
     0
176
     1
 40
1.0
176
     1
 40
1.0
176
     1
  0
VISUALSTYLE
  5
36
102
{ACAD_REACTORS
330
2A
102
}
330
2A
100
AcDbVisualStyle
  2
Brighten
 70
    12
177
     3
291
     1
 70
    58
 90
        2
176
     1
 90
        2
176
     1
 90
        0
176
     1
 90
        0
176
     1
 40
0.6
176
     1
 40
30.0
176
     1
 62
     7
420
 16777215
176
     1
 90
        1
176
     1
 90
        4
176
     1
 62
     7
176
     1
 62
   257
176
     1
 90
        1
176
     1
 90
        1
176
     1
 40
1.0
176
     1
 90
        8
176
     1
 62
     7
176
     1
 40
1.0
176
     1
 90
        1
176
     1
 90
        6
176
     1
 90
        2
176
     1
 62
     7
176
     1
 90
        5
176
     1
 90
        0
176
     1
 90
        0
176
     1
290
     0
176
     1
 90
        1
176
     1
 40
50.0
176
     1
 90
        0
176
     1
290
     0
176
     1
290
     1
176
     1
290
     1
176
     1
290
     0
176
     1
290
     0
176
     1
290
     0
176
     1
290
     0
176
     1
290
     0
176
     1
290
     0
176
     1
 90
       50
176
     1
 40
0.0
176
     1
 40
1.0
176
     1
 90
        0
176
     1
 62
    18
420
        0
176
     1
 90
       50
176
     1
 90
        3
176
     1
 62
     5
420
      255
176
     1
290
     0
176
     1
 90
       50
176
     1
 90
       50
176
     1
 90
       50
176
     1
290
     0
176
     1
 90
       50
176
     1
 62
   256
176
     0
 40
1.0
176
     0
 90
        2
176
     1
  1
strokes_ogs.tif
176
     1
290
     0
176
     1
 40
1.0
176
     1
 40
1.0
176
     1
  0
VISUALSTYLE
  5
3A
102
{ACAD_REACTORS
330
2A
102
}
330
2A
100
AcDbVisualStyle
  2
ColorChange
 70
    16
177
     3
291
     1
 70
    58
 90
        2
176
     1
 90
        2
176
     1
 90
        3
176
     1
 90
        0
176
     1
 40
0.6
176
     1
 40
30.0
176
     1
 62
     8
420
  8421504
176
     1
 90
        1
176
     1
 90
        4
176
     1
 62
     7
176
     1
 62
   257
176
     1
 90
        1
176
     1
 90
        1
176
     1
 40
1.0
176
     1
 90
        8
176
     1
 62
     8
420
  8421504
176
     1
 40
1.0
176
     1
 90
        1
176
     1
 90
        6
176
     1
 90
        2
176
     1
 62
     7
176
     1
 90
        5
176
     1
 90
        0
176
     1
 90
        0
176
     1
290
     0
176
     1
 90
        1
176
     1
 40
0.0
176
     1
 90
        0
176
     1
290
     0
176
     1
290
     1
176
     1
290
     1
176
     1
290
     0
176
     1
290
     0
176
     1
290
     0
176
     1
290
     0
176
     1
290
     0
176
     1
290
     0
176
     1
 90
       50
176
     1
 40
0.0
176
     1
 40
1.0
176
     1
 90
        0
176
     1
 62
    18
420
        0
176
     1
 90
       50
176
     1
 90
        3
176
     1
 62
     5
420
      255
176
     1
290
     0
176
     1
 90
       50
176
     1
 90
       50
176
     1
 90
       50
176
     1
290
     0
176
     1
 90
       50
176
     1
 62
   256
176
     0
 40
1.0
176
     0
 90
        2
176
     1
  1
strokes_ogs.tif
176
     1
290
     0
176
     1
 40
1.0
176
     1
 40
1.0
176
     1
  0
VISUALSTYLE
  5
34
102
{ACAD_REACTORS
330
2A
102
}
330
2A
100
AcDbVisualStyle
  2
Conceptual
 70
     9
177
     3
291
     0
 70
    58
 90
        3
176
     1
 90
        2
176
     1
 90
        0
176
     1
 90
        0
176
     1
 40
0.6
176
     1
 40
30.0
176
     1
 62
     7
420
 16777215
176
     1
 90
        2
176
     1
 90
        2
176
     1
 62
     7
176
     1
 62
   257
176
     1
 90
        1
176
     1
 90
        1
176
     1
 40
179.0
176
     1
 90
        8
176
     1
 62
     7
176
     1
 40
1.0
176
     1
 90
        1
176
     1
 90
        6
176
     1
 90
        2
176
     1
 62
     7
176
     1
 90
        3
176
     1
 90
        0
176
     1
 90
        0
176
     1
290
     0
176
     1
 90
        1
176
     1
 40
0.0
176
     1
 90
        0
176
     1
290
     0
176
     1
290
     1
176
     1
290
     1
176
     1
290
     0
176
     1
290
     0
176
     1
290
     0
176
     1
290
     0
176
     1
290
     0
176
     1
290
     0
176
     1
 90
       50
176
     1
 40
0.0
176
     1
 40
1.0
176
     1
 90
        0
176
     1
 62
    18
420
        0
176
     1
 90
       50
176
     1
 90
        3
176
     1
 62
     5
420
      255
176
     1
290
     0
176
     1
 90
       50
176
     1
 90
       50
176
     1
 90
       50
176
     1
290
     0
176
     1
 90
       50
176
     1
 62
   256
176
     0
 40
1.0
176
     0
 90
        2
176
     1
  1
strokes_ogs.tif
176
     1
290
     0
176
     1
 40
1.0
176
     1
 40
1.0
176
     1
  0
VISUALSTYLE
  5
35
102
{ACAD_REACTORS
330
2A
102
}
330
2A
100
AcDbVisualStyle
  2
Dim
 70
    11
177
     3
291
     1
 70
    58
 90
        2
176
     1
 90
        2
176
     1
 90
        0
176
     1
 90
        0
176
     1
 40
0.6
176
     1
 40
30.0
176
     1
 62
     7
420
 16777215
176
     1
 90
        1
176
     1
 90
        4
176
     1
 62
     7
176
     1
 62
   257
176
     1
 90
        1
176
     1
 90
        1
176
     1
 40
1.0
176
     1
 90
        8
176
     1
 62
     7
176
     1
 40
1.0
176
     1
 90
        1
176
     1
 90
        6
176
     1
 90
        2
176
     1
 62
     7
176
     1
 90
        5
176
     1
 90
        0
176
     1
 90
        0
176
     1
290
     0
176
     1
 90
        1
176
     1
 40
-50.0
176
     1
 90
        0
176
     1
290
     0
176
     1
290
     1
176
     1
290
     1
176
     1
290
     0
176
     1
290
     0
176
     1
290
     0
176
     1
290
     0
176
     1
290
     0
176
     1
290
     0
176
     1
 90
       50
176
     1
 40
0.0
176
     1
 40
1.0
176
     1
 90
        0
176
     1
 62
    18
420
        0
176
     1
 90
       50
176
     1
 90
        3
176
     1
 62
     5
420
      255
176
     1
290
     0
176
     1
 90
       50
176
     1
 90
       50
176
     1
 90
       50
176
     1
290
     0
176
     1
 90
       50
176
     1
 62
   256
176
     0
 40
1.0
176
     0
 90
        2
176
     1
  1
strokes_ogs.tif
176
     1
290
     0
176
     1
 40
1.0
176
     1
 40
1.0
176
     1
  0
VISUALSTYLE
  5
3D
102
{ACAD_REACTORS
330
2A
102
}
330
2A
100
AcDbVisualStyle
  2
EdgeColorOff
 70
    22
177
     3
291
     1
 70
    58
 90
        2
176
     0
 90
        2
176
     0
 90
        0
176
     0
 90
        0
176
     0
 40
0.6
176
     0
 40
30.0
176
     0
 62
     7
420
 16777215
176
     0
 90
        1
176
     0
 90
        4
176
     0
 62
     7
176
     0
 62
   257
176
     0
 90
        1
176
     0
 90
        1
176
     0
 40
1.0
176
     0
 90
        8
176
     2
 62
     7
176
     0
 40
1.0
176
     0
 90
        1
176
     0
 90
        6
176
     0
 90
        2
176
     0
 62
     7
176
     0
 90
        5
176
     0
 90
        0
176
     0
 90
        0
176
     0
290
     0
176
     0
 90
        1
176
     0
 40
0.0
176
     0
 90
        0
176
     0
290
     0
176
     0
290
     1
176
     0
290
     1
176
     0
290
     0
176
     0
290
     0
176
     0
290
     0
176
     0
290
     0
176
     0
290
     0
176
     0
290
     0
176
     0
 90
       50
176
     0
 40
0.0
176
     0
 40
1.0
176
     0
 90
        0
176
     0
 62
    18
420
        0
176
     0
 90
       50
176
     0
 90
        3
176
     0
 62
     5
420
      255
176
     0
290
     0
176
     0
 90
       50
176
     0
 90
       50
176
     0
 90
       50
176
     0
290
     0
176
     0
 90
       50
176
     0
 62
   256
176
     0
 40
1.0
176
     0
 90
        2
176
     0
  1
strokes_ogs.tif
176
     0
290
     0
176
     0
 40
1.0
176
     0
 40
1.0
176
     0
  0
VISUALSTYLE
  5
39
102
{ACAD_REACTORS
330
2A
102
}
330
2A
100
AcDbVisualStyle
  2
Facepattern
 70
    15
177
     3
291
     1
 70
    58
 90
        2
176
     1
 90
        2
176
     1
 90
        0
176
     1
 90
        0
176
     1
 40
0.6
176
     1
 40
30.0
176
     1
 62
     7
420
 16777215
176
     1
 90
        1
176
     1
 90
        4
176
     1
 62
     7
176
     1
 62
   257
176
     1
 90
        1
176
     1
 90
        1
176
     1
 40
1.0
176
     1
 90
        8
176
     1
 62
     7
176
     1
 40
1.0
176
     1
 90
        1
176
     1
 90
        6
176
     1
 90
        2
176
     1
 62
     7
176
     1
 90
        5
176
     1
 90
        0
176
     1
 90
        0
176
     1
290
     0
176
     1
 90
        1
176
     1
 40
0.0
176
     1
 90
        0
176
     1
290
     0
176
     1
290
     1
176
     1
290
     1
176
     1
290
     0
176
     1
290
     0
176
     1
290
     0
176
     1
290
     0
176
     1
290
     0
176
     1
290
     0
176
     1
 90
       50
176
     1
 40
0.0
176
     1
 40
1.0
176
     1
 90
        0
176
     1
 62
    18
420
        0
176
     1
 90
       50
176
     1
 90
        3
176
     1
 62
     5
420
      255
176
     1
290
     0
176
     1
 90
       50
176
     1
 90
       50
176
     1
 90
       50
176
     1
290
     0
176
     1
 90
       50
176
     1
 62
   256
176
     0
 40
1.0
176
     0
 90
        2
176
     1
  1
strokes_ogs.tif
176
     1
290
     0
176
     1
 40
1.0
176
     1
 40
1.0
176
     1
  0
VISUALSTYLE
  5
2B
102
{ACAD_REACTORS
330
2A
102
}
330
2A
100
AcDbVisualStyle
  2
Flat
 70
     0
177
     3
291
     1
 70
    58
 90
        2
176
     1
 90
        1
176
     1
 90
        1
176
     1
 90
        2
176
     1
 40
0.6
176
     1
 40
30.0
176
     1
 62
     7
420
 16777215
176
     1
 90
        0
176
     1
 90
        0
176
     1
 62
     7
176
     1
 62
   257
176
     1
 90
        1
176
     1
 90
        1
176
     1
 40
1.0
176
     1
 90
        8
176
     1
 62
     7
176
     1
 40
1.0
176
     1
 90
        1
176
     1
 90
        6
176
     1
 90
        2
176
     1
 62
     7
176
     1
 90
        5
176
     1
 90
        0
176
     1
 90
        0
176
     1
290
     0
176
     1
 90
       13
176
     1
 40
0.0
176
     1
 90
        0
176
     1
290
     0
176
     1
290
     1
176
     1
290
     1
176
     1
290
     0
176
     1
290
     0
176
     1
290
     0
176
     1
290
     0
176
     1
290
     0
176
     1
290
     0
176
     1
 90
       50
176
     1
 40
0.0
176
     1
 40
1.0
176
     1
 90
        0
176
     1
 62
    18
420
        0
176
     1
 90
       50
176
     1
 90
        3
176
     1
 62
     5
420
      255
176
     1
290
     0
176
     1
 90
       50
176
     1
 90
       50
176
     1
 90
       50
176
     1
290
     0
176
     1
 90
       50
176
     1
 62
   256
176
     0
 40
1.0
176
     0
 90
        2
176
     1
  1
strokes_ogs.tif
176
     1
290
     0
176
     1
 40
1.0
176
     1
 40
1.0
176
     1
  0
VISUALSTYLE
  5
2C
102
{ACAD_REACTORS
330
2A
102
}
330
2A
100
AcDbVisualStyle
  2
FlatWithEdges
 70
     1
177
     3
291
     1
 70
    58
 90
        2
176
     1
 90
        1
176
     1
 90
        1
176
     1
 90
        2
176
     1
 40
0.6
176
     1
 40
30.0
176
     1
 62
     7
420
 16777215
176
     1
 90
        1
176
     1
 90
        0
176
     1
 62
     7
176
     1
 62
   257
176
     1
 90
        1
176
     1
 90
        1
176
     1
 40
1.0
176
     1
 90
        0
176
     1
 62
   257
176
     1
 40
1.0
176
     1
 90
        1
176
     1
 90
        6
176
     1
 90
        2
176
     1
 62
     7
176
     1
 90
        5
176
     1
 90
        0
176
     1
 90
        0
176
     1
290
     0
176
     1
 90
       13
176
     1
 40
0.0
176
     1
 90
        0
176
     1
290
     0
176
     1
290
     1
176
     1
290
     1
176
     1
290
     0
176
     1
290
     0
176
     1
290
     0
176
     1
290
     0
176
     1
290
     0
176
     1
290
     0
176
     1
 90
       50
176
     1
 40
0.0
176
     1
 40
1.0
176
     1
 90
        0
176
     1
 62
    18
420
        0
176
     1
 90
       50
176
     1
 90
        3
176
     1
 62
     5
420
      255
176
     1
290
     0
176
     1
 90
       50
176
     1
 90
       50
176
     1
 90
       50
176
     1
290
     0
176
     1
 90
       50
176
     1
 62
   256
176
     0
 40
1.0
176
     0
 90
        2
176
     1
  1
strokes_ogs.tif
176
     1
290
     0
176
     1
 40
1.0
176
     1
 40
1.0
176
     1
  0
VISUALSTYLE
  5
2D
102
{ACAD_REACTORS
330
2A
102
}
330
2A
100
AcDbVisualStyle
  2
Gouraud
 70
     2
177
     3
291
     1
 70
    58
 90
        2
176
     1
 90
        2
176
     1
 90
        1
176
     1
 90
        2
176
     1
 40
0.6
176
     1
 40
30.0
176
     1
 62
     7
420
 16777215
176
     1
 90
        0
176
     1
 90
        0
176
     1
 62
     7
176
     1
 62
   257
176
     1
 90
        1
176
     1
 90
        1
176
     1
 40
1.0
176
     1
 90
        0
176
     1
 62
     7
176
     1
 40
1.0
176
     1
 90
        1
176
     1
 90
        6
176
     1
 90
        2
176
     1
 62
     7
176
     1
 90
        5
176
     1
 90
        0
176
     1
 90
        0
176
     1
290
     0
176
     1
 90
       13
176
     1
 40
0.0
176
     1
 90
        0
176
     1
290
     0
176
     1
290
     1
176
     1
290
     1
176
     1
290
     0
176
     1
290
     0
176
     1
290
     0
176
     1
290
     0
176
     1
290
     0
176
     1
290
     0
176
     1
 90
       50
176
     1
 40
0.0
176
     1
 40
1.0
176
     1
 90
        0
176
     1
 62
    18
420
        0
176
     1
 90
       50
176
     1
 90
        3
176
     1
 62
     5
420
      255
176
     1
290
     0
176
     1
 90
       50
176
     1
 90
       50
176
     1
 90
       50
176
     1
290
     0
176
     1
 90
       50
176
     1
 62
   256
176
     0
 40
1.0
176
     0
 90
        2
176
     1
  1
strokes_ogs.tif
176
     1
290
     0
176
     1
 40
1.0
176
     1
 40
1.0
176
     1
  0
VISUALSTYLE
  5
2E
102
{ACAD_REACTORS
330
2A
102
}
330
2A
100
AcDbVisualStyle
  2
GouraudWithEdges
 70
     3
177
     3
291
     1
 70
    58
 90
        2
176
     1
 90
        2
176
     1
 90
        1
176
     1
 90
        2
176
     1
 40
0.6
176
     1
 40
30.0
176
     1
 62
     7
420
 16777215
176
     1
 90
        1
176
     1
 90
        0
176
     1
 62
     7
176
     1
 62
   257
176
     1
 90
        1
176
     1
 90
        1
176
     1
 40
1.0
176
     1
 90
        0
176
     1
 62
   257
176
     1
 40
1.0
176
     1
 90
        1
176
     1
 90
        6
176
     1
 90
        2
176
     1
 62
     7
176
     1
 90
        5
176
     1
 90
        0
176
     1
 90
        0
176
     1
290
     0
176
     1
 90
       13
176
     1
 40
0.0
176
     1
 90
        0
176
     1
290
     0
176
     1
290
     1
176
     1
290
     1
176
     1
290
     0
176
     1
290
     0
176
     1
290
     0
176
     1
290
     0
176
     1
290
     0
176
     1
290
     0
176
     1
 90
       50
176
     1
 40
0.0
176
     1
 40
1.0
176
     1
 90
        0
176
     1
 62
    18
420
        0
176
     1
 90
       50
176
     1
 90
        3
176
     1
 62
     5
420
      255
176
     1
290
     0
176
     1
 90
       50
176
     1
 90
       50
176
     1
 90
       50
176
     1
290
     0
176
     1
 90
       50
176
     1
 62
   256
176
     0
 40
1.0
176
     0
 90
        2
176
     1
  1
strokes_ogs.tif
176
     1
290
     0
176
     1
 40
1.0
176
     1
 40
1.0
176
     1
  0
VISUALSTYLE
  5
31
102
{ACAD_REACTORS
330
2A
102
}
330
2A
100
AcDbVisualStyle
  2
Hidden
 70
     6
177
     3
291
     0
 70
    58
 90
        1
176
     1
 90
        2
176
     1
 90
        2
176
     1
 90
        0
176
     1
 40
0.6
176
     1
 40
30.0
176
     1
 62
     7
420
 16777215
176
     1
 90
        2
176
     1
 90
        2
176
     1
 62
     7
176
     1
 62
   257
176
     1
 90
        2
176
     1
 90
        1
176
     1
 40
40.0
176
     1
 90
        0
176
     1
 62
   257
176
     1
 40
1.0
176
     1
 90
        1
176
     1
 90
        6
176
     1
 90
        2
176
     1
 62
     7
176
     1
 90
        3
176
     1
 90
        0
176
     1
 90
        0
176
     1
290
     0
176
     1
 90
        1
176
     1
 40
0.0
176
     1
 90
        0
176
     1
290
     0
176
     1
290
     1
176
     1
290
     1
176
     1
290
     0
176
     1
290
     0
176
     1
290
     0
176
     1
290
     0
176
     1
290
     0
176
     1
290
     0
176
     1
 90
       50
176
     1
 40
0.0
176
     1
 40
1.0
176
     1
 90
        0
176
     1
 62
    18
420
        0
176
     1
 90
       50
176
     1
 90
        3
176
     1
 62
     5
420
      255
176
     1
290
     0
176
     1
 90
       50
176
     1
 90
       50
176
     1
 90
       50
176
     1
290
     0
176
     1
 90
       50
176
     1
 62
   256
176
     0
 40
1.0
176
     0
 90
        2
176
     1
  1
strokes_ogs.tif
176
     1
290
     0
176
     1
 40
1.0
176
     1
 40
1.0
176
     1
  0
VISUALSTYLE
  5
3B
102
{ACAD_REACTORS
330
2A
102
}
330
2A
100
AcDbVisualStyle
  2
JitterOff
 70
    20
177
     3
291
     1
 70
    58
 90
        2
176
     0
 90
        2
176
     0
 90
        0
176
     0
 90
        0
176
     0
 40
0.6
176
     0
 40
30.0
176
     0
 62
     7
420
 16777215
176
     0
 90
        1
176
     0
 90
        4
176
     0
 62
     7
176
     0
 62
   257
176
     0
 90
        1
176
     0
 90
        1
176
     0
 40
1.0
176
     0
 90
       10
176
     2
 62
     7
176
     0
 40
1.0
176
     0
 90
        1
176
     0
 90
        6
176
     0
 90
        2
176
     0
 62
     7
176
     0
 90
        5
176
     0
 90
        0
176
     0
 90
        0
176
     0
290
     0
176
     0
 90
        1
176
     0
 40
0.0
176
     0
 90
        0
176
     0
290
     0
176
     0
290
     1
176
     0
290
     1
176
     0
290
     0
176
     0
290
     0
176
     0
290
     0
176
     0
290
     0
176
     0
290
     0
176
     0
290
     0
176
     0
 90
       50
176
     0
 40
0.0
176
     0
 40
1.0
176
     0
 90
        0
176
     0
 62
    18
420
        0
176
     0
 90
       50
176
     0
 90
        3
176
     0
 62
     5
420
      255
176
     0
290
     0
176
     0
 90
       50
176
     0
 90
       50
176
     0
 90
       50
176
     0
290
     0
176
     0
 90
       50
176
     0
 62
   256
176
     0
 40
1.0
176
     0
 90
        2
176
     0
  1
strokes_ogs.tif
176
     0
290
     0
176
     0
 40
1.0
176
     0
 40
1.0
176
     0
  0
VISUALSTYLE
  5
38
102
{ACAD_REACTORS
330
2A
102
}
330
2A
100
AcDbVisualStyle
  2
Linepattern
 70
    14
177
     3
291
     1
 70
    58
 90
        2
176
     1
 90
        2
176
     1
 90
        0
176
     1
 90
        0
176
     1
 40
0.6
176
     1
 40
30.0
176
     1
 62
     7
420
 16777215
176
     1
 90
        1
176
     1
 90
        4
176
     1
 62
     7
176
     1
 62
   257
176
     1
 90
        7
176
     1
 90
        7
176
     1
 40
1.0
176
     1
 90
        8
176
     1
 62
     7
176
     1
 40
1.0
176
     1
 90
        1
176
     1
 90
        6
176
     1
 90
        2
176
     1
 62
     7
176
     1
 90
        5
176
     1
 90
        0
176
     1
 90
        0
176
     1
290
     0
176
     1
 90
        1
176
     1
 40
0.0
176
     1
 90
        0
176
     1
290
     0
176
     1
290
     1
176
     1
290
     1
176
     1
290
     0
176
     1
290
     0
176
     1
290
     0
176
     1
290
     0
176
     1
290
     0
176
     1
290
     0
176
     1
 90
       50
176
     1
 40
0.0
176
     1
 40
1.0
176
     1
 90
        0
176
     1
 62
    18
420
        0
176
     1
 90
       50
176
     1
 90
        3
176
     1
 62
     5
420
      255
176
     1
290
     0
176
     1
 90
       50
176
     1
 90
       50
176
     1
 90
       50
176
     1
290
     0
176
     1
 90
       50
176
     1
 62
   256
176
     0
 40
1.0
176
     0
 90
        2
176
     1
  1
strokes_ogs.tif
176
     1
290
     0
176
     1
 40
1.0
176
     1
 40
1.0
176
     1
  0
VISUALSTYLE
  5
3C
102
{ACAD_REACTORS
330
2A
102
}
330
2A
100
AcDbVisualStyle
  2
OverhangOff
 70
    21
177
     3
291
     1
 70
    58
 90
        2
176
     0
 90
        2
176
     0
 90
        0
176
     0
 90
        0
176
     0
 40
0.6
176
     0
 40
30.0
176
     0
 62
     7
420
 16777215
176
     0
 90
        1
176
     0
 90
        4
176
     0
 62
     7
176
     0
 62
   257
176
     0
 90
        1
176
     0
 90
        1
176
     0
 40
1.0
176
     0
 90
        9
176
     2
 62
     7
176
     0
 40
1.0
176
     0
 90
        1
176
     0
 90
        6
176
     0
 90
        2
176
     0
 62
     7
176
     0
 90
        5
176
     0
 90
        0
176
     0
 90
        0
176
     0
290
     0
176
     0
 90
        1
176
     0
 40
0.0
176
     0
 90
        0
176
     0
290
     0
176
     0
290
     1
176
     0
290
     1
176
     0
290
     0
176
     0
290
     0
176
     0
290
     0
176
     0
290
     0
176
     0
290
     0
176
     0
290
     0
176
     0
 90
       50
176
     0
 40
0.0
176
     0
 40
1.0
176
     0
 90
        0
176
     0
 62
    18
420
        0
176
     0
 90
       50
176
     0
 90
        3
176
     0
 62
     5
420
      255
176
     0
290
     0
176
     0
 90
       50
176
     0
 90
       50
176
     0
 90
       50
176
     0
290
     0
176
     0
 90
       50
176
     0
 62
   256
176
     0
 40
1.0
176
     0
 90
        2
176
     0
  1
strokes_ogs.tif
176
     0
290
     0
176
     0
 40
1.0
176
     0
 40
1.0
176
     0
  0
VISUALSTYLE
  5
33
102
{ACAD_REACTORS
330
2A
102
}
330
2A
100
AcDbVisualStyle
  2
Realistic
 70
     8
177
     3
291
     0
 70
    58
 90
        2
176
     1
 90
        3
176
     1
 90
        0
176
     1
 90
        2
176
     1
 40
0.6
176
     1
 40
30.0
176
     1
 62
     7
420
 16777215
176
     1
 90
        0
176
     1
 90
        0
176
     1
 62
     7
176
     1
 62
   257
176
     1
 90
        1
176
     1
 90
        1
176
     1
 40
1.0
176
     1
 90
        8
176
     1
 62
   257
176
     1
 40
1.0
176
     1
 90
        1
176
     1
 90
        6
176
     1
 90
        2
176
     1
 62
     7
176
     1
 90
        3
176
     1
 90
        0
176
     1
 90
        0
176
     1
290
     0
176
     1
 90
       13
176
     1
 40
0.0
176
     1
 90
        0
176
     1
290
     0
176
     1
290
     1
176
     1
290
     1
176
     1
290
     0
176
     1
290
     0
176
     1
290
     0
176
     1
290
     0
176
     1
290
     0
176
     1
290
     0
176
     1
 90
       50
176
     1
 40
0.0
176
     1
 40
1.0
176
     1
 90
        0
176
     1
 62
    18
420
        0
176
     1
 90
       50
176
     1
 90
        3
176
     1
 62
     5
420
      255
176
     1
290
     0
176
     1
 90
       50
176
     1
 90
       50
176
     1
 90
       50
176
     1
290
     0
176
     1
 90
       50
176
     1
 62
   256
176
     0
 40
1.0
176
     0
 90
        2
176
     1
  1
strokes_ogs.tif
176
     1
290
     0
176
     1
 40
1.0
176
     1
 40
1.0
176
     1
  0
VISUALSTYLE
  5
42
102
{ACAD_REACTORS
330
2A
102
}
330
2A
100
AcDbVisualStyle
  2
Shaded
 70
    27
177
     3
291
     0
 70
    58
 90
        2
176
     1
 90
        2
176
     1
 90
        1
176
     1
 90
        2
176
     1
 40
0.6
176
     1
 40
30.0
176
     1
 62
     7
420
 16777215
176
     1
 90
        0
176
     1
 90
        4
176
     1
 62
     7
176
     1
 62
   257
176
     1
 90
        1
176
     1
 90
        1
176
     1
 40
1.0
176
     1
 90
        8
176
     1
 62
   257
176
     1
 40
1.0
176
     1
 90
        1
176
     1
 90
        6
176
     1
 90
        2
176
     1
 62
     8
420
  7895160
176
     1
 90
        3
176
     1
 90
        0
176
     1
 90
        0
176
     1
290
     0
176
     1
 90
        5
176
     1
 40
0.0
176
     1
 90
        0
176
     1
290
     0
176
     1
290
     1
176
     1
290
     1
176
     1
290
     0
176
     1
290
     0
176
     1
290
     0
176
     1
290
     0
176
     1
290
     0
176
     1
290
     0
176
     1
 90
       50
176
     1
 40
0.0
176
     1
 40
1.0
176
     1
 90
        0
176
     1
 62
    18
420
        0
176
     1
 90
       50
176
     1
 90
        3
176
     1
 62
     5
420
      255
176
     1
290
     0
176
     1
 90
       50
176
     1
 90
       50
176
     1
 90
       50
176
     1
290
     0
176
     1
 90
       50
176
     1
 62
   256
176
     0
 40
1.0
176
     0
 90
        2
176
     1
  1
strokes_ogs.tif
176
     1
290
     0
176
     1
 40
1.0
176
     1
 40
1.0
176
     1
  0
VISUALSTYLE
  5
41
102
{ACAD_REACTORS
330
2A
102
}
330
2A
100
AcDbVisualStyle
  2
Shaded with edges
 70
    26
177
     3
291
     0
 70
    58
 90
        2
176
     1
 90
        2
176
     1
 90
        1
176
     1
 90
        2
176
     1
 40
0.6
176
     1
 40
30.0
176
     1
 62
     7
420
 16777215
176
     1
 90
        1
176
     1
 90
       10
176
     1
 62
     7
176
     1
 62
   257
176
     1
 90
        2
176
     1
 90
        1
176
     1
 40
1.0
176
     1
 90
        8
176
     1
 62
   257
176
     1
 40
1.0
176
     1
 90
        1
176
     1
 90
        6
176
     1
 90
        2
176
     1
 62
     7
176
     1
 90
        3
176
     1
 90
        0
176
     1
 90
        0
176
     1
290
     0
176
     1
 90
        5
176
     1
 40
0.0
176
     1
 90
        0
176
     1
290
     0
176
     1
290
     1
176
     1
290
     1
176
     1
290
     0
176
     1
290
     0
176
     1
290
     0
176
     1
290
     0
176
     1
290
     0
176
     1
290
     0
176
     1
 90
       50
176
     1
 40
0.0
176
     1
 40
1.0
176
     1
 90
        0
176
     1
 62
    18
420
        0
176
     1
 90
       50
176
     1
 90
        3
176
     1
 62
     5
420
      255
176
     1
290
     0
176
     1
 90
       50
176
     1
 90
       50
176
     1
 90
       50
176
     1
290
     0
176
     1
 90
       50
176
     1
 62
   256
176
     0
 40
1.0
176
     0
 90
        2
176
     1
  1
strokes_ogs.tif
176
     1
290
     0
176
     1
 40
1.0
176
     1
 40
1.0
176
     1
  0
VISUALSTYLE
  5
3E
102
{ACAD_REACTORS
330
2A
102
}
330
2A
100
AcDbVisualStyle
  2
Shades of Gray
 70
    23
177
     3
291
     0
 70
    58
 90
        2
176
     1
 90
        2
176
     1
 90
        3
176
     1
 90
        0
176
     1
 40
0.6
176
     1
 40
30.0
176
     1
 62
     7
420
 16777215
176
     1
 90
        2
176
     1
 90
        2
176
     1
 62
     7
176
     1
 62
     7
176
     1
 90
        1
176
     1
 90
        1
176
     1
 40
40.0
176
     1
 90
        8
176
     1
 62
     7
176
     1
 40
1.0
176
     1
 90
        1
176
     1
 90
        6
176
     1
 90
        2
176
     1
 62
     7
176
     1
 90
        3
176
     1
 90
        0
176
     1
 90
        0
176
     1
290
     0
176
     1
 90
        1
176
     1
 40
0.0
176
     1
 90
        0
176
     1
290
     0
176
     1
290
     1
176
     1
290
     1
176
     1
290
     0
176
     1
290
     0
176
     1
290
     0
176
     1
290
     0
176
     1
290
     0
176
     1
290
     0
176
     1
 90
       50
176
     1
 40
0.0
176
     1
 40
1.0
176
     1
 90
        0
176
     1
 62
    18
420
        0
176
     1
 90
       50
176
     1
 90
        3
176
     1
 62
     5
420
      255
176
     1
290
     0
176
     1
 90
       50
176
     1
 90
       50
176
     1
 90
       50
176
     1
290
     0
176
     1
 90
       50
176
     1
 62
   256
176
     0
 40
1.0
176
     0
 90
        2
176
     1
  1
strokes_ogs.tif
176
     1
290
     0
176
     1
 40
1.0
176
     1
 40
1.0
176
     1
  0
VISUALSTYLE
  5
3F
102
{ACAD_REACTORS
330
2A
102
}
330
2A
100
AcDbVisualStyle
  2
Sketchy
 70
    24
177
     3
291
     0
 70
    58
 90
        1
176
     1
 90
        2
176
     1
 90
        2
176
     1
 90
        0
176
     1
 40
0.6
176
     1
 40
30.0
176
     1
 62
     7
420
 16777215
176
     1
 90
        2
176
     1
 90
        2
176
     1
 62
     7
176
     1
 62
     7
176
     1
 90
        1
176
     1
 90
        1
176
     1
 40
40.0
176
     1
 90
       11
176
     1
 62
     7
176
     1
 40
1.0
176
     1
 90
        1
176
     1
 90
        6
176
     1
 90
        2
176
     1
 62
     7
176
     1
 90
        6
176
     1
 90
        0
176
     1
 90
        0
176
     1
290
     0
176
     1
 90
        1
176
     1
 40
0.0
176
     1
 90
        0
176
     1
290
     0
176
     1
290
     1
176
     1
290
     1
176
     1
290
     0
176
     1
290
     0
176
     1
290
     0
176
     1
290
     0
176
     1
290
     0
176
     1
290
     0
176
     1
 90
       50
176
     1
 40
0.0
176
     1
 40
1.0
176
     1
 90
        0
176
     1
 62
    18
420
        0
176
     1
 90
       50
176
     1
 90
        3
176
     1
 62
     5
420
      255
176
     1
290
     0
176
     1
 90
       50
176
     1
 90
       50
176
     1
 90
       50
176
     1
290
     0
176
     1
 90
       50
176
     1
 62
   256
176
     0
 40
1.0
176
     0
 90
        2
176
     1
  1
strokes_ogs.tif
176
     1
290
     0
176
     1
 40
1.0
176
     1
 40
1.0
176
     1
  0
VISUALSTYLE
  5
37
102
{ACAD_REACTORS
330
2A
102
}
330
2A
100
AcDbVisualStyle
  2
Thicken
 70
    13
177
     3
291
     1
 70
    58
 90
        2
176
     1
 90
        2
176
     1
 90
        0
176
     1
 90
        0
176
     1
 40
0.6
176
     1
 40
30.0
176
     1
 62
     7
420
 16777215
176
     1
 90
        1
176
     1
 90
        4
176
     1
 62
     7
176
     1
 62
   257
176
     1
 90
        1
176
     1
 90
        1
176
     1
 40
1.0
176
     1
 90
       12
176
     1
 62
     7
176
     1
 40
1.0
176
     1
 90
        1
176
     1
 90
        6
176
     1
 90
        2
176
     1
 62
     7
176
     1
 90
        5
176
     1
 90
        0
176
     1
 90
        0
176
     1
290
     0
176
     1
 90
        1
176
     1
 40
0.0
176
     1
 90
        0
176
     1
290
     0
176
     1
290
     1
176
     1
290
     1
176
     1
290
     0
176
     1
290
     0
176
     1
290
     0
176
     1
290
     0
176
     1
290
     0
176
     1
290
     0
176
     1
 90
       50
176
     1
 40
0.0
176
     1
 40
1.0
176
     1
 90
        0
176
     1
 62
    18
420
        0
176
     1
 90
       50
176
     1
 90
        3
176
     1
 62
     5
420
      255
176
     1
290
     0
176
     1
 90
       50
176
     1
 90
       50
176
     1
 90
       50
176
     1
290
     0
176
     1
 90
       50
176
     1
 62
   256
176
     0
 40
1.0
176
     0
 90
        2
176
     1
  1
strokes_ogs.tif
176
     1
290
     0
176
     1
 40
1.0
176
     1
 40
1.0
176
     1
  0
VISUALSTYLE
  5
30
102
{ACAD_REACTORS
330
2A
102
}
330
2A
100
AcDbVisualStyle
  2
Wireframe
 70
     5
177
     3
291
     0
 70
    58
 90
        0
176
     1
 90
        2
176
     1
 90
        0
176
     1
 90
        0
176
     1
 40
0.6
176
     1
 40
30.0
176
     1
 62
     7
420
 16777215
176
     1
 90
        1
176
     1
 90
        4
176
     1
 62
     7
176
     1
 62
   257
176
     1
 90
        1
176
     1
 90
        1
176
     1
 40
1.0
176
     1
 90
        0
176
     1
 62
   257
176
     1
 40
1.0
176
     1
 90
        1
176
     1
 90
        6
176
     1
 90
        2
176
     1
 62
     7
176
     1
 90
        3
176
     1
 90
        0
176
     1
 90
        0
176
     1
290
     0
176
     1
 90
        1
176
     1
 40
0.0
176
     1
 90
        0
176
     1
290
     0
176
     1
290
     1
176
     1
290
     1
176
     1
290
     0
176
     1
290
     0
176
     1
290
     0
176
     1
290
     0
176
     1
290
     0
176
     1
290
     0
176
     1
 90
       50
176
     1
 40
0.0
176
     1
 40
1.0
176
     1
 90
        0
176
     1
 62
    18
420
        0
176
     1
 90
       50
176
     1
 90
        3
176
     1
 62
     5
420
      255
176
     1
290
     0
176
     1
 90
       50
176
     1
 90
       50
176
     1
 90
       50
176
     1
290
     0
176
     1
 90
       50
176
     1
 62
   256
176
     0
 40
1.0
176
     0
 90
        2
176
     1
  1
strokes_ogs.tif
176
     1
290
     0
176
     1
 40
1.0
176
     1
 40
1.0
176
     1
  0
VISUALSTYLE
  5
40
102
{ACAD_REACTORS
330
2A
102
}
330
2A
100
AcDbVisualStyle
  2
X-Ray
 70
    25
177
     3
291
     0
 70
    58
 90
        2
176
     1
 90
        2
176
     1
 90
        1
176
     1
 90
        1
176
     1
 40
0.5
176
     1
 40
30.0
176
     1
 62
     7
420
 16777215
176
     1
 90
        1
176
     1
 90
        0
176
     1
 62
     7
176
     1
 62
   257
176
     1
 90
        1
176
     1
 90
        1
176
     1
 40
1.0
176
     1
 90
        8
176
     1
 62
     7
176
     1
 40
1.0
176
     1
 90
        1
176
     1
 90
        6
176
     1
 90
        2
176
     1
 62
     7
176
     1
 90
        3
176
     1
 90
        0
176
     1
 90
        0
176
     1
290
     0
176
     1
 90
       13
176
     1
 40
0.0
176
     1
 90
        0
176
     1
290
     0
176
     1
290
     1
176
     1
290
     1
176
     1
290
     0
176
     1
290
     0
176
     1
290
     0
176
     1
290
     0
176
     1
290
     0
176
     1
290
     0
176
     1
 90
       50
176
     1
 40
0.0
176
     1
 40
1.0
176
     1
 90
        0
176
     1
 62
    18
420
        0
176
     1
 90
       50
176
     1
 90
        3
176
     1
 62
     5
420
      255
176
     1
290
     0
176
     1
 90
       50
176
     1
 90
       50
176
     1
 90
       50
176
     1
290
     0
176
     1
 90
       50
176
     1
 62
   256
176
     0
 40
1.0
176
     0
 90
        2
176
     1
  1
strokes_ogs.tif
176
     1
290
     0
176
     1
 40
1.0
176
     1
 40
1.0
176
     1
  0
DICTIONARYVAR
  5
1FA
102
{ACAD_REACTORS
330
1F9
102
}
330
1F9
100
DictionaryVariables
280
     0
  1
1:1
  0
DICTIONARYVAR
  5
1FF
102
{ACAD_REACTORS
330
1F9
102
}
330
1F9
100
DictionaryVariables
280
     0
  1
Standard
  0
DICTIONARYVAR
  5
1FE
102
{ACAD_REACTORS
330
1F9
102
}
330
1F9
100
DictionaryVariables
280
     0
  1
Standard
  0
DICTIONARY
  5
1FB
330
6A
100
AcDbDictionary
280
     1
281
     1
  3
ACAD_ROUNDTRIP_2008_TABLESTYLE_CELLSTYLEMAP
360
1FC
  0
CELLSTYLEMAP
  5
1FC
102
{ACAD_REACTORS
330
1FB
102
}
330
1FB
100
AcDbCellStyleMap
 90
        3
300
CELLSTYLE
  1
TABLEFORMAT_BEGIN
 90
        5
170
     1
 91
        0
 92
    32768
 62
   257
 93
        1
300
CONTENTFORMAT
  1
CONTENTFORMAT_BEGIN
 90
        0
 91
        0
 92
        4
 93
        0
300

 40
0.0
140
1.0
 94
        5
 62
     0
340
11
144
0.25
309
CONTENTFORMAT_END
171
     1
301
MARGIN
  1
CELLMARGIN_BEGIN
 40
0.06
 40
0.06
 40
0.06
 40
0.06
 40
0.06
 40
0.06
309
CELLMARGIN_END
 94
        6
 95
        1
302
GRIDFORMAT
  1
GRIDFORMAT_BEGIN
 90
        0
 91
        1
 62
     0
 92
       -2
340
14
 93
        0
 40
0.045
309
GRIDFORMAT_END
 95
        2
302
GRIDFORMAT
  1
GRIDFORMAT_BEGIN
 90
        0
 91
        1
 62
     0
 92
       -2
340
14
 93
        0
 40
0.045
309
GRIDFORMAT_END
 95
        4
302
GRIDFORMAT
  1
GRIDFORMAT_BEGIN
 90
        0
 91
        1
 62
     0
 92
       -2
340
14
 93
        0
 40
0.045
309
GRIDFORMAT_END
 95
        8
302
GRIDFORMAT
  1
GRIDFORMAT_BEGIN
 90
        0
 91
        1
 62
     0
 92
       -2
340
14
 93
        0
 40
0.045
309
GRIDFORMAT_END
 95
       16
302
GRIDFORMAT
  1
GRIDFORMAT_BEGIN
 90
        0
 91
        1
 62
     0
 92
       -2
340
14
 93
        0
 40
0.045
309
GRIDFORMAT_END
 95
       32
302
GRIDFORMAT
  1
GRIDFORMAT_BEGIN
 90
        0
 91
        1
 62
     0
 92
       -2
340
14
 93
        0
 40
0.045
309
GRIDFORMAT_END
309
TABLEFORMAT_END
  1
CELLSTYLE_BEGIN
 90
        1
 91
        1
300
_TITLE
309
CELLSTYLE_END
300
CELLSTYLE
  1
TABLEFORMAT_BEGIN
 90
        5
170
     1
 91
        0
 92
        0
 62
   257
 93
        1
300
CONTENTFORMAT
  1
CONTENTFORMAT_BEGIN
 90
        0
 91
        0
 92
        4
 93
        0
300

 40
0.0
140
1.0
 94
        5
 62
     0
340
11
144
0.18
309
CONTENTFORMAT_END
171
     1
301
MARGIN
  1
CELLMARGIN_BEGIN
 40
0.06
 40
0.06
 40
0.06
 40
0.06
 40
0.06
 40
0.06
309
CELLMARGIN_END
 94
        6
 95
        1
302
GRIDFORMAT
  1
GRIDFORMAT_BEGIN
 90
        0
 91
        1
 62
     0
 92
       -2
340
14
 93
        0
 40
0.045
309
GRIDFORMAT_END
 95
        2
302
GRIDFORMAT
  1
GRIDFORMAT_BEGIN
 90
        0
 91
        1
 62
     0
 92
       -2
340
14
 93
        0
 40
0.045
309
GRIDFORMAT_END
 95
        4
302
GRIDFORMAT
  1
GRIDFORMAT_BEGIN
 90
        0
 91
        1
 62
     0
 92
       -2
340
14
 93
        0
 40
0.045
309
GRIDFORMAT_END
 95
        8
302
GRIDFORMAT
  1
GRIDFORMAT_BEGIN
 90
        0
 91
        1
 62
     0
 92
       -2
340
14
 93
        0
 40
0.045
309
GRIDFORMAT_END
 95
       16
302
GRIDFORMAT
  1
GRIDFORMAT_BEGIN
 90
        0
 91
        1
 62
     0
 92
       -2
340
14
 93
        0
 40
0.045
309
GRIDFORMAT_END
 95
       32
302
GRIDFORMAT
  1
GRIDFORMAT_BEGIN
 90
        0
 91
        1
 62
     0
 92
       -2
340
14
 93
        0
 40
0.045
309
GRIDFORMAT_END
309
TABLEFORMAT_END
  1
CELLSTYLE_BEGIN
 90
        2
 91
        1
300
_HEADER
309
CELLSTYLE_END
300
CELLSTYLE
  1
TABLEFORMAT_BEGIN
 90
        5
170
     1
 91
        0
 92
        0
 62
   257
 93
        1
300
CONTENTFORMAT
  1
CONTENTFORMAT_BEGIN
 90
        0
 91
        0
 92
        4
 93
        0
300

 40
0.0
140
1.0
 94
        2
 62
     0
340
11
144
0.18
309
CONTENTFORMAT_END
171
     1
301
MARGIN
  1
CELLMARGIN_BEGIN
 40
0.06
 40
0.06
 40
0.06
 40
0.06
 40
0.06
 40
0.06
309
CELLMARGIN_END
 94
        6
 95
        1
302
GRIDFORMAT
  1
GRIDFORMAT_BEGIN
 90
        0
 91
        1
 62
     0
 92
       -2
340
14
 93
        0
 40
0.045
309
GRIDFORMAT_END
 95
        2
302
GRIDFORMAT
  1
GRIDFORMAT_BEGIN
 90
        0
 91
        1
 62
     0
 92
       -2
340
14
 93
        0
 40
0.045
309
GRIDFORMAT_END
 95
        4
302
GRIDFORMAT
  1
GRIDFORMAT_BEGIN
 90
        0
 91
        1
 62
     0
 92
       -2
340
14
 93
        0
 40
0.045
309
GRIDFORMAT_END
 95
        8
302
GRIDFORMAT
  1
GRIDFORMAT_BEGIN
 90
        0
 91
        1
 62
     0
 92
       -2
340
14
 93
        0
 40
0.045
309
GRIDFORMAT_END
 95
       16
302
GRIDFORMAT
  1
GRIDFORMAT_BEGIN
 90
        0
 91
        1
 62
     0
 92
       -2
340
14
 93
        0
 40
0.045
309
GRIDFORMAT_END
 95
       32
302
GRIDFORMAT
  1
GRIDFORMAT_BEGIN
 90
        0
 91
        1
 62
     0
 92
       -2
340
14
 93
        0
 40
0.045
309
GRIDFORMAT_END
309
TABLEFORMAT_END
  1
CELLSTYLE_BEGIN
 90
        3
 91
        2
300
_DATA
309
CELLSTYLE_END
  0
ENDSEC
  0
EOF