999
DXF file: _cgs_temp_output.dxf
999
Pro/ENGINEER 2015110 by Parametric Technology Corporation
  0
SECTION
  2
HEADER
  9
$ACADVER
  1
AC1021
  9
$DWGCODEPAGE
  3
ANSI_1252
  9
$EXTMAX
 10
22.0
 20
17.0
 30
0.0
  9
$EXTMIN
 10
0.0
 20
0.0
 30
0.0
  9
$LIMMIN
 10
0.0
 20
0.0
  9
$LIMMAX
 10
22.0
 20
17.0
  9
$VIEWCTR
 10
11.0
 20
8.5
  9
$VIEWSIZE
 40
17.0
  9
$CLAYER
  8
0
  9
$LTSCALE
 40
1.21
  9
$CELTYPE
  6
BYLAYER
  9
$DIMSCALE
 40
1.0
  9
$DIMASZ
 40
0.1875
  9
$DIMEXO
 40
0.0625
  9
$DIMDLI
 40
0.836
  9
$DIMEXE
 40
0.125
  9
$DIMCEN
 40
0.198
  9
$DIMLFAC
 40
1.0
  9
$DIMBLK
  1
_CLOSED
  9
$DIMALT
 70
0
  9
$DIMALTF
 40
25.4
  9
$DIMTXT
 40
0.15625
  9
$DIMTOL
 70
0
  9
$DIMLIM
 70
0
  9
$DIMTFAC
 40
1.0
  9
$DIMGAP
 40
0.09
  9
$DIMDSEP
 70
46
  9
$AUNITS
 70
0
  9
$PDMODE
 70
3
  9
$PDSIZE
 40
0.3125
  9
$HANDSEED
  5
2FB
  9
$TILEMODE
 70
1
  9
$MEASUREMENT
 70
0
  9
$INSUNITS
 70
1
  0
ENDSEC
  0
SECTION
  2
CLASSES
  0
CLASS
  1
ACDBDICTIONARYWDFLT
  2
AcDbDictionaryWithDefault
  3
AutoCAD 2000
 90
0
 91
1
280
0
281
0
  0
CLASS
  1
ACDBPLACEHOLDER
  2
AcDbPlaceHolder
  3
AutoCAD 2000
 90
0
 91
1
280
0
281
0
  0
CLASS
  1
LAYOUT
  2
AcDbLayout
  3
AutoCAD 2000
 90
0
 91
0
280
0
281
0
  0
ENDSEC
  0
SECTION
  2
TABLES
  0
TABLE
  2
VPORT
  5
8
100
AcDbSymbolTable
 70
2
  0
VPORT
  5
1F4
100
AcDbSymbolTableRecord
100
AcDbViewportTableRecord
  2
*ACTIVE
 70
0
 10
0.0
 20
0.0
 11
1.0
 21
1.0
 12
11.0
 22
8.5
 13
0.0
 23
0.0
 14
1.0
 24
1.0
 15
0.0
 25
0.0
 16
0.0
 26
0.0
 36
1.0
 17
0.0
 27
0.0
 37
0.0
 40
17.0
 41
1.2941176471
 42
50.0
 43
0.0
 44
0.0
 50
0.0
 51
0.0
 71
0
 72
100
 73
1
 74
1
 75
0
 76
0
 77
0
 78
0
  0
ENDTAB
  0
TABLE
  2
LTYPE
  5
5
100
AcDbSymbolTable
 70
6
  0
LTYPE
  5
14
100
AcDbSymbolTableRecord
100
AcDbLinetypeTableRecord
  2
BYBLOCK
 70
0
  3

 72
65
 73
0
 40
0.0
  0
LTYPE
  5
15
100
AcDbSymbolTableRecord
100
AcDbLinetypeTableRecord
  2
BYLAYER
 70
0
  3

 72
65
 73
0
 40
0.0
  0
LTYPE
  5
16
100
AcDbSymbolTableRecord
100
AcDbLinetypeTableRecord
  2
CONTINUOUS
 70
64
  3
Solid line
 72
65
 73
0
 40
0.0
  0
LTYPE
  5
1F5
100
AcDbSymbolTableRecord
100
AcDbLinetypeTableRecord
  2
CENTER
 70
64
  3
____ _ ____ _ ____ _ ____ _ ____ _ ____ _ ____
 72
65
 73
4
 40
0.6
 49
0.375
 74
0
 49
-0.075
 74
0
 49
0.075
 74
0
 49
-0.075
 74
0
  0
LTYPE
  5
1F6
100
AcDbSymbolTableRecord
100
AcDbLinetypeTableRecord
  2
HIDDEN
 70
64
  3
- - - - - - - - - - - - - - - - - - - -
 72
65
 73
2
 40
0.2
 49
0.1
 74
0
 49
-0.1
 74
0
  0
LTYPE
  5
1F7
100
AcDbSymbolTableRecord
100
AcDbLinetypeTableRecord
  2
PHANTOM
 70
64
  3
_____ _ _ _____ _ _ _____ _ _ _____
 72
65
 73
6
 40
0.8
 49
0.45
 74
0
 49
-0.05
 74
0
 49
0.1
 74
0
 49
-0.05
 74
0
 49
0.1
 74
0
 49
-0.05
 74
0
  0
LTYPE
  5
1F8
100
AcDbSymbolTableRecord
100
AcDbLinetypeTableRecord
  2
DOT
 70
64
  3
. . . . . . . . . . . . . . . . . . . .
 72
65
 73
2
 40
0.2
 49
0.1
 74
0
 49
-0.1
 74
0
  0
LTYPE
  5
1F9
100
AcDbSymbolTableRecord
100
AcDbLinetypeTableRecord
  2
DASHED
 70
64
  3
- - - - - - - - - - - - - - - - - - - -
 72
65
 73
2
 40
0.2
 49
0.1
 74
0
 49
-0.1
 74
0
  0
ENDTAB
  0
TABLE
  2
LAYER
  5
2
100
AcDbSymbolTable
 70
36
  0
LAYER
  5
10
100
AcDbSymbolTableRecord
100
AcDbLayerTableRecord
  2
0
 70
0
 62
7
  6
CONTINUOUS
370
-3
390
F
  0
LAYER
  5
1FA
100
AcDbSymbolTableRecord
100
AcDbLayerTableRecord
  2
DEFAULT_1
 70
0
 62
7
  6
CENTER
370
-3
390
F
  0
LAYER
  5
1FB
100
AcDbSymbolTableRecord
100
AcDbLayerTableRecord
  2
DEFAULT_2
 70
0
 62
8
  6
HIDDEN
370
-3
390
F
  0
LAYER
  5
1FC
100
AcDbSymbolTableRecord
100
AcDbLayerTableRecord
  2
DEFAULT_3
 70
0
 62
7
  6
PHANTOM
370
-3
390
F
  0
LAYER
  5
1FD
100
AcDbSymbolTableRecord
100
AcDbLayerTableRecord
  2
01_ALL_DTM_PLN
 70
0
 62
7
  6
CONTINUOUS
370
-3
390
F
  0
LAYER
  5
1FE
100
AcDbSymbolTableRecord
100
AcDbLayerTableRecord
  2
01__ASM_ALL_DTM_PLN
 70
0
 62
7
  6
CONTINUOUS
370
-3
390
F
  0
LAYER
  5
1FF
100
AcDbSymbolTableRecord
100
AcDbLayerTableRecord
  2
01__ASM_DEF_DTM_PLN
 70
0
 62
7
  6
CONTINUOUS
370
-3
390
F
  0
LAYER
  5
200
100
AcDbSymbolTableRecord
100
AcDbLayerTableRecord
  2
01___PRT_ALL_DTM_PLN
 70
0
 62
7
  6
CONTINUOUS
370
-3
390
F
  0
LAYER
  5
201
100
AcDbSymbolTableRecord
100
AcDbLayerTableRecord
  2
01___PRT_DEF_DTM_PLN
 70
0
 62
7
  6
CONTINUOUS
370
-3
390
F
  0
LAYER
  5
202
100
AcDbSymbolTableRecord
100
AcDbLayerTableRecord
  2
02_ALL_AXES
 70
0
 62
7
  6
CONTINUOUS
370
-3
390
F
  0
LAYER
  5
203
100
AcDbSymbolTableRecord
100
AcDbLayerTableRecord
  2
02__ASM_ALL_AXES
 70
0
 62
7
  6
CONTINUOUS
370
-3
390
F
  0
LAYER
  5
204
100
AcDbSymbolTableRecord
100
AcDbLayerTableRecord
  2
02___PRT_ALL_AXES
 70
0
 62
7
  6
CONTINUOUS
370
-3
390
F
  0
LAYER
  5
205
100
AcDbSymbolTableRecord
100
AcDbLayerTableRecord
  2
03_ALL_CURVES
 70
0
 62
7
  6
CONTINUOUS
370
-3
390
F
  0
LAYER
  5
206
100
AcDbSymbolTableRecord
100
AcDbLayerTableRecord
  2
03__ASM_ALL_CURVES
 70
0
 62
7
  6
CONTINUOUS
370
-3
390
F
  0
LAYER
  5
207
100
AcDbSymbolTableRecord
100
AcDbLayerTableRecord
  2
03___PRT_ALL_CURVES
 70
0
 62
7
  6
CONTINUOUS
370
-3
390
F
  0
LAYER
  5
208
100
AcDbSymbolTableRecord
100
AcDbLayerTableRecord
  2
04_ALL_DTM_PNT
 70
0
 62
7
  6
CONTINUOUS
370
-3
390
F
  0
LAYER
  5
209
100
AcDbSymbolTableRecord
100
AcDbLayerTableRecord
  2
04__ASM_ALL_DTM_PNT
 70
0
 62
7
  6
CONTINUOUS
370
-3
390
F
  0
LAYER
  5
20A
100
AcDbSymbolTableRecord
100
AcDbLayerTableRecord
  2
04___PRT_ALL_DTM_PNT
 70
0
 62
7
  6
CONTINUOUS
370
-3
390
F
  0
LAYER
  5
20B
100
AcDbSymbolTableRecord
100
AcDbLayerTableRecord
  2
05_ALL_DTM_CSYS
 70
0
 62
7
  6
CONTINUOUS
370
-3
390
F
  0
LAYER
  5
20C
100
AcDbSymbolTableRecord
100
AcDbLayerTableRecord
  2
05__ASM_ALL_DTM_CSYS
 70
0
 62
7
  6
CONTINUOUS
370
-3
390
F
  0
LAYER
  5
20D
100
AcDbSymbolTableRecord
100
AcDbLayerTableRecord
  2
05__ASM_DEF_DTM_CSYS
 70
0
 62
7
  6
CONTINUOUS
370
-3
390
F
  0
LAYER
  5
20E
100
AcDbSymbolTableRecord
100
AcDbLayerTableRecord
  2
05___PRT_ALL_DTM_CSYS
 70
0
 62
7
  6
CONTINUOUS
370
-3
390
F
  0
LAYER
  5
20F
100
AcDbSymbolTableRecord
100
AcDbLayerTableRecord
  2
05___PRT_DEF_DTM_CSYS
 70
0
 62
7
  6
CONTINUOUS
370
-3
390
F
  0
LAYER
  5
210
100
AcDbSymbolTableRecord
100
AcDbLayerTableRecord
  2
06_ALL_SURFS
 70
0
 62
7
  6
CONTINUOUS
370
-3
390
F
  0
LAYER
  5
211
100
AcDbSymbolTableRecord
100
AcDbLayerTableRecord
  2
06__ASM_ALL_SURFS
 70
0
 62
7
  6
CONTINUOUS
370
-3
390
F
  0
LAYER
  5
212
100
AcDbSymbolTableRecord
100
AcDbLayerTableRecord
  2
06___PRT_ALL_SURFS
 70
0
 62
7
  6
CONTINUOUS
370
-3
390
F
  0
LAYER
  5
213
100
AcDbSymbolTableRecord
100
AcDbLayerTableRecord
  2
07__ASM_ALL_SKELETONS
 70
0
 62
7
  6
CONTINUOUS
370
-3
390
F
  0
LAYER
  5
214
100
AcDbSymbolTableRecord
100
AcDbLayerTableRecord
  2
LAYER_DIM
 70
0
 62
7
  6
CONTINUOUS
370
-3
390
F
  0
LAYER
  5
215
100
AcDbSymbolTableRecord
100
AcDbLayerTableRecord
  2
LAYER_FEATURE
 70
0
 62
7
  6
CONTINUOUS
370
-3
390
F
  0
LAYER
  5
216
100
AcDbSymbolTableRecord
100
AcDbLayerTableRecord
  2
LAYER_GEOM_FEAT
 70
0
 62
7
  6
CONTINUOUS
370
-3
390
F
  0
LAYER
  5
217
100
AcDbSymbolTableRecord
100
AcDbLayerTableRecord
  2
LAYER_PARAMETER_DIM
 70
0
 62
7
  6
CONTINUOUS
370
-3
390
F
  0
LAYER
  5
218
100
AcDbSymbolTableRecord
100
AcDbLayerTableRecord
  2
LAYER_PROTRUSION_FEAT
 70
0
 62
7
  6
CONTINUOUS
370
-3
390
F
  0
LAYER
  5
219
100
AcDbSymbolTableRecord
100
AcDbLayerTableRecord
  2
LAYER_ROUND_FEAT
 70
0
 62
7
  6
CONTINUOUS
370
-3
390
F
  0
ENDTAB
  0
TABLE
  2
STYLE
  5
3
100
AcDbSymbolTable
 70
1
  0
STYLE
  5
11
100
AcDbSymbolTableRecord
100
AcDbTextStyleTableRecord
  2
STANDARD
 70
0
 40
0.0
 41
0.8
 50
0.0
 71
0
 42
0.2
  3
txt
  4

  0
STYLE
  5
21A
100
AcDbSymbolTableRecord
100
AcDbTextStyleTableRecord
  2
TEXTSTYLE_1
 70
0
 40
0.0
 41
0.8
 50
0.0
 71
0
 42
0.2
  3
gdt
  4

  0
ENDTAB
  0
TABLE
  2
VIEW
  5
6
100
AcDbSymbolTable
 70
0
  0
ENDTAB
  0
TABLE
  2
UCS
  5
7
100
AcDbSymbolTable
 70
0
  0
ENDTAB
  0
TABLE
  2
APPID
  5
9
100
AcDbSymbolTable
 70
1
  0
APPID
  5
21B
100
AcDbSymbolTableRecord
100
AcDbRegAppTableRecord
  2
ACAD
 70
0
  0
ENDTAB
  0
TABLE
  2
BLOCK_RECORD
  5
1
100
AcDbSymbolTable
 70
0
  0
BLOCK_RECORD
  5
21C
100
AcDbSymbolTableRecord
100
AcDbBlockTableRecord
  2
*Model_Space
  0
BLOCK_RECORD
  5
21D
100
AcDbSymbolTableRecord
100
AcDbBlockTableRecord
  2
*Paper_Space
  0
ENDTAB
  0
TABLE
  2
DIMSTYLE
  5
A
100
AcDbSymbolTable
 70
1
100
AcDbDimStyleTable
 71
0
  0
DIMSTYLE
105
21E
100
AcDbSymbolTableRecord
100
AcDbDimStyleTableRecord
  2
STANDARD
 70
0
  3

  4

 40
1.0
 41
0.1875
 42
0.0625
 43
0.38
 44
0.125
 45
0.0
 46
0.0
 47
0.0001
 48
0.0001
140
0.15625
141
0.09
142
0.0
143
25.4
144
1.0
145
0.0
146
1.0
147
0.09
 71
0.0
 72
0.0
 73
1
 74
1
 75
0
 76
0
 77
0
 78
4
170
0
171
2
172
0
173
0
174
0
175
0
176
0
177
0
178
0
270
2
271
4
272
4
273
2
274
2
275
0
280
0
281
0
282
0
283
1
284
4
285
0
286
0
287
3
288
0
340
11
278
46
  0
ENDTAB
  0
ENDSEC
  0
SECTION
  2
BLOCKS
  0
BLOCK
  5
20
100
AcDbEntity
  8
0
100
AcDbBlockBegin
  2
*Model_Space
 70
0
 10
0.0
 20
0.0
 30
0.0
  3
*Model_Space
  1

  0
ENDBLK
  5
21
100
AcDbEntity
  8
0
100
AcDbBlockEnd
  0
BLOCK
  5
1C
100
AcDbEntity
  8
0
100
AcDbBlockBegin
  2
*Paper_Space
 70
0
 10
0.0
 20
0.0
 30
0.0
  3
*Paper_Space
  1

  0
ENDBLK
  5
1D
100
AcDbEntity
  8
0
100
AcDbBlockEnd
  0
ENDSEC
  0
SECTION
  2
ENTITIES
  0
MTEXT
  5
21F
100
AcDbEntity
  8
0
100
AcDbMText
 62
7
  6
CONTINUOUS
  7
STANDARD
 71
1
 72
1
 10
15.9560215477
 20
0.9479130325
 30
0.0
 11
1.0
 21
0.0
 31
0.0
 44
0.9
  1
SCALE: 1:0.500
 40
0.3
 41
3.36
  0
LINE
  5
220
100
AcDbEntity
  8
0
100
AcDbLine
 62
7
  6
CONTINUOUS
 10
0.0
 20
0.0
 11
0.0
 21
17.0
  0
LINE
  5
221
100
AcDbEntity
  8
0
100
AcDbLine
 62
7
  6
CONTINUOUS
 10
0.0
 20
0.0
 11
22.0
 21
0.0
  0
LINE
  5
222
100
AcDbEntity
  8
0
100
AcDbLine
 62
7
  6
CONTINUOUS
 10
0.0
 20
17.0
 11
22.0
 21
17.0
  0
LINE
  5
223
100
AcDbEntity
  8
0
100
AcDbLine
 62
7
  6
CONTINUOUS
 10
22.0
 20
0.0
 11
22.0
 21
17.0
  0
LINE
  5
224
100
AcDbEntity
  8
0
100
AcDbLine
 62
7
  6
CONTINUOUS
 10
3.3491172762
 20
5.7626198968
 11
3.3491172762
 21
5.7251198968
  0
LINE
  5
225
100
AcDbEntity
  8
0
100
AcDbLine
 62
7
  6
CONTINUOUS
 10
3.3491172762
 20
5.7251198968
 11
3.4394409573
 21
5.2867489642
  0
LINE
  5
226
100
AcDbEntity
  8
0
100
AcDbLine
 62
7
  6
CONTINUOUS
 10
3.8491172762
 20
5.7251198968
 11
3.8491172762
 21
5.7476198968
  0
LINE
  5
227
100
AcDbEntity
  8
LAYER_FEATURE
100
AcDbLine
 62
7
  6
CONTINUOUS
 10
3.9116172762
 20
5.7476198968
 11
3.9116172762
 21
5.7251198968
  0
LINE
  5
228
100
AcDbEntity
  8
0
100
AcDbLine
 62
7
  6
CONTINUOUS
 10
3.758793595
 20
5.2867489642
 11
3.8491172762
 21
5.7251198968
  0
LINE
  5
229
100
AcDbEntity
  8
LAYER_FEATURE
100
AcDbLine
 62
7
  6
CONTINUOUS
 10
3.9116172762
 20
5.7251198968
 11
4.0019409573
 21
5.2867489642
  0
LINE
  5
22A
100
AcDbEntity
  8
LAYER_FEATURE
100
AcDbLine
 62
7
  6
CONTINUOUS
 10
4.4116172762
 20
5.7251198968
 11
4.4116172762
 21
5.7476198968
  0
LINE
  5
22B
100
AcDbEntity
  8
LAYER_FEATURE
100
AcDbLine
 62
7
  6
CONTINUOUS
 10
4.4741172762
 20
5.7476198968
 11
4.4741172762
 21
5.7251198968
  0
LINE
  5
22C
100
AcDbEntity
  8
LAYER_FEATURE
100
AcDbLine
 62
7
  6
CONTINUOUS
 10
4.321293595
 20
5.2867489642
 11
4.4116172762
 21
5.7251198968
  0
LINE
  5
22D
100
AcDbEntity
  8
LAYER_FEATURE
100
AcDbLine
 62
7
  6
CONTINUOUS
 10
4.4741172762
 20
5.7251198968
 11
4.5644409573
 21
5.2867489642
  0
LINE
  5
22E
100
AcDbEntity
  8
LAYER_FEATURE
100
AcDbLine
 62
7
  6
CONTINUOUS
 10
4.9741172762
 20
5.7251198968
 11
4.9741172762
 21
5.7476198968
  0
LINE
  5
22F
100
AcDbEntity
  8
LAYER_FEATURE
100
AcDbLine
 62
7
  6
CONTINUOUS
 10
5.0366172762
 20
5.7476198968
 11
5.0366172762
 21
5.7251198968
  0
LINE
  5
230
100
AcDbEntity
  8
LAYER_FEATURE
100
AcDbLine
 62
7
  6
CONTINUOUS
 10
4.883793595
 20
5.2867489642
 11
4.9741172762
 21
5.7251198968
  0
LINE
  5
231
100
AcDbEntity
  8
LAYER_FEATURE
100
AcDbLine
 62
7
  6
CONTINUOUS
 10
5.0366172762
 20
5.7251198968
 11
5.1269409573
 21
5.2867489642
  0
LINE
  5
232
100
AcDbEntity
  8
LAYER_FEATURE
100
AcDbLine
 62
7
  6
CONTINUOUS
 10
5.5366172762
 20
5.7251198968
 11
5.5366172762
 21
5.7476198968
  0
LINE
  5
233
100
AcDbEntity
  8
LAYER_FEATURE
100
AcDbLine
 62
7
  6
CONTINUOUS
 10
5.446293595
 20
5.2867489642
 11
5.5366172762
 21
5.7251198968
  0
LINE
  5
234
100
AcDbEntity
  8
LAYER_FEATURE
100
AcDbLine
 62
7
  6
CONTINUOUS
 10
5.5991172762
 20
5.7476198968
 11
5.5991172762
 21
5.7251198968
  0
LINE
  5
235
100
AcDbEntity
  8
LAYER_FEATURE
100
AcDbLine
 62
7
  6
CONTINUOUS
 10
5.5991172762
 20
5.7251198968
 11
5.6894409573
 21
5.2867489642
  0
LINE
  5
236
100
AcDbEntity
  8
0
100
AcDbLine
 62
7
  6
CONTINUOUS
 10
3.4598456609
 20
5.2701198968
 11
3.7383888915
 21
5.2701198968
  0
LINE
  5
237
100
AcDbEntity
  8
LAYER_FEATURE
100
AcDbLine
 62
7
  6
CONTINUOUS
 10
4.0223456609
 20
5.2701198968
 11
4.3008888915
 21
5.2701198968
  0
LINE
  5
238
100
AcDbEntity
  8
LAYER_FEATURE
100
AcDbLine
 62
7
  6
CONTINUOUS
 10
4.5848456609
 20
5.2701198968
 11
4.8633888915
 21
5.2701198968
  0
LINE
  5
239
100
AcDbEntity
  8
LAYER_FEATURE
100
AcDbLine
 62
7
  6
CONTINUOUS
 10
5.1473456609
 20
5.2701198968
 11
5.4258888915
 21
5.2701198968
  0
LINE
  5
23A
100
AcDbEntity
  8
LAYER_FEATURE
100
AcDbLine
 62
7
  6
CONTINUOUS
 10
5.7098456609
 20
5.2701198968
 11
5.9883888915
 21
5.2701198968
  0
LINE
  5
23B
100
AcDbEntity
  8
LAYER_FEATURE
100
AcDbLine
 62
7
  6
CONTINUOUS
 10
6.2723456609
 20
5.2701198968
 11
6.5508888915
 21
5.2701198968
  0
LINE
  5
23C
100
AcDbEntity
  8
LAYER_FEATURE
100
AcDbLine
 62
7
  6
CONTINUOUS
 10
6.8348456609
 20
5.2701198968
 11
7.1133888915
 21
5.2701198968
  0
LINE
  5
23D
100
AcDbEntity
  8
LAYER_FEATURE
100
AcDbLine
 62
7
  6
CONTINUOUS
 10
7.3973456609
 20
5.2701198968
 11
7.6758888915
 21
5.2701198968
  0
LINE
  5
23E
100
AcDbEntity
  8
LAYER_FEATURE
100
AcDbLine
 62
7
  6
CONTINUOUS
 10
7.9598456609
 20
5.2701198968
 11
8.2383888915
 21
5.2701198968
  0
LINE
  5
23F
100
AcDbEntity
  8
LAYER_FEATURE
100
AcDbLine
 62
7
  6
CONTINUOUS
 10
8.5223456609
 20
5.2701198968
 11
8.8008888915
 21
5.2701198968
  0
LINE
  5
240
100
AcDbEntity
  8
LAYER_FEATURE
100
AcDbLine
 62
7
  6
CONTINUOUS
 10
6.0991172762
 20
5.7251198968
 11
6.0991172762
 21
5.7476198968
  0
LINE
  5
241
100
AcDbEntity
  8
LAYER_FEATURE
100
AcDbLine
 62
7
  6
CONTINUOUS
 10
6.008793595
 20
5.2867489642
 11
6.0991172762
 21
5.7251198968
  0
LINE
  5
242
100
AcDbEntity
  8
LAYER_FEATURE
100
AcDbLine
 62
7
  6
CONTINUOUS
 10
6.1616172762
 20
5.7476198968
 11
6.1616172762
 21
5.7251198968
  0
LINE
  5
243
100
AcDbEntity
  8
LAYER_FEATURE
100
AcDbLine
 62
7
  6
CONTINUOUS
 10
6.1616172762
 20
5.7251198968
 11
6.2519409573
 21
5.2867489642
  0
LINE
  5
244
100
AcDbEntity
  8
LAYER_FEATURE
100
AcDbLine
 62
7
  6
CONTINUOUS
 10
3.8491172762
 20
5.7476198968
 11
3.9116172762
 21
5.7476198968
  0
LINE
  5
245
100
AcDbEntity
  8
LAYER_FEATURE
100
AcDbLine
 62
7
  6
CONTINUOUS
 10
4.4116172762
 20
5.7476198968
 11
4.4741172762
 21
5.7476198968
  0
LINE
  5
246
100
AcDbEntity
  8
LAYER_FEATURE
100
AcDbLine
 62
7
  6
CONTINUOUS
 10
4.9741172762
 20
5.7476198968
 11
5.0366172762
 21
5.7476198968
  0
LINE
  5
247
100
AcDbEntity
  8
LAYER_FEATURE
100
AcDbLine
 62
7
  6
CONTINUOUS
 10
5.5366172762
 20
5.7476198968
 11
5.5991172762
 21
5.7476198968
  0
LINE
  5
248
100
AcDbEntity
  8
LAYER_FEATURE
100
AcDbLine
 62
7
  6
CONTINUOUS
 10
6.0991172762
 20
5.7476198968
 11
6.1616172762
 21
5.7476198968
  0
LINE
  5
249
100
AcDbEntity
  8
LAYER_FEATURE
100
AcDbLine
 62
7
  6
CONTINUOUS
 10
6.6616172762
 20
5.7476198968
 11
6.7241172762
 21
5.7476198968
  0
LINE
  5
24A
100
AcDbEntity
  8
LAYER_FEATURE
100
AcDbLine
 62
7
  6
CONTINUOUS
 10
7.2241172762
 20
5.7476198968
 11
7.2866172762
 21
5.7476198968
  0
LINE
  5
24B
100
AcDbEntity
  8
LAYER_FEATURE
100
AcDbLine
 62
7
  6
CONTINUOUS
 10
7.7866172762
 20
5.7476198968
 11
7.8491172762
 21
5.7476198968
  0
LINE
  5
24C
100
AcDbEntity
  8
LAYER_FEATURE
100
AcDbLine
 62
7
  6
CONTINUOUS
 10
8.3491172762
 20
5.7476198968
 11
8.4116172762
 21
5.7476198968
  0
LINE
  5
24D
100
AcDbEntity
  8
0
100
AcDbLine
 62
7
  6
CONTINUOUS
 10
8.9041172762
 20
5.7701198968
 11
3.3566172762
 21
5.7701198968
  0
LINE
  5
24E
100
AcDbEntity
  8
LAYER_FEATURE
100
AcDbLine
 62
7
  6
CONTINUOUS
 10
6.6616172762
 20
5.7251198968
 11
6.6616172762
 21
5.7476198968
  0
LINE
  5
24F
100
AcDbEntity
  8
LAYER_FEATURE
100
AcDbLine
 62
7
  6
CONTINUOUS
 10
6.571293595
 20
5.2867489642
 11
6.6616172762
 21
5.7251198968
  0
LINE
  5
250
100
AcDbEntity
  8
LAYER_FEATURE
100
AcDbLine
 62
7
  6
CONTINUOUS
 10
6.7241172762
 20
5.7476198968
 11
6.7241172762
 21
5.7251198968
  0
LINE
  5
251
100
AcDbEntity
  8
LAYER_FEATURE
100
AcDbLine
 62
7
  6
CONTINUOUS
 10
6.7241172762
 20
5.7251198968
 11
6.8144409573
 21
5.2867489642
  0
LINE
  5
252
100
AcDbEntity
  8
LAYER_FEATURE
100
AcDbLine
 62
7
  6
CONTINUOUS
 10
7.2241172762
 20
5.7251198968
 11
7.2241172762
 21
5.7476198968
  0
LINE
  5
253
100
AcDbEntity
  8
LAYER_FEATURE
100
AcDbLine
 62
7
  6
CONTINUOUS
 10
7.133793595
 20
5.2867489642
 11
7.2241172762
 21
5.7251198968
  0
LINE
  5
254
100
AcDbEntity
  8
LAYER_FEATURE
100
AcDbLine
 62
7
  6
CONTINUOUS
 10
7.2866172762
 20
5.7476198968
 11
7.2866172762
 21
5.7251198968
  0
LINE
  5
255
100
AcDbEntity
  8
LAYER_FEATURE
100
AcDbLine
 62
7
  6
CONTINUOUS
 10
7.2866172762
 20
5.7251198968
 11
7.3769409573
 21
5.2867489642
  0
LINE
  5
256
100
AcDbEntity
  8
LAYER_FEATURE
100
AcDbLine
 62
7
  6
CONTINUOUS
 10
7.7866172762
 20
5.7251198968
 11
7.7866172762
 21
5.7476198968
  0
LINE
  5
257
100
AcDbEntity
  8
LAYER_FEATURE
100
AcDbLine
 62
7
  6
CONTINUOUS
 10
7.696293595
 20
5.2867489642
 11
7.7866172762
 21
5.7251198968
  0
LINE
  5
258
100
AcDbEntity
  8
LAYER_FEATURE
100
AcDbLine
 62
7
  6
CONTINUOUS
 10
7.8491172762
 20
5.7476198968
 11
7.8491172762
 21
5.7251198968
  0
LINE
  5
259
100
AcDbEntity
  8
LAYER_FEATURE
100
AcDbLine
 62
7
  6
CONTINUOUS
 10
7.8491172762
 20
5.7251198968
 11
7.9394409573
 21
5.2867489642
  0
LINE
  5
25A
100
AcDbEntity
  8
LAYER_FEATURE
100
AcDbLine
 62
7
  6
CONTINUOUS
 10
8.3491172762
 20
5.7251198968
 11
8.3491172762
 21
5.7476198968
  0
LINE
  5
25B
100
AcDbEntity
  8
LAYER_FEATURE
100
AcDbLine
 62
7
  6
CONTINUOUS
 10
8.258793595
 20
5.2867489642
 11
8.3491172762
 21
5.7251198968
  0
LINE
  5
25C
100
AcDbEntity
  8
LAYER_FEATURE
100
AcDbLine
 62
7
  6
CONTINUOUS
 10
8.4116172762
 20
5.7476198968
 11
8.4116172762
 21
5.7251198968
  0
LINE
  5
25D
100
AcDbEntity
  8
LAYER_FEATURE
100
AcDbLine
 62
7
  6
CONTINUOUS
 10
8.4116172762
 20
5.7251198968
 11
8.5019409573
 21
5.2867489642
  0
LINE
  5
25E
100
AcDbEntity
  8
0
100
AcDbLine
 62
7
  6
CONTINUOUS
 10
8.9116172762
 20
5.7251198968
 11
8.9116172762
 21
5.7626198968
  0
LINE
  5
25F
100
AcDbEntity
  8
LAYER_FEATURE
100
AcDbLine
 62
7
  6
CONTINUOUS
 10
8.821293595
 20
5.2867489642
 11
8.9116172762
 21
5.7251198968
  0
LINE
  5
260
100
AcDbEntity
  8
0
100
AcDbLine
 62
7
  6
CONTINUOUS
 10
3.2896220839
 20
13.6000477814
 11
3.2896220839
 21
11.6000477814
  0
LINE
  5
261
100
AcDbEntity
  8
0
100
AcDbLine
 62
7
  6
CONTINUOUS
 10
8.8521220839
 20
11.6000477814
 11
3.2896220839
 21
11.6000477814
  0
LINE
  5
262
100
AcDbEntity
  8
0
100
AcDbLine
 62
7
  6
CONTINUOUS
 10
3.2896220839
 20
13.6000477814
 11
8.8521220839
 21
13.6000477814
  0
LINE
  5
263
100
AcDbEntity
  8
0
100
AcDbLine
 62
7
  6
CONTINUOUS
 10
8.8521220839
 20
11.6000477814
 11
8.8521220839
 21
13.6000477814
  0
LINE
  5
264
100
AcDbEntity
  8
LAYER_FEATURE
100
AcDbLine
 62
7
  6
CONTINUOUS
 10
14.5603552569
 20
5.2106247044
 11
14.5603552569
 21
5.6656247044
  0
LINE
  5
265
100
AcDbEntity
  8
0
100
AcDbLine
 62
7
  6
CONTINUOUS
 10
14.5603552569
 20
5.6656247044
 11
14.5603552569
 21
5.7106247044
  0
LINE
  5
266
100
AcDbEntity
  8
LAYER_FEATURE
100
AcDbLine
 62
7
  6
CONTINUOUS
 10
14.5603552569
 20
5.2106247044
 11
16.5603552569
 21
5.2106247044
  0
LINE
  5
267
100
AcDbEntity
  8
LAYER_FEATURE
100
AcDbLine
 62
7
  6
CONTINUOUS
 10
16.5603552569
 20
5.6656247044
 11
14.5603552569
 21
5.6656247044
  0
LINE
  5
268
100
AcDbEntity
  8
0
100
AcDbLine
 62
7
  6
CONTINUOUS
 10
14.5603552569
 20
5.7106247044
 11
16.5603552569
 21
5.7106247044
  0
LINE
  5
269
100
AcDbEntity
  8
0
100
AcDbLine
 62
7
  6
CONTINUOUS
 10
16.5603552569
 20
5.7106247044
 11
16.5603552569
 21
5.6656247044
  0
LINE
  5
26A
100
AcDbEntity
  8
LAYER_FEATURE
100
AcDbLine
 62
7
  6
CONTINUOUS
 10
16.5603552569
 20
5.2106247044
 11
16.5603552569
 21
5.6656247044
  0
LINE
  5
26B
100
AcDbEntity
  8
0
100
AcDbLine
 62
7
  6
CONTINUOUS
 10
12.6364688046
 20
11.8782185006
 11
12.6479078746
 21
11.8549081268
  0
LINE
  5
26C
100
AcDbEntity
  8
0
100
AcDbLine
 62
7
  6
CONTINUOUS
 10
12.6362119142
 20
11.8804326084
 11
12.6364688046
 21
11.8782185006
  0
LINE
  5
26D
100
AcDbEntity
  8
0
100
AcDbLine
 62
7
  6
CONTINUOUS
 10
12.6479078746
 20
11.8549081268
 11
12.8648229817
 21
11.5824123853
  0
LINE
  5
26E
100
AcDbEntity
  8
0
100
AcDbLine
 62
7
  6
CONTINUOUS
 10
13.1203437526
 20
13.4470866751
 11
12.6362111058
 21
11.8804328559
  0
LINE
  5
26F
100
AcDbEntity
  8
0
100
AcDbLine
 62
7
  6
CONTINUOUS
 10
13.1084383716
 20
11.8549081268
 11
13.1015749296
 21
11.8688943511
  0
LINE
  5
270
100
AcDbEntity
  8
0
100
AcDbLine
 62
7
  6
CONTINUOUS
 10
13.1589662396
 20
11.5824123853
 11
13.1084383716
 21
11.8549081268
  0
LINE
  5
271
100
AcDbEntity
  8
0
100
AcDbLine
 62
7
  6
CONTINUOUS
 10
13.158794689
 20
11.5788747187
 11
13.1589662396
 21
11.5824123853
  0
LINE
  5
272
100
AcDbEntity
  8
LAYER_FEATURE
100
AcDbLine
 62
7
  6
CONTINUOUS
 10
13.1660046838
 20
11.8549081268
 11
13.3829197908
 21
11.5824123853
  0
LINE
  5
273
100
AcDbEntity
  8
LAYER_FEATURE
100
AcDbLine
 62
7
  6
CONTINUOUS
 10
13.1591412418
 20
11.8688943511
 11
13.1660046838
 21
11.8549081268
  0
LINE
  5
274
100
AcDbEntity
  8
0
100
AcDbLine
 62
7
  6
CONTINUOUS
 10
13.1127604418
 20
11.8688943511
 11
13.1084383716
 21
11.8549081268
  0
LINE
  5
275
100
AcDbEntity
  8
0
100
AcDbLine
 62
7
  6
CONTINUOUS
 10
13.1598072656
 20
11.5821524886
 11
13.2222575015
 21
11.784241526
  0
LINE
  5
276
100
AcDbEntity
  8
LAYER_FEATURE
100
AcDbLine
 62
7
  6
CONTINUOUS
 10
13.6841014929
 20
11.8549081268
 11
13.9010166
 21
11.5824123853
  0
LINE
  5
277
100
AcDbEntity
  8
LAYER_FEATURE
100
AcDbLine
 62
7
  6
CONTINUOUS
 10
13.6265351808
 20
11.8549081268
 11
13.6196717388
 21
11.8688943511
  0
LINE
  5
278
100
AcDbEntity
  8
LAYER_FEATURE
100
AcDbLine
 62
7
  6
CONTINUOUS
 10
13.6772380509
 20
11.8688943511
 11
13.6841014929
 21
11.8549081268
  0
LINE
  5
279
100
AcDbEntity
  8
LAYER_FEATURE
100
AcDbLine
 62
7
  6
CONTINUOUS
 10
13.6770630488
 20
11.5824123853
 11
13.6265351808
 21
11.8549081268
  0
LINE
  5
27A
100
AcDbEntity
  8
LAYER_FEATURE
100
AcDbLine
 62
7
  6
CONTINUOUS
 10
13.6768914981
 20
11.5788747187
 11
13.6770630488
 21
11.5824123853
  0
LINE
  5
27B
100
AcDbEntity
  8
LAYER_FEATURE
100
AcDbLine
 62
7
  6
CONTINUOUS
 10
13.630857251
 20
11.8688943511
 11
13.6265351808
 21
11.8549081268
  0
LINE
  5
27C
100
AcDbEntity
  8
LAYER_FEATURE
100
AcDbLine
 62
7
  6
CONTINUOUS
 10
13.6779040747
 20
11.5821524886
 11
13.7403543106
 21
11.784241526
  0
LINE
  5
27D
100
AcDbEntity
  8
LAYER_FEATURE
100
AcDbLine
 62
7
  6
CONTINUOUS
 10
14.202198302
 20
11.8549081268
 11
14.4191134091
 21
11.5824123853
  0
LINE
  5
27E
100
AcDbEntity
  8
LAYER_FEATURE
100
AcDbLine
 62
7
  6
CONTINUOUS
 10
14.1446319899
 20
11.8549081268
 11
14.1377685479
 21
11.8688943511
  0
LINE
  5
27F
100
AcDbEntity
  8
LAYER_FEATURE
100
AcDbLine
 62
7
  6
CONTINUOUS
 10
14.19533486
 20
11.8688943511
 11
14.202198302
 21
11.8549081268
  0
LINE
  5
280
100
AcDbEntity
  8
LAYER_FEATURE
100
AcDbLine
 62
7
  6
CONTINUOUS
 10
14.1951598579
 20
11.5824123853
 11
14.1446319899
 21
11.8549081268
  0
LINE
  5
281
100
AcDbEntity
  8
LAYER_FEATURE
100
AcDbLine
 62
7
  6
CONTINUOUS
 10
14.1949883072
 20
11.5788747187
 11
14.1951598579
 21
11.5824123853
  0
LINE
  5
282
100
AcDbEntity
  8
LAYER_FEATURE
100
AcDbLine
 62
7
  6
CONTINUOUS
 10
14.1489540601
 20
11.8688943511
 11
14.1446319899
 21
11.8549081268
  0
LINE
  5
283
100
AcDbEntity
  8
LAYER_FEATURE
100
AcDbLine
 62
7
  6
CONTINUOUS
 10
14.7202951111
 20
11.8549081268
 11
14.9372102182
 21
11.5824123853
  0
LINE
  5
284
100
AcDbEntity
  8
LAYER_FEATURE
100
AcDbLine
 62
7
  6
CONTINUOUS
 10
14.662728799
 20
11.8549081268
 11
14.655865357
 21
11.8688943511
  0
LINE
  5
285
100
AcDbEntity
  8
LAYER_FEATURE
100
AcDbLine
 62
7
  6
CONTINUOUS
 10
14.1960008839
 20
11.5821524886
 11
14.2584511197
 21
11.784241526
  0
LINE
  5
286
100
AcDbEntity
  8
0
100
AcDbLine
 62
7
  6
CONTINUOUS
 10
12.88868952
 20
11.5720755912
 11
13.1452448249
 21
11.5720755912
  0
LINE
  5
287
100
AcDbEntity
  8
LAYER_FEATURE
100
AcDbLine
 62
7
  6
CONTINUOUS
 10
13.4067863291
 20
11.5720755912
 11
13.663341634
 21
11.5720755912
  0
LINE
  5
288
100
AcDbEntity
  8
LAYER_FEATURE
100
AcDbLine
 62
7
  6
CONTINUOUS
 10
13.9248831383
 20
11.5720755912
 11
14.1814384431
 21
11.5720755912
  0
LINE
  5
289
100
AcDbEntity
  8
LAYER_FEATURE
100
AcDbLine
 62
7
  6
CONTINUOUS
 10
14.4429799474
 20
11.5720755912
 11
14.6995352523
 21
11.5720755912
  0
LINE
  5
28A
100
AcDbEntity
  8
LAYER_FEATURE
100
AcDbLine
 62
7
  6
CONTINUOUS
 10
14.9610767565
 20
11.5720755912
 11
15.2176320614
 21
11.5720755912
  0
LINE
  5
28B
100
AcDbEntity
  8
LAYER_FEATURE
100
AcDbLine
 62
7
  6
CONTINUOUS
 10
15.4791735657
 20
11.5720755912
 11
15.7357288705
 21
11.5720755912
  0
LINE
  5
28C
100
AcDbEntity
  8
LAYER_FEATURE
100
AcDbLine
 62
7
  6
CONTINUOUS
 10
15.9972703748
 20
11.5720755912
 11
16.2538256796
 21
11.5720755912
  0
LINE
  5
28D
100
AcDbEntity
  8
LAYER_FEATURE
100
AcDbLine
 62
7
  6
CONTINUOUS
 10
16.5153671839
 20
11.5720755912
 11
16.7719224888
 21
11.5720755912
  0
LINE
  5
28E
100
AcDbEntity
  8
LAYER_FEATURE
100
AcDbLine
 62
7
  6
CONTINUOUS
 10
17.033463993
 20
11.5720755912
 11
17.2900192979
 21
11.5720755912
  0
LINE
  5
28F
100
AcDbEntity
  8
LAYER_FEATURE
100
AcDbLine
 62
7
  6
CONTINUOUS
 10
17.5515608022
 20
11.5720755912
 11
17.808116107
 21
11.5720755912
  0
LINE
  5
290
100
AcDbEntity
  8
LAYER_FEATURE
100
AcDbLine
 62
7
  6
CONTINUOUS
 10
14.7134316691
 20
11.8688943511
 11
14.7202951111
 21
11.8549081268
  0
LINE
  5
291
100
AcDbEntity
  8
LAYER_FEATURE
100
AcDbLine
 62
7
  6
CONTINUOUS
 10
14.713256667
 20
11.5824123853
 11
14.662728799
 21
11.8549081268
  0
LINE
  5
292
100
AcDbEntity
  8
LAYER_FEATURE
100
AcDbLine
 62
7
  6
CONTINUOUS
 10
14.7130851164
 20
11.5788747187
 11
14.713256667
 21
11.5824123853
  0
LINE
  5
293
100
AcDbEntity
  8
LAYER_FEATURE
100
AcDbLine
 62
7
  6
CONTINUOUS
 10
14.6670508692
 20
11.8688943511
 11
14.662728799
 21
11.8549081268
  0
LINE
  5
294
100
AcDbEntity
  8
LAYER_FEATURE
100
AcDbLine
 62
7
  6
CONTINUOUS
 10
13.1015749296
 20
11.8688943511
 11
13.1591412418
 21
11.8688943511
  0
LINE
  5
295
100
AcDbEntity
  8
LAYER_FEATURE
100
AcDbLine
 62
7
  6
CONTINUOUS
 10
13.6196717388
 20
11.8688943511
 11
13.6772380509
 21
11.8688943511
  0
LINE
  5
296
100
AcDbEntity
  8
LAYER_FEATURE
100
AcDbLine
 62
7
  6
CONTINUOUS
 10
14.1377685479
 20
11.8688943511
 11
14.19533486
 21
11.8688943511
  0
LINE
  5
297
100
AcDbEntity
  8
LAYER_FEATURE
100
AcDbLine
 62
7
  6
CONTINUOUS
 10
14.655865357
 20
11.8688943511
 11
14.7134316691
 21
11.8688943511
  0
LINE
  5
298
100
AcDbEntity
  8
LAYER_FEATURE
100
AcDbLine
 62
7
  6
CONTINUOUS
 10
15.1739621661
 20
11.8688943511
 11
15.2315284783
 21
11.8688943511
  0
LINE
  5
299
100
AcDbEntity
  8
LAYER_FEATURE
100
AcDbLine
 62
7
  6
CONTINUOUS
 10
15.6920589753
 20
11.8688943511
 11
15.7496252874
 21
11.8688943511
  0
LINE
  5
29A
100
AcDbEntity
  8
LAYER_FEATURE
100
AcDbLine
 62
7
  6
CONTINUOUS
 10
16.2101557844
 20
11.8688943511
 11
16.2677220965
 21
11.8688943511
  0
LINE
  5
29B
100
AcDbEntity
  8
LAYER_FEATURE
100
AcDbLine
 62
7
  6
CONTINUOUS
 10
16.7282525935
 20
11.8688943511
 11
16.7858189056
 21
11.8688943511
  0
LINE
  5
29C
100
AcDbEntity
  8
LAYER_FEATURE
100
AcDbLine
 62
7
  6
CONTINUOUS
 10
17.2463494027
 20
11.8688943511
 11
17.3039157148
 21
11.8688943511
  0
LINE
  5
29D
100
AcDbEntity
  8
0
100
AcDbLine
 62
7
  6
CONTINUOUS
 10
17.7506748123
 20
11.8828805753
 11
12.6410889481
 21
11.8828805753
  0
LINE
  5
29E
100
AcDbEntity
  8
LAYER_FEATURE
100
AcDbLine
 62
7
  6
CONTINUOUS
 10
15.2383919203
 20
11.8549081268
 11
15.4553070273
 21
11.5824123853
  0
LINE
  5
29F
100
AcDbEntity
  8
LAYER_FEATURE
100
AcDbLine
 62
7
  6
CONTINUOUS
 10
14.714097693
 20
11.5821524886
 11
14.7765479289
 21
11.784241526
  0
LINE
  5
2A0
100
AcDbEntity
  8
LAYER_FEATURE
100
AcDbLine
 62
7
  6
CONTINUOUS
 10
15.1808256081
 20
11.8549081268
 11
15.1739621661
 21
11.8688943511
  0
LINE
  5
2A1
100
AcDbEntity
  8
LAYER_FEATURE
100
AcDbLine
 62
7
  6
CONTINUOUS
 10
15.2315284783
 20
11.8688943511
 11
15.2383919203
 21
11.8549081268
  0
LINE
  5
2A2
100
AcDbEntity
  8
LAYER_FEATURE
100
AcDbLine
 62
7
  6
CONTINUOUS
 10
15.2313534761
 20
11.5824123853
 11
15.1808256081
 21
11.8549081268
  0
LINE
  5
2A3
100
AcDbEntity
  8
LAYER_FEATURE
100
AcDbLine
 62
7
  6
CONTINUOUS
 10
15.2311820217
 20
11.578874689
 11
15.2313534761
 21
11.5824123853
  0
LINE
  5
2A4
100
AcDbEntity
  8
LAYER_FEATURE
100
AcDbLine
 62
7
  6
CONTINUOUS
 10
15.7564887294
 20
11.8549081268
 11
15.9734038365
 21
11.5824123853
  0
LINE
  5
2A5
100
AcDbEntity
  8
LAYER_FEATURE
100
AcDbLine
 62
7
  6
CONTINUOUS
 10
15.1851476783
 20
11.8688943511
 11
15.1808256081
 21
11.8549081268
  0
LINE
  5
2A6
100
AcDbEntity
  8
LAYER_FEATURE
100
AcDbLine
 62
7
  6
CONTINUOUS
 10
15.6989224173
 20
11.8549081268
 11
15.6920589753
 21
11.8688943511
  0
LINE
  5
2A7
100
AcDbEntity
  8
LAYER_FEATURE
100
AcDbLine
 62
7
  6
CONTINUOUS
 10
15.7496252874
 20
11.8688943511
 11
15.7564887294
 21
11.8549081268
  0
LINE
  5
2A8
100
AcDbEntity
  8
LAYER_FEATURE
100
AcDbLine
 62
7
  6
CONTINUOUS
 10
15.2321945021
 20
11.5821524886
 11
15.294644738
 21
11.784241526
  0
LINE
  5
2A9
100
AcDbEntity
  8
LAYER_FEATURE
100
AcDbLine
 62
7
  6
CONTINUOUS
 10
16.2745855385
 20
11.8549081268
 11
16.4915006456
 21
11.5824123853
  0
LINE
  5
2AA
100
AcDbEntity
  8
LAYER_FEATURE
100
AcDbLine
 62
7
  6
CONTINUOUS
 10
15.7494502853
 20
11.5824123853
 11
15.6989224173
 21
11.8549081268
  0
LINE
  5
2AB
100
AcDbEntity
  8
LAYER_FEATURE
100
AcDbLine
 62
7
  6
CONTINUOUS
 10
15.7492787346
 20
11.5788747187
 11
15.7494502853
 21
11.5824123853
  0
LINE
  5
2AC
100
AcDbEntity
  8
LAYER_FEATURE
100
AcDbLine
 62
7
  6
CONTINUOUS
 10
15.7032444875
 20
11.8688943511
 11
15.6989224173
 21
11.8549081268
  0
LINE
  5
2AD
100
AcDbEntity
  8
LAYER_FEATURE
100
AcDbLine
 62
7
  6
CONTINUOUS
 10
16.2170192264
 20
11.8549081268
 11
16.2101557844
 21
11.8688943511
  0
LINE
  5
2AE
100
AcDbEntity
  8
LAYER_FEATURE
100
AcDbLine
 62
7
  6
CONTINUOUS
 10
15.7502913113
 20
11.5821524886
 11
15.8127415471
 21
11.784241526
  0
LINE
  5
2AF
100
AcDbEntity
  8
LAYER_FEATURE
100
AcDbLine
 62
7
  6
CONTINUOUS
 10
16.2677220965
 20
11.8688943511
 11
16.2745855385
 21
11.8549081268
  0
LINE
  5
2B0
100
AcDbEntity
  8
LAYER_FEATURE
100
AcDbLine
 62
7
  6
CONTINUOUS
 10
16.2675470944
 20
11.5824123853
 11
16.2170192264
 21
11.8549081268
  0
LINE
  5
2B1
100
AcDbEntity
  8
LAYER_FEATURE
100
AcDbLine
 62
7
  6
CONTINUOUS
 10
16.7926823476
 20
11.8549081268
 11
17.0095974547
 21
11.5824123853
  0
LINE
  5
2B2
100
AcDbEntity
  8
LAYER_FEATURE
100
AcDbLine
 62
7
  6
CONTINUOUS
 10
16.2673755438
 20
11.5788747187
 11
16.2675470944
 21
11.5824123853
  0
LINE
  5
2B3
100
AcDbEntity
  8
LAYER_FEATURE
100
AcDbLine
 62
7
  6
CONTINUOUS
 10
16.2213412966
 20
11.8688943511
 11
16.2170192264
 21
11.8549081268
  0
LINE
  5
2B4
100
AcDbEntity
  8
0
100
AcDbLine
 62
7
  6
CONTINUOUS
 10
13.1252215949
 20
13.4495343946
 11
18.2348074591
 21
13.4495343946
  0
LINE
  5
2B5
100
AcDbEntity
  8
LAYER_FEATURE
100
AcDbLine
 62
7
  6
CONTINUOUS
 10
16.7351160355
 20
11.8549081268
 11
16.7282525935
 21
11.8688943511
  0
LINE
  5
2B6
100
AcDbEntity
  8
LAYER_FEATURE
100
AcDbLine
 62
7
  6
CONTINUOUS
 10
16.7858189056
 20
11.8688943511
 11
16.7926823476
 21
11.8549081268
  0
LINE
  5
2B7
100
AcDbEntity
  8
LAYER_FEATURE
100
AcDbLine
 62
7
  6
CONTINUOUS
 10
16.2683881204
 20
11.5821524886
 11
16.3308383563
 21
11.784241526
  0
LINE
  5
2B8
100
AcDbEntity
  8
LAYER_FEATURE
100
AcDbLine
 62
7
  6
CONTINUOUS
 10
17.3107791568
 20
11.8549081268
 11
17.5276942638
 21
11.5824123853
  0
LINE
  5
2B9
100
AcDbEntity
  8
LAYER_FEATURE
100
AcDbLine
 62
7
  6
CONTINUOUS
 10
16.7856439035
 20
11.5824123853
 11
16.7351160355
 21
11.8549081268
  0
LINE
  5
2BA
100
AcDbEntity
  8
LAYER_FEATURE
100
AcDbLine
 62
7
  6
CONTINUOUS
 10
16.7854723529
 20
11.5788747187
 11
16.7856439035
 21
11.5824123853
  0
LINE
  5
2BB
100
AcDbEntity
  8
LAYER_FEATURE
100
AcDbLine
 62
7
  6
CONTINUOUS
 10
16.7394381057
 20
11.8688943511
 11
16.7351160355
 21
11.8549081268
  0
LINE
  5
2BC
100
AcDbEntity
  8
LAYER_FEATURE
100
AcDbLine
 62
7
  6
CONTINUOUS
 10
17.2532128446
 20
11.8549081268
 11
17.2463494027
 21
11.8688943511
  0
LINE
  5
2BD
100
AcDbEntity
  8
LAYER_FEATURE
100
AcDbLine
 62
7
  6
CONTINUOUS
 10
17.3039157148
 20
11.8688943511
 11
17.3107791568
 21
11.8549081268
  0
LINE
  5
2BE
100
AcDbEntity
  8
LAYER_FEATURE
100
AcDbLine
 62
7
  6
CONTINUOUS
 10
16.7864849295
 20
11.5821524886
 11
16.8489351654
 21
11.784241526
  0
LINE
  5
2BF
100
AcDbEntity
  8
0
100
AcDbLine
 62
7
  6
CONTINUOUS
 10
17.7713096538
 20
11.8549081268
 11
17.7598705838
 21
11.8782185006
  0
LINE
  5
2C0
100
AcDbEntity
  8
LAYER_FEATURE
100
AcDbLine
 62
7
  6
CONTINUOUS
 10
17.3037407126
 20
11.5824123853
 11
17.2532128446
 21
11.8549081268
  0
LINE
  5
2C1
100
AcDbEntity
  8
LAYER_FEATURE
100
AcDbLine
 62
7
  6
CONTINUOUS
 10
17.303569162
 20
11.5788747187
 11
17.3037407126
 21
11.5824123853
  0
LINE
  5
2C2
100
AcDbEntity
  8
LAYER_FEATURE
100
AcDbLine
 62
7
  6
CONTINUOUS
 10
17.2575349148
 20
11.8688943511
 11
17.2532128446
 21
11.8549081268
  0
LINE
  5
2C3
100
AcDbEntity
  8
LAYER_FEATURE
100
AcDbLine
 62
7
  6
CONTINUOUS
 10
17.3045817386
 20
11.5821524886
 11
17.3670319745
 21
11.784241526
  0
LINE
  5
2C4
100
AcDbEntity
  8
LAYER_FEATURE
100
AcDbLine
 62
7
  6
CONTINUOUS
 10
17.8218375218
 20
11.5824123853
 11
17.7713096538
 21
11.8549081268
  0
LINE
  5
2C5
100
AcDbEntity
  8
LAYER_FEATURE
100
AcDbLine
 62
7
  6
CONTINUOUS
 10
17.8216659711
 20
11.5788747187
 11
17.8218375218
 21
11.5824123853
  0
LINE
  5
2C6
100
AcDbEntity
  8
LAYER_FEATURE
100
AcDbLine
 62
7
  6
CONTINUOUS
 10
18.2554423006
 20
13.421561946
 11
17.7713096538
 21
11.8549081268
  0
LINE
  5
2C7
100
AcDbEntity
  8
LAYER_FEATURE
100
AcDbLine
 62
7
  6
CONTINUOUS
 10
17.8226785478
 20
11.5821524886
 11
18.3057983159
 21
13.1455286312
  0
LINE
  5
2C8
100
AcDbEntity
  8
LAYER_FEATURE
100
AcDbLine
 62
7
  6
CONTINUOUS
 10
18.3059701686
 20
13.1490662046
 11
18.3057986179
 21
13.145528538
  0
LINE
  5
2C9
100
AcDbEntity
  8
0
100
AcDbLine
 62
7
  6
CONTINUOUS
 10
18.2440032306
 20
13.4448723198
 11
18.2554423006
 21
13.421561946
  0
LINE
  5
2CA
100
AcDbEntity
  8
LAYER_FEATURE
100
AcDbLine
 62
7
  6
CONTINUOUS
 10
18.3059701686
 20
13.1490662046
 11
18.2554423006
 21
13.421561946
  0
ARC
  5
2CB
100
AcDbEntity
  8
0
100
AcDbCircle
 62
7
  6
CONTINUOUS
 10
3.4598456609
 20
5.2909532301
 40
0.0208333333
100
AcDbArc
 50
191.6425163769
 51
270.0
  0
ARC
  5
2CC
100
AcDbEntity
  8
0
100
AcDbCircle
 62
7
  6
CONTINUOUS
 10
3.7383888915
 20
5.2909532301
 40
0.0208333333
100
AcDbArc
 50
270.0
 51
348.3574836231
  0
ARC
  5
2CD
100
AcDbEntity
  8
LAYER_FEATURE
100
AcDbCircle
 62
7
  6
CONTINUOUS
 10
4.0223456609
 20
5.2909532301
 40
0.0208333333
100
AcDbArc
 50
191.6425163769
 51
270.0
  0
ARC
  5
2CE
100
AcDbEntity
  8
LAYER_FEATURE
100
AcDbCircle
 62
7
  6
CONTINUOUS
 10
4.3008888915
 20
5.2909532301
 40
0.0208333333
100
AcDbArc
 50
270.0
 51
348.3574836231
  0
ARC
  5
2CF
100
AcDbEntity
  8
LAYER_FEATURE
100
AcDbCircle
 62
7
  6
CONTINUOUS
 10
4.5848456609
 20
5.2909532301
 40
0.0208333333
100
AcDbArc
 50
191.6425163769
 51
270.0
  0
ARC
  5
2D0
100
AcDbEntity
  8
LAYER_FEATURE
100
AcDbCircle
 62
7
  6
CONTINUOUS
 10
4.8633888915
 20
5.2909532301
 40
0.0208333333
100
AcDbArc
 50
270.0
 51
348.3574836231
  0
ARC
  5
2D1
100
AcDbEntity
  8
LAYER_FEATURE
100
AcDbCircle
 62
7
  6
CONTINUOUS
 10
5.1473456609
 20
5.2909532301
 40
0.0208333333
100
AcDbArc
 50
191.6425163769
 51
270.0
  0
ARC
  5
2D2
100
AcDbEntity
  8
LAYER_FEATURE
100
AcDbCircle
 62
7
  6
CONTINUOUS
 10
5.4258888915
 20
5.2909532301
 40
0.0208333333
100
AcDbArc
 50
270.0
 51
348.3574836231
  0
ARC
  5
2D3
100
AcDbEntity
  8
LAYER_FEATURE
100
AcDbCircle
 62
7
  6
CONTINUOUS
 10
5.7098456609
 20
5.2909532301
 40
0.0208333333
100
AcDbArc
 50
191.6425163769
 51
270.0
  0
ARC
  5
2D4
100
AcDbEntity
  8
LAYER_FEATURE
100
AcDbCircle
 62
7
  6
CONTINUOUS
 10
5.9883888915
 20
5.2909532301
 40
0.0208333333
100
AcDbArc
 50
270.0
 51
348.3574836231
  0
ARC
  5
2D5
100
AcDbEntity
  8
LAYER_FEATURE
100
AcDbCircle
 62
7
  6
CONTINUOUS
 10
6.2723456609
 20
5.2909532301
 40
0.0208333333
100
AcDbArc
 50
191.6425163769
 51
270.0
  0
ARC
  5
2D6
100
AcDbEntity
  8
LAYER_FEATURE
100
AcDbCircle
 62
7
  6
CONTINUOUS
 10
6.5508888915
 20
5.2909532301
 40
0.0208333333
100
AcDbArc
 50
270.0
 51
348.3574836231
  0
ARC
  5
2D7
100
AcDbEntity
  8
LAYER_FEATURE
100
AcDbCircle
 62
7
  6
CONTINUOUS
 10
6.8348456609
 20
5.2909532301
 40
0.0208333333
100
AcDbArc
 50
191.6425163769
 51
270.0
  0
ARC
  5
2D8
100
AcDbEntity
  8
LAYER_FEATURE
100
AcDbCircle
 62
7
  6
CONTINUOUS
 10
7.1133888915
 20
5.2909532301
 40
0.0208333333
100
AcDbArc
 50
270.0
 51
348.3574836231
  0
ARC
  5
2D9
100
AcDbEntity
  8
LAYER_FEATURE
100
AcDbCircle
 62
7
  6
CONTINUOUS
 10
7.3973456609
 20
5.2909532301
 40
0.0208333333
100
AcDbArc
 50
191.6425163769
 51
270.0
  0
ARC
  5
2DA
100
AcDbEntity
  8
LAYER_FEATURE
100
AcDbCircle
 62
7
  6
CONTINUOUS
 10
7.6758888915
 20
5.2909532301
 40
0.0208333333
100
AcDbArc
 50
270.0
 51
348.3574836231
  0
ARC
  5
2DB
100
AcDbEntity
  8
LAYER_FEATURE
100
AcDbCircle
 62
7
  6
CONTINUOUS
 10
8.8008888915
 20
5.2909532301
 40
0.0208333333
100
AcDbArc
 50
270.0
 51
348.3574836231
  0
ARC
  5
2DC
100
AcDbEntity
  8
LAYER_FEATURE
100
AcDbCircle
 62
7
  6
CONTINUOUS
 10
8.5223456609
 20
5.2909532301
 40
0.0208333333
100
AcDbArc
 50
191.6425163769
 51
270.0
  0
ARC
  5
2DD
100
AcDbEntity
  8
LAYER_FEATURE
100
AcDbCircle
 62
7
  6
CONTINUOUS
 10
8.2383888915
 20
5.2909532301
 40
0.0208333333
100
AcDbArc
 50
270.0
 51
348.3574836231
  0
ARC
  5
2DE
100
AcDbEntity
  8
LAYER_FEATURE
100
AcDbCircle
 62
7
  6
CONTINUOUS
 10
7.9598456609
 20
5.2909532301
 40
0.0208333333
100
AcDbArc
 50
191.6425163769
 51
270.0
  0
ARC
  5
2DF
100
AcDbEntity
  8
0
100
AcDbCircle
 62
7
  6
CONTINUOUS
 10
3.3566172762
 20
5.7626198968
 40
0.0075
100
AcDbArc
 50
90.0
 51
180.0
  0
ARC
  5
2E0
100
AcDbEntity
  8
0
100
AcDbCircle
 62
7
  6
CONTINUOUS
 10
8.9041172762
 20
5.7626198968
 40
0.0075
100
AcDbArc
 50
0.0
 51
90.0
  0
SPLINE
  5
2E1
100
AcDbEntity
  8
0
100
AcDbSpline
 62
7
  6
CONTINUOUS
 70
0
 71
3
 72
11
 73
7
 74
0
 42
0.0000001
 43
0.0000001
 44
0.0000000001
 40
0.0
 40
0.0
 40
0.0
 40
0.0
 40
0.2644444522
 40
0.5366447956
 40
0.7886683147
 40
1.0
 40
1.0
 40
1.0
 40
1.0
 10
18.2348074591
 20
13.4495343946
 30
0.0
 10
18.2357531179
 20
13.4495343946
 30
0.0
 10
18.2376752571
 20
13.4492720126
 30
0.0
 10
18.2403462087
 20
13.4482988531
 30
0.0
 10
18.2425654698
 20
13.4468478401
 30
0.0
 10
18.2436703008
 20
13.4455507594
 30
0.0
 10
18.2440032306
 20
13.4448723198
 30
0.0
  0
SPLINE
  5
2E2
100
AcDbEntity
  8
0
100
AcDbSpline
 62
7
  6
CONTINUOUS
 70
0
 71
3
 72
11
 73
7
 74
0
 42
0.0000001
 43
0.0000001
 44
0.0000000001
 40
0.0
 40
0.0
 40
0.0
 40
0.0
 40
0.2022595964
 40
0.4301234434
 40
0.6973865799
 40
1.0
 40
1.0
 40
1.0
 40
1.0
 10
13.120344318
 20
13.4470865023
 30
0.0
 10
13.1204579262
 20
13.4474605011
 30
0.0
 10
13.1209095929
 20
13.4481993923
 30
0.0
 10
13.1220443757
 20
13.4489762185
 30
0.0
 10
13.1235319444
 20
13.4494370077
 30
0.0
 10
13.1246367847
 20
13.4495343946
 30
0.0
 10
13.1252215949
 20
13.4495343946
 30
0.0
  0
SPLINE
  5
2E3
100
AcDbEntity
  8
LAYER_FEATURE
100
AcDbSpline
 62
7
  6
CONTINUOUS
 70
0
 71
3
 72
12
 73
8
 74
0
 42
0.0000001
 43
0.0000001
 44
0.0000000001
 40
0.0
 40
0.0
 40
0.0
 40
0.0
 40
0.3032509836
 40
0.5692148975
 40
0.7966453301
 40
0.9000559271
 40
1.0
 40
1.0
 40
1.0
 40
1.0
 10
17.808116107
 20
11.5720755912
 30
0.0
 10
17.8097461528
 20
11.5720755912
 30
0.0
 10
17.8128180029
 20
11.572336891
 30
0.0
 10
17.8169436004
 20
11.5736260613
 30
0.0
 10
17.819647769
 20
11.5754932718
 30
0.0
 10
17.8210574713
 20
11.5773520316
 30
0.0
 10
17.8215071201
 20
11.578361518
 30
0.0
 10
17.8216651373
 20
11.578874976
 30
0.0
  0
SPLINE
  5
2E4
100
AcDbEntity
  8
LAYER_FEATURE
100
AcDbSpline
 62
7
  6
CONTINUOUS
 70
0
 71
3
 72
12
 73
8
 74
0
 42
0.0000001
 43
0.0000001
 44
0.0000000001
 40
0.0
 40
0.0
 40
0.0
 40
0.0
 40
0.108123458
 40
0.2253894039
 40
0.479151895
 40
0.7441611975
 40
1.0
 40
1.0
 40
1.0
 40
1.0
 10
17.5276942638
 20
11.5824123853
 30
0.0
 10
17.5282945818
 20
11.5816582466
 30
0.0
 10
17.5296800531
 20
11.5801907607
 30
0.0
 10
17.5330054842
 20
11.57749535
 30
0.0
 10
17.5380173902
 20
11.57473942
 30
0.0
 10
17.544627708
 20
11.5726237745
 30
0.0
 10
17.5492800435
 20
11.5720755912
 30
0.0
 10
17.5515608022
 20
11.5720755912
 30
0.0
  0
SPLINE
  5
2E5
100
AcDbEntity
  8
LAYER_FEATURE
100
AcDbSpline
 62
7
  6
CONTINUOUS
 70
0
 71
3
 72
12
 73
8
 74
0
 42
0.0000001
 43
0.0000001
 44
0.0000000001
 40
0.0
 40
0.0
 40
0.0
 40
0.0
 40
0.3032509836
 40
0.5692148975
 40
0.7966453301
 40
0.9000559271
 40
1.0
 40
1.0
 40
1.0
 40
1.0
 10
17.2900192979
 20
11.5720755912
 30
0.0
 10
17.2916493437
 20
11.5720755912
 30
0.0
 10
17.2947211938
 20
11.572336891
 30
0.0
 10
17.2988467912
 20
11.5736260613
 30
0.0
 10
17.3015509599
 20
11.5754932718
 30
0.0
 10
17.3029606622
 20
11.5773520316
 30
0.0
 10
17.303410311
 20
11.578361518
 30
0.0
 10
17.3035683282
 20
11.578874976
 30
0.0
  0
SPLINE
  5
2E6
100
AcDbEntity
  8
LAYER_FEATURE
100
AcDbSpline
 62
7
  6
CONTINUOUS
 70
0
 71
3
 72
12
 73
8
 74
0
 42
0.0000001
 43
0.0000001
 44
0.0000000001
 40
0.0
 40
0.0
 40
0.0
 40
0.0
 40
0.108123458
 40
0.2253894039
 40
0.479151895
 40
0.7441611975
 40
1.0
 40
1.0
 40
1.0
 40
1.0
 10
17.0095974547
 20
11.5824123853
 30
0.0
 10
17.0101977727
 20
11.5816582466
 30
0.0
 10
17.011583244
 20
11.5801907607
 30
0.0
 10
17.014908675
 20
11.57749535
 30
0.0
 10
17.0199205811
 20
11.57473942
 30
0.0
 10
17.0265308989
 20
11.5726237745
 30
0.0
 10
17.0311832343
 20
11.5720755912
 30
0.0
 10
17.033463993
 20
11.5720755912
 30
0.0
  0
SPLINE
  5
2E7
100
AcDbEntity
  8
LAYER_FEATURE
100
AcDbSpline
 62
7
  6
CONTINUOUS
 70
0
 71
3
 72
12
 73
8
 74
0
 42
0.0000001
 43
0.0000001
 44
0.0000000001
 40
0.0
 40
0.0
 40
0.0
 40
0.0
 40
0.3032509836
 40
0.5692148975
 40
0.7966453301
 40
0.9000559271
 40
1.0
 40
1.0
 40
1.0
 40
1.0
 10
16.7719224888
 20
11.5720755912
 30
0.0
 10
16.7735525345
 20
11.5720755912
 30
0.0
 10
16.7766243847
 20
11.572336891
 30
0.0
 10
16.7807499821
 20
11.5736260613
 30
0.0
 10
16.7834541508
 20
11.5754932718
 30
0.0
 10
16.7848638531
 20
11.5773520316
 30
0.0
 10
16.7853135018
 20
11.578361518
 30
0.0
 10
16.785471519
 20
11.578874976
 30
0.0
  0
SPLINE
  5
2E8
100
AcDbEntity
  8
LAYER_FEATURE
100
AcDbSpline
 62
7
  6
CONTINUOUS
 70
0
 71
3
 72
12
 73
8
 74
0
 42
0.0000001
 43
0.0000001
 44
0.0000000001
 40
0.0
 40
0.0
 40
0.0
 40
0.0
 40
0.108123458
 40
0.2253894039
 40
0.479151895
 40
0.7441611975
 40
1.0
 40
1.0
 40
1.0
 40
1.0
 10
16.4915006456
 20
11.5824123853
 30
0.0
 10
16.4921009636
 20
11.5816582466
 30
0.0
 10
16.4934864348
 20
11.5801907607
 30
0.0
 10
16.4968118659
 20
11.57749535
 30
0.0
 10
16.501823772
 20
11.57473942
 30
0.0
 10
16.5084340898
 20
11.5726237745
 30
0.0
 10
16.5130864252
 20
11.5720755912
 30
0.0
 10
16.5153671839
 20
11.5720755912
 30
0.0
  0
SPLINE
  5
2E9
100
AcDbEntity
  8
LAYER_FEATURE
100
AcDbSpline
 62
7
  6
CONTINUOUS
 70
0
 71
3
 72
12
 73
8
 74
0
 42
0.0000001
 43
0.0000001
 44
0.0000000001
 40
0.0
 40
0.0
 40
0.0
 40
0.0
 40
0.3032509836
 40
0.5692148975
 40
0.7966453301
 40
0.9000559271
 40
1.0
 40
1.0
 40
1.0
 40
1.0
 10
16.2538256796
 20
11.5720755912
 30
0.0
 10
16.2554557254
 20
11.5720755912
 30
0.0
 10
16.2585275756
 20
11.572336891
 30
0.0
 10
16.262653173
 20
11.5736260613
 30
0.0
 10
16.2653573416
 20
11.5754932718
 30
0.0
 10
16.2667670439
 20
11.5773520316
 30
0.0
 10
16.2672166927
 20
11.578361518
 30
0.0
 10
16.2673747099
 20
11.578874976
 30
0.0
  0
SPLINE
  5
2EA
100
AcDbEntity
  8
LAYER_FEATURE
100
AcDbSpline
 62
7
  6
CONTINUOUS
 70
0
 71
3
 72
12
 73
8
 74
0
 42
0.0000001
 43
0.0000001
 44
0.0000000001
 40
0.0
 40
0.0
 40
0.0
 40
0.0
 40
0.108123458
 40
0.2253894039
 40
0.479151895
 40
0.7441611975
 40
1.0
 40
1.0
 40
1.0
 40
1.0
 10
15.9734038365
 20
11.5824123853
 30
0.0
 10
15.9740041544
 20
11.5816582466
 30
0.0
 10
15.9753896257
 20
11.5801907607
 30
0.0
 10
15.9787150568
 20
11.57749535
 30
0.0
 10
15.9837269628
 20
11.57473942
 30
0.0
 10
15.9903372807
 20
11.5726237745
 30
0.0
 10
15.9949896161
 20
11.5720755912
 30
0.0
 10
15.9972703748
 20
11.5720755912
 30
0.0
  0
SPLINE
  5
2EB
100
AcDbEntity
  8
LAYER_FEATURE
100
AcDbSpline
 62
7
  6
CONTINUOUS
 70
0
 71
3
 72
12
 73
8
 74
0
 42
0.0000001
 43
0.0000001
 44
0.0000000001
 40
0.0
 40
0.0
 40
0.0
 40
0.0
 40
0.3032509836
 40
0.5692148975
 40
0.7966453301
 40
0.9000559271
 40
1.0
 40
1.0
 40
1.0
 40
1.0
 10
15.7357288705
 20
11.5720755912
 30
0.0
 10
15.7373589163
 20
11.5720755912
 30
0.0
 10
15.7404307664
 20
11.572336891
 30
0.0
 10
15.7445563639
 20
11.5736260613
 30
0.0
 10
15.7472605325
 20
11.5754932718
 30
0.0
 10
15.7486702348
 20
11.5773520316
 30
0.0
 10
15.7491198836
 20
11.578361518
 30
0.0
 10
15.7492779008
 20
11.578874976
 30
0.0
  0
SPLINE
  5
2EC
100
AcDbEntity
  8
LAYER_FEATURE
100
AcDbSpline
 62
7
  6
CONTINUOUS
 70
0
 71
3
 72
12
 73
8
 74
0
 42
0.0000001
 43
0.0000001
 44
0.0000000001
 40
0.0
 40
0.0
 40
0.0
 40
0.0
 40
0.108123458
 40
0.2253894039
 40
0.479151895
 40
0.7441611975
 40
1.0
 40
1.0
 40
1.0
 40
1.0
 10
15.4553070273
 20
11.5824123853
 30
0.0
 10
15.4559073453
 20
11.5816582466
 30
0.0
 10
15.4572928166
 20
11.5801907607
 30
0.0
 10
15.4606182477
 20
11.57749535
 30
0.0
 10
15.4656301537
 20
11.57473942
 30
0.0
 10
15.4722404715
 20
11.5726237745
 30
0.0
 10
15.476892807
 20
11.5720755912
 30
0.0
 10
15.4791735657
 20
11.5720755912
 30
0.0
  0
SPLINE
  5
2ED
100
AcDbEntity
  8
LAYER_FEATURE
100
AcDbSpline
 62
7
  6
CONTINUOUS
 70
0
 71
3
 72
12
 73
8
 74
0
 42
0.0000001
 43
0.0000001
 44
0.0000000001
 40
0.0
 40
0.0
 40
0.0
 40
0.0
 40
0.3032510844
 40
0.5692149859
 40
0.7966453662
 40
0.9000561198
 40
1.0
 40
1.0
 40
1.0
 40
1.0
 10
15.2176320614
 20
11.5720755912
 30
0.0
 10
15.2192621076
 20
11.5720755912
 30
0.0
 10
15.222333957
 20
11.5723368952
 30
0.0
 10
15.2264595575
 20
11.573626057
 30
0.0
 10
15.2291637229
 20
11.5754932748
 30
0.0
 10
15.2305734216
 20
11.5773520353
 30
0.0
 10
15.2310230764
 20
11.5783615185
 30
0.0
 10
15.2311810948
 20
11.578874975
 30
0.0
  0
SPLINE
  5
2EE
100
AcDbEntity
  8
LAYER_FEATURE
100
AcDbSpline
 62
7
  6
CONTINUOUS
 70
0
 71
3
 72
12
 73
8
 74
0
 42
0.0000001
 43
0.0000001
 44
0.0000000001
 40
0.0
 40
0.0
 40
0.0
 40
0.0
 40
0.108123458
 40
0.2253894039
 40
0.479151895
 40
0.7441611975
 40
1.0
 40
1.0
 40
1.0
 40
1.0
 10
14.9372102182
 20
11.5824123853
 30
0.0
 10
14.9378105362
 20
11.5816582466
 30
0.0
 10
14.9391960075
 20
11.5801907607
 30
0.0
 10
14.9425214385
 20
11.57749535
 30
0.0
 10
14.9475333446
 20
11.57473942
 30
0.0
 10
14.9541436624
 20
11.5726237745
 30
0.0
 10
14.9587959978
 20
11.5720755912
 30
0.0
 10
14.9610767565
 20
11.5720755912
 30
0.0
  0
SPLINE
  5
2EF
100
AcDbEntity
  8
LAYER_FEATURE
100
AcDbSpline
 62
7
  6
CONTINUOUS
 70
0
 71
3
 72
12
 73
8
 74
0
 42
0.0000001
 43
0.0000001
 44
0.0000000001
 40
0.0
 40
0.0
 40
0.0
 40
0.0
 40
0.3032509836
 40
0.5692148975
 40
0.7966453301
 40
0.9000559271
 40
1.0
 40
1.0
 40
1.0
 40
1.0
 10
14.6995352523
 20
11.5720755912
 30
0.0
 10
14.701165298
 20
11.5720755912
 30
0.0
 10
14.7042371482
 20
11.572336891
 30
0.0
 10
14.7083627456
 20
11.5736260613
 30
0.0
 10
14.7110669143
 20
11.5754932718
 30
0.0
 10
14.7124766166
 20
11.5773520316
 30
0.0
 10
14.7129262653
 20
11.578361518
 30
0.0
 10
14.7130842825
 20
11.578874976
 30
0.0
  0
SPLINE
  5
2F0
100
AcDbEntity
  8
LAYER_FEATURE
100
AcDbSpline
 62
7
  6
CONTINUOUS
 70
0
 71
3
 72
12
 73
8
 74
0
 42
0.0000001
 43
0.0000001
 44
0.0000000001
 40
0.0
 40
0.0
 40
0.0
 40
0.0
 40
0.108123458
 40
0.2253894039
 40
0.479151895
 40
0.7441611975
 40
1.0
 40
1.0
 40
1.0
 40
1.0
 10
14.4191134091
 20
11.5824123853
 30
0.0
 10
14.4197137271
 20
11.5816582466
 30
0.0
 10
14.4210991983
 20
11.5801907607
 30
0.0
 10
14.4244246294
 20
11.57749535
 30
0.0
 10
14.4294365355
 20
11.57473942
 30
0.0
 10
14.4360468533
 20
11.5726237745
 30
0.0
 10
14.4406991887
 20
11.5720755912
 30
0.0
 10
14.4429799474
 20
11.5720755912
 30
0.0
  0
SPLINE
  5
2F1
100
AcDbEntity
  8
LAYER_FEATURE
100
AcDbSpline
 62
7
  6
CONTINUOUS
 70
0
 71
3
 72
12
 73
8
 74
0
 42
0.0000001
 43
0.0000001
 44
0.0000000001
 40
0.0
 40
0.0
 40
0.0
 40
0.0
 40
0.3032509836
 40
0.5692148975
 40
0.7966453301
 40
0.9000559271
 40
1.0
 40
1.0
 40
1.0
 40
1.0
 10
14.1814384431
 20
11.5720755912
 30
0.0
 10
14.1830684889
 20
11.5720755912
 30
0.0
 10
14.186140339
 20
11.572336891
 30
0.0
 10
14.1902659365
 20
11.5736260613
 30
0.0
 10
14.1929701051
 20
11.5754932718
 30
0.0
 10
14.1943798074
 20
11.5773520316
 30
0.0
 10
14.1948294562
 20
11.578361518
 30
0.0
 10
14.1949874734
 20
11.578874976
 30
0.0
  0
SPLINE
  5
2F2
100
AcDbEntity
  8
LAYER_FEATURE
100
AcDbSpline
 62
7
  6
CONTINUOUS
 70
0
 71
3
 72
12
 73
8
 74
0
 42
0.0000001
 43
0.0000001
 44
0.0000000001
 40
0.0
 40
0.0
 40
0.0
 40
0.0
 40
0.108123458
 40
0.2253894039
 40
0.479151895
 40
0.7441611975
 40
1.0
 40
1.0
 40
1.0
 40
1.0
 10
13.9010166
 20
11.5824123853
 30
0.0
 10
13.9016169179
 20
11.5816582466
 30
0.0
 10
13.9030023892
 20
11.5801907607
 30
0.0
 10
13.9063278203
 20
11.57749535
 30
0.0
 10
13.9113397263
 20
11.57473942
 30
0.0
 10
13.9179500442
 20
11.5726237745
 30
0.0
 10
13.9226023796
 20
11.5720755912
 30
0.0
 10
13.9248831383
 20
11.5720755912
 30
0.0
  0
SPLINE
  5
2F3
100
AcDbEntity
  8
LAYER_FEATURE
100
AcDbSpline
 62
7
  6
CONTINUOUS
 70
0
 71
3
 72
12
 73
8
 74
0
 42
0.0000001
 43
0.0000001
 44
0.0000000001
 40
0.0
 40
0.0
 40
0.0
 40
0.0
 40
0.3032509836
 40
0.5692148975
 40
0.7966453301
 40
0.9000559271
 40
1.0
 40
1.0
 40
1.0
 40
1.0
 10
13.663341634
 20
11.5720755912
 30
0.0
 10
13.6649716798
 20
11.5720755912
 30
0.0
 10
13.6680435299
 20
11.572336891
 30
0.0
 10
13.6721691274
 20
11.5736260613
 30
0.0
 10
13.674873296
 20
11.5754932718
 30
0.0
 10
13.6762829983
 20
11.5773520316
 30
0.0
 10
13.6767326471
 20
11.578361518
 30
0.0
 10
13.6768906643
 20
11.578874976
 30
0.0
  0
SPLINE
  5
2F4
100
AcDbEntity
  8
LAYER_FEATURE
100
AcDbSpline
 62
7
  6
CONTINUOUS
 70
0
 71
3
 72
12
 73
8
 74
0
 42
0.0000001
 43
0.0000001
 44
0.0000000001
 40
0.0
 40
0.0
 40
0.0
 40
0.0
 40
0.108123458
 40
0.2253894039
 40
0.479151895
 40
0.7441611975
 40
1.0
 40
1.0
 40
1.0
 40
1.0
 10
13.3829197908
 20
11.5824123853
 30
0.0
 10
13.3835201088
 20
11.5816582466
 30
0.0
 10
13.3849055801
 20
11.5801907607
 30
0.0
 10
13.3882310112
 20
11.57749535
 30
0.0
 10
13.3932429172
 20
11.57473942
 30
0.0
 10
13.399853235
 20
11.5726237745
 30
0.0
 10
13.4045055705
 20
11.5720755912
 30
0.0
 10
13.4067863291
 20
11.5720755912
 30
0.0
  0
SPLINE
  5
2F5
100
AcDbEntity
  8
0
100
AcDbSpline
 62
7
  6
CONTINUOUS
 70
0
 71
3
 72
12
 73
8
 74
0
 42
0.0000001
 43
0.0000001
 44
0.0000000001
 40
0.0
 40
0.0
 40
0.0
 40
0.0
 40
0.3032509836
 40
0.5692148975
 40
0.7966453301
 40
0.9000559271
 40
1.0
 40
1.0
 40
1.0
 40
1.0
 10
13.1452448249
 20
11.5720755912
 30
0.0
 10
13.1468748706
 20
11.5720755912
 30
0.0
 10
13.1499467208
 20
11.572336891
 30
0.0
 10
13.1540723182
 20
11.5736260613
 30
0.0
 10
13.1567764869
 20
11.5754932718
 30
0.0
 10
13.1581861892
 20
11.5773520316
 30
0.0
 10
13.1586358379
 20
11.578361518
 30
0.0
 10
13.1587938551
 20
11.578874976
 30
0.0
  0
SPLINE
  5
2F6
100
AcDbEntity
  8
0
100
AcDbSpline
 62
7
  6
CONTINUOUS
 70
0
 71
3
 72
12
 73
8
 74
0
 42
0.0000001
 43
0.0000001
 44
0.0000000001
 40
0.0
 40
0.0
 40
0.0
 40
0.0
 40
0.108123458
 40
0.2253894039
 40
0.479151895
 40
0.7441611975
 40
1.0
 40
1.0
 40
1.0
 40
1.0
 10
12.8648229817
 20
11.5824123853
 30
0.0
 10
12.8654232997
 20
11.5816582466
 30
0.0
 10
12.866808771
 20
11.5801907607
 30
0.0
 10
12.870134202
 20
11.57749535
 30
0.0
 10
12.8751461081
 20
11.57473942
 30
0.0
 10
12.8817564259
 20
11.5726237745
 30
0.0
 10
12.8864087613
 20
11.5720755912
 30
0.0
 10
12.88868952
 20
11.5720755912
 30
0.0
  0
SPLINE
  5
2F7
100
AcDbEntity
  8
0
100
AcDbSpline
 62
7
  6
CONTINUOUS
 70
0
 71
3
 72
11
 73
7
 74
0
 42
0.0000001
 43
0.0000001
 44
0.0000000001
 40
0.0
 40
0.0
 40
0.0
 40
0.0
 40
0.3026134201
 40
0.5698765566
 40
0.7977404036
 40
1.0
 40
1.0
 40
1.0
 40
1.0
 10
12.6410889481
 20
11.8828805753
 30
0.0
 10
12.6405041378
 20
11.8828805753
 30
0.0
 10
12.6393992976
 20
11.8827831885
 30
0.0
 10
12.6379117289
 20
11.8823223993
 30
0.0
 10
12.6367769461
 20
11.881545573
 30
0.0
 10
12.6363252794
 20
11.8808066818
 30
0.0
 10
12.6362116712
 20
11.8804326831
 30
0.0
  0
SPLINE
  5
2F8
100
AcDbEntity
  8
0
100
AcDbSpline
 62
7
  6
CONTINUOUS
 70
0
 71
3
 72
11
 73
7
 74
0
 42
0.0000001
 43
0.0000001
 44
0.0000000001
 40
0.0
 40
0.0
 40
0.0
 40
0.0
 40
0.2113316853
 40
0.4633552044
 40
0.7355555478
 40
1.0
 40
1.0
 40
1.0
 40
1.0
 10
17.7598705838
 20
11.8782185006
 30
0.0
 10
17.759537654
 20
11.8788969401
 30
0.0
 10
17.758432823
 20
11.8801940209
 30
0.0
 10
17.7562135619
 20
11.8816450338
 30
0.0
 10
17.7535426102
 20
11.8826181933
 30
0.0
 10
17.7516204711
 20
11.8828805753
 30
0.0
 10
17.7506748123
 20
11.8828805753
 30
0.0
  0
ENDSEC
  0
SECTION
  2
OBJECTS
  0
DICTIONARY
  5
C
100
AcDbDictionary
280
0
281
1
  3
ACAD_GROUP
350
D
  3
ACAD_MLINESTYLE
350
17
  3
ACAD_LAYOUT
350
1A
  3
ACAD_PLOTSETTINGS
350
19
  3
ACAD_PLOTSTYLENAME
350
E
  0
DICTIONARY
  5
D
102
{ACAD_REACTORS
330
C
102
}
100
AcDbDictionary
280
0
281
1
  0
ACDBDICTIONARYWDFLT
  5
E
102
{ACAD_REACTORS
330
C
102
}
100
AcDbDictionary
281
1
  3
Normal
350
F
100
AcDbDictionaryWithDefault
340
F
  0
DICTIONARY
  5
17
102
{ACAD_REACTORS
330
C
102
}
100
AcDbDictionary
280
0
281
1
  3
Standard
350
18
  0
DICTIONARY
  5
19
102
{ACAD_REACTORS
330
C
102
}
100
AcDbDictionary
281
1
  0
DICTIONARY
  5
1A
102
{ACAD_REACTORS
330
C
102
}
100
AcDbDictionary
281
1
  3
Model
350
2F9
  3
Layout1
350
2FA
  0
ACDBPLACEHOLDER
  5
F
102
{ACAD_REACTORS
330
E
102
}
  0
MLINESTYLE
  5
18
102
{ACAD_REACTORS
330
17
102
}
100
AcDbMlineStyle
  2
STANDARD
 70
0
  3

 62
256
 51
90.0
 52
90.0
 71
2
 49
0.5
 62
256
  6
BYLAYER
 49
-0.5
 62
256
  6
BYLAYER
  0
LAYOUT
  5
2F9
102
{ACAD_REACTORS
330
1A
102
}
100
AcDbPlotSettings
  1

  2
none_device
  4
ANSI_C_(22.00_x_17.00_Inches)
  6

 40
0.0
 41
0.0
 42
0.0
 43
0.0
 44
558.8
 45
431.8
 46
0.0
 47
0.0
 48
0.0
 49
0.0
140
0.0
141
0.0
142
1.0
143
1.0
 70
1024
 72
0
 73
0
 74
0
  7

 75
0
147
1.0
148
0.0
149
0.0
100
AcDbLayout
  1
Model
 70
0
 71
0
 10
0.0
 20
0.0
 11
22.0
 21
17.0
 12
0.0
 22
0.0
 32
0.0
 14
0.0
 24
0.0
 34
0.0
 15
0.0
 25
0.0
 35
0.0
146
0.0
 13
0.0
 23
0.0
 33
0.0
 16
1.0
 26
0.0
 36
0.0
 17
0.0
 27
1.0
 37
0.0
 76
0
330
21C
345
0
346
0
  0
LAYOUT
  5
2FA
102
{ACAD_REACTORS
330
1A
102
}
100
AcDbPlotSettings
  1

  2
none_device
  4
ANSI_C_(22.00_x_17.00_Inches)
  6

 40
0.0
 41
0.0
 42
0.0
 43
0.0
 44
558.8
 45
431.8
 46
0.0
 47
0.0
 48
0.0
 49
0.0
140
0.0
141
0.0
142
1.0
143
1.0
 70
0
 72
0
 73
0
 74
0
  7

 75
0
147
1.0
148
0.0
149
0.0
100
AcDbLayout
  1
Layout1
 70
0
 71
1
 10
0.0
 20
0.0
 11
22.0
 21
17.0
 12
0.0
 22
0.0
 32
0.0
 14
0.0
 24
0.0
 34
0.0
 15
0.0
 25
0.0
 35
0.0
146
0.0
 13
0.0
 23
0.0
 33
0.0
 16
1.0
 26
0.0
 36
0.0
 17
0.0
 27
1.0
 37
0.0
 76
0
330
21D
345
0
346
0
  0
ENDSEC
  0
EOF