999
DXF file: _cgs_temp_output.dxf
999
Pro/ENGINEER 2015110 by Parametric Technology Corporation
  0
SECTION
  2
HEADER
  9
$ACADVER
  1
AC1021
  9
$DWGCODEPAGE
  3
ANSI_1252
  9
$EXTMAX
 10
22.0
 20
17.0
 30
0.0
  9
$EXTMIN
 10
0.0
 20
0.0
 30
0.0
  9
$LIMMIN
 10
0.0
 20
0.0
  9
$LIMMAX
 10
22.0
 20
17.0
  9
$VIEWCTR
 10
11.0
 20
8.5
  9
$VIEWSIZE
 40
17.0
  9
$CLAYER
  8
0
  9
$LTSCALE
 40
1.21
  9
$CELTYPE
  6
BYLAYER
  9
$DIMSCALE
 40
1.0
  9
$DIMASZ
 40
0.1875
  9
$DIMEXO
 40
0.0625
  9
$DIMDLI
 40
0.836
  9
$DIMEXE
 40
0.125
  9
$DIMCEN
 40
0.198
  9
$DIMLFAC
 40
1.0
  9
$DIMBLK
  1
_CLOSED
  9
$DIMALT
 70
0
  9
$DIMALTF
 40
25.4
  9
$DIMTXT
 40
0.15625
  9
$DIMTOL
 70
0
  9
$DIMLIM
 70
0
  9
$DIMTFAC
 40
1.0
  9
$DIMGAP
 40
0.09
  9
$DIMDSEP
 70
46
  9
$AUNITS
 70
0
  9
$PDMODE
 70
3
  9
$PDSIZE
 40
0.3125
  9
$HANDSEED
  5
30E
  9
$TILEMODE
 70
1
  9
$MEASUREMENT
 70
0
  9
$INSUNITS
 70
1
  0
ENDSEC
  0
SECTION
  2
CLASSES
  0
CLASS
  1
ACDBDICTIONARYWDFLT
  2
AcDbDictionaryWithDefault
  3
AutoCAD 2000
 90
0
 91
1
280
0
281
0
  0
CLASS
  1
ACDBPLACEHOLDER
  2
AcDbPlaceHolder
  3
AutoCAD 2000
 90
0
 91
1
280
0
281
0
  0
CLASS
  1
LAYOUT
  2
AcDbLayout
  3
AutoCAD 2000
 90
0
 91
0
280
0
281
0
  0
ENDSEC
  0
SECTION
  2
TABLES
  0
TABLE
  2
VPORT
  5
8
100
AcDbSymbolTable
 70
2
  0
VPORT
  5
1F4
100
AcDbSymbolTableRecord
100
AcDbViewportTableRecord
  2
*ACTIVE
 70
0
 10
0.0
 20
0.0
 11
1.0
 21
1.0
 12
11.0
 22
8.5
 13
0.0
 23
0.0
 14
1.0
 24
1.0
 15
0.0
 25
0.0
 16
0.0
 26
0.0
 36
1.0
 17
0.0
 27
0.0
 37
0.0
 40
17.0
 41
1.2941176471
 42
50.0
 43
0.0
 44
0.0
 50
0.0
 51
0.0
 71
0
 72
100
 73
1
 74
1
 75
0
 76
0
 77
0
 78
0
  0
ENDTAB
  0
TABLE
  2
LTYPE
  5
5
100
AcDbSymbolTable
 70
6
  0
LTYPE
  5
14
100
AcDbSymbolTableRecord
100
AcDbLinetypeTableRecord
  2
BYBLOCK
 70
0
  3

 72
65
 73
0
 40
0.0
  0
LTYPE
  5
15
100
AcDbSymbolTableRecord
100
AcDbLinetypeTableRecord
  2
BYLAYER
 70
0
  3

 72
65
 73
0
 40
0.0
  0
LTYPE
  5
16
100
AcDbSymbolTableRecord
100
AcDbLinetypeTableRecord
  2
CONTINUOUS
 70
64
  3
Solid line
 72
65
 73
0
 40
0.0
  0
LTYPE
  5
1F5
100
AcDbSymbolTableRecord
100
AcDbLinetypeTableRecord
  2
CENTER
 70
64
  3
____ _ ____ _ ____ _ ____ _ ____ _ ____ _ ____
 72
65
 73
4
 40
0.6
 49
0.375
 74
0
 49
-0.075
 74
0
 49
0.075
 74
0
 49
-0.075
 74
0
  0
LTYPE
  5
1F6
100
AcDbSymbolTableRecord
100
AcDbLinetypeTableRecord
  2
HIDDEN
 70
64
  3
- - - - - - - - - - - - - - - - - - - -
 72
65
 73
2
 40
0.2
 49
0.1
 74
0
 49
-0.1
 74
0
  0
LTYPE
  5
1F7
100
AcDbSymbolTableRecord
100
AcDbLinetypeTableRecord
  2
PHANTOM
 70
64
  3
_____ _ _ _____ _ _ _____ _ _ _____
 72
65
 73
6
 40
0.8
 49
0.45
 74
0
 49
-0.05
 74
0
 49
0.1
 74
0
 49
-0.05
 74
0
 49
0.1
 74
0
 49
-0.05
 74
0
  0
LTYPE
  5
1F8
100
AcDbSymbolTableRecord
100
AcDbLinetypeTableRecord
  2
DOT
 70
64
  3
. . . . . . . . . . . . . . . . . . . .
 72
65
 73
2
 40
0.2
 49
0.1
 74
0
 49
-0.1
 74
0
  0
LTYPE
  5
1F9
100
AcDbSymbolTableRecord
100
AcDbLinetypeTableRecord
  2
DASHED
 70
64
  3
- - - - - - - - - - - - - - - - - - - -
 72
65
 73
2
 40
0.2
 49
0.1
 74
0
 49
-0.1
 74
0
  0
ENDTAB
  0
TABLE
  2
LAYER
  5
2
100
AcDbSymbolTable
 70
36
  0
LAYER
  5
10
100
AcDbSymbolTableRecord
100
AcDbLayerTableRecord
  2
0
 70
0
 62
7
  6
CONTINUOUS
370
-3
390
F
  0
LAYER
  5
1FA
100
AcDbSymbolTableRecord
100
AcDbLayerTableRecord
  2
DEFAULT_1
 70
0
 62
7
  6
CENTER
370
-3
390
F
  0
LAYER
  5
1FB
100
AcDbSymbolTableRecord
100
AcDbLayerTableRecord
  2
DEFAULT_2
 70
0
 62
8
  6
HIDDEN
370
-3
390
F
  0
LAYER
  5
1FC
100
AcDbSymbolTableRecord
100
AcDbLayerTableRecord
  2
DEFAULT_3
 70
0
 62
7
  6
PHANTOM
370
-3
390
F
  0
LAYER
  5
1FD
100
AcDbSymbolTableRecord
100
AcDbLayerTableRecord
  2
01_ALL_DTM_PLN
 70
0
 62
7
  6
CONTINUOUS
370
-3
390
F
  0
LAYER
  5
1FE
100
AcDbSymbolTableRecord
100
AcDbLayerTableRecord
  2
01__ASM_ALL_DTM_PLN
 70
0
 62
7
  6
CONTINUOUS
370
-3
390
F
  0
LAYER
  5
1FF
100
AcDbSymbolTableRecord
100
AcDbLayerTableRecord
  2
01__ASM_DEF_DTM_PLN
 70
0
 62
7
  6
CONTINUOUS
370
-3
390
F
  0
LAYER
  5
200
100
AcDbSymbolTableRecord
100
AcDbLayerTableRecord
  2
01___PRT_ALL_DTM_PLN
 70
0
 62
7
  6
CONTINUOUS
370
-3
390
F
  0
LAYER
  5
201
100
AcDbSymbolTableRecord
100
AcDbLayerTableRecord
  2
01___PRT_DEF_DTM_PLN
 70
0
 62
7
  6
CONTINUOUS
370
-3
390
F
  0
LAYER
  5
202
100
AcDbSymbolTableRecord
100
AcDbLayerTableRecord
  2
02_ALL_AXES
 70
0
 62
7
  6
CONTINUOUS
370
-3
390
F
  0
LAYER
  5
203
100
AcDbSymbolTableRecord
100
AcDbLayerTableRecord
  2
02__ASM_ALL_AXES
 70
0
 62
7
  6
CONTINUOUS
370
-3
390
F
  0
LAYER
  5
204
100
AcDbSymbolTableRecord
100
AcDbLayerTableRecord
  2
02___PRT_ALL_AXES
 70
0
 62
7
  6
CONTINUOUS
370
-3
390
F
  0
LAYER
  5
205
100
AcDbSymbolTableRecord
100
AcDbLayerTableRecord
  2
03_ALL_CURVES
 70
0
 62
7
  6
CONTINUOUS
370
-3
390
F
  0
LAYER
  5
206
100
AcDbSymbolTableRecord
100
AcDbLayerTableRecord
  2
03__ASM_ALL_CURVES
 70
0
 62
7
  6
CONTINUOUS
370
-3
390
F
  0
LAYER
  5
207
100
AcDbSymbolTableRecord
100
AcDbLayerTableRecord
  2
03___PRT_ALL_CURVES
 70
0
 62
7
  6
CONTINUOUS
370
-3
390
F
  0
LAYER
  5
208
100
AcDbSymbolTableRecord
100
AcDbLayerTableRecord
  2
04_ALL_DTM_PNT
 70
0
 62
7
  6
CONTINUOUS
370
-3
390
F
  0
LAYER
  5
209
100
AcDbSymbolTableRecord
100
AcDbLayerTableRecord
  2
04__ASM_ALL_DTM_PNT
 70
0
 62
7
  6
CONTINUOUS
370
-3
390
F
  0
LAYER
  5
20A
100
AcDbSymbolTableRecord
100
AcDbLayerTableRecord
  2
04___PRT_ALL_DTM_PNT
 70
0
 62
7
  6
CONTINUOUS
370
-3
390
F
  0
LAYER
  5
20B
100
AcDbSymbolTableRecord
100
AcDbLayerTableRecord
  2
05_ALL_DTM_CSYS
 70
0
 62
7
  6
CONTINUOUS
370
-3
390
F
  0
LAYER
  5
20C
100
AcDbSymbolTableRecord
100
AcDbLayerTableRecord
  2
05__ASM_ALL_DTM_CSYS
 70
0
 62
7
  6
CONTINUOUS
370
-3
390
F
  0
LAYER
  5
20D
100
AcDbSymbolTableRecord
100
AcDbLayerTableRecord
  2
05__ASM_DEF_DTM_CSYS
 70
0
 62
7
  6
CONTINUOUS
370
-3
390
F
  0
LAYER
  5
20E
100
AcDbSymbolTableRecord
100
AcDbLayerTableRecord
  2
05___PRT_ALL_DTM_CSYS
 70
0
 62
7
  6
CONTINUOUS
370
-3
390
F
  0
LAYER
  5
20F
100
AcDbSymbolTableRecord
100
AcDbLayerTableRecord
  2
05___PRT_DEF_DTM_CSYS
 70
0
 62
7
  6
CONTINUOUS
370
-3
390
F
  0
LAYER
  5
210
100
AcDbSymbolTableRecord
100
AcDbLayerTableRecord
  2
06_ALL_SURFS
 70
0
 62
7
  6
CONTINUOUS
370
-3
390
F
  0
LAYER
  5
211
100
AcDbSymbolTableRecord
100
AcDbLayerTableRecord
  2
06__ASM_ALL_SURFS
 70
0
 62
7
  6
CONTINUOUS
370
-3
390
F
  0
LAYER
  5
212
100
AcDbSymbolTableRecord
100
AcDbLayerTableRecord
  2
06___PRT_ALL_SURFS
 70
0
 62
7
  6
CONTINUOUS
370
-3
390
F
  0
LAYER
  5
213
100
AcDbSymbolTableRecord
100
AcDbLayerTableRecord
  2
07__ASM_ALL_SKELETONS
 70
0
 62
7
  6
CONTINUOUS
370
-3
390
F
  0
ENDTAB
  0
TABLE
  2
STYLE
  5
3
100
AcDbSymbolTable
 70
1
  0
STYLE
  5
11
100
AcDbSymbolTableRecord
100
AcDbTextStyleTableRecord
  2
STANDARD
 70
0
 40
0.0
 41
0.8
 50
0.0
 71
0
 42
0.2
  3
txt
  4

  0
STYLE
  5
214
100
AcDbSymbolTableRecord
100
AcDbTextStyleTableRecord
  2
TEXTSTYLE_1
 70
0
 40
0.0
 41
0.8
 50
0.0
 71
0
 42
0.2
  3
gdt
  4

  0
ENDTAB
  0
TABLE
  2
VIEW
  5
6
100
AcDbSymbolTable
 70
0
  0
ENDTAB
  0
TABLE
  2
UCS
  5
7
100
AcDbSymbolTable
 70
0
  0
ENDTAB
  0
TABLE
  2
APPID
  5
9
100
AcDbSymbolTable
 70
1
  0
APPID
  5
215
100
AcDbSymbolTableRecord
100
AcDbRegAppTableRecord
  2
ACAD
 70
0
  0
ENDTAB
  0
TABLE
  2
BLOCK_RECORD
  5
1
100
AcDbSymbolTable
 70
0
  0
BLOCK_RECORD
  5
216
100
AcDbSymbolTableRecord
100
AcDbBlockTableRecord
  2
*Model_Space
  0
BLOCK_RECORD
  5
217
100
AcDbSymbolTableRecord
100
AcDbBlockTableRecord
  2
*Paper_Space
  0
ENDTAB
  0
TABLE
  2
DIMSTYLE
  5
A
100
AcDbSymbolTable
 70
1
100
AcDbDimStyleTable
 71
0
  0
DIMSTYLE
105
218
100
AcDbSymbolTableRecord
100
AcDbDimStyleTableRecord
  2
STANDARD
 70
0
  3

  4

 40
1.0
 41
0.1875
 42
0.0625
 43
0.38
 44
0.125
 45
0.0
 46
0.0
 47
0.0001
 48
0.0001
140
0.15625
141
0.09
142
0.0
143
25.4
144
1.0
145
0.0
146
1.0
147
0.09
 71
0.0
 72
0.0
 73
1
 74
1
 75
0
 76
0
 77
0
 78
4
170
0
171
2
172
0
173
0
174
0
175
0
176
0
177
0
178
0
270
2
271
4
272
4
273
2
274
2
275
0
280
0
281
0
282
0
283
1
284
4
285
0
286
0
287
3
288
0
340
11
278
46
  0
ENDTAB
  0
ENDSEC
  0
SECTION
  2
BLOCKS
  0
BLOCK
  5
20
100
AcDbEntity
  8
0
100
AcDbBlockBegin
  2
*Model_Space
 70
0
 10
0.0
 20
0.0
 30
0.0
  3
*Model_Space
  1

  0
ENDBLK
  5
21
100
AcDbEntity
  8
0
100
AcDbBlockEnd
  0
BLOCK
  5
1C
100
AcDbEntity
  8
0
100
AcDbBlockBegin
  2
*Paper_Space
 70
0
 10
0.0
 20
0.0
 30
0.0
  3
*Paper_Space
  1

  0
ENDBLK
  5
1D
100
AcDbEntity
  8
0
100
AcDbBlockEnd
  0
ENDSEC
  0
SECTION
  2
ENTITIES
  0
MTEXT
  5
219
100
AcDbEntity
  8
0
100
AcDbMText
 62
7
  6
CONTINUOUS
  7
STANDARD
 71
1
 72
1
 10
15.9560215477
 20
0.9479130325
 30
0.0
 11
1.0
 21
0.0
 31
0.0
 44
0.9
  1
SCALE: 1:1.000
 40
0.3
 41
3.36
  0
LINE
  5
21A
100
AcDbEntity
  8
0
100
AcDbLine
 62
7
  6
CONTINUOUS
 10
0.0
 20
0.0
 11
0.0
 21
17.0
  0
LINE
  5
21B
100
AcDbEntity
  8
0
100
AcDbLine
 62
7
  6
CONTINUOUS
 10
0.0
 20
0.0
 11
22.0
 21
0.0
  0
LINE
  5
21C
100
AcDbEntity
  8
0
100
AcDbLine
 62
7
  6
CONTINUOUS
 10
0.0
 20
17.0
 11
22.0
 21
17.0
  0
LINE
  5
21D
100
AcDbEntity
  8
0
100
AcDbLine
 62
7
  6
CONTINUOUS
 10
22.0
 20
0.0
 11
22.0
 21
17.0
  0
LINE
  5
21E
100
AcDbEntity
  8
0
100
AcDbLine
 62
7
  6
CONTINUOUS
 10
2.8003672762
 20
5.7701198968
 11
2.8003672762
 21
5.6034532301
  0
LINE
  5
21F
100
AcDbEntity
  8
0
100
AcDbLine
 62
7
  6
CONTINUOUS
 10
2.8003672762
 20
5.6034532301
 11
2.8853452581
 21
5.2972262682
  0
LINE
  5
220
100
AcDbEntity
  8
0
100
AcDbLine
 62
7
  6
CONTINUOUS
 10
3.0853892943
 20
5.2972262682
 11
3.1703672762
 21
5.6034532301
  0
LINE
  5
221
100
AcDbEntity
  8
0
100
AcDbLine
 62
7
  6
CONTINUOUS
 10
3.1703672762
 20
5.6034532301
 11
3.2553452581
 21
5.2972262682
  0
LINE
  5
222
100
AcDbEntity
  8
0
100
AcDbLine
 62
7
  6
CONTINUOUS
 10
3.4553892943
 20
5.2972262682
 11
3.5403672762
 21
5.6034532301
  0
LINE
  5
223
100
AcDbEntity
  8
0
100
AcDbLine
 62
7
  6
CONTINUOUS
 10
3.5403672762
 20
5.6034532301
 11
3.6253452581
 21
5.2972262682
  0
LINE
  5
224
100
AcDbEntity
  8
0
100
AcDbLine
 62
7
  6
CONTINUOUS
 10
3.8253892943
 20
5.2972262682
 11
3.9103672762
 21
5.6034532301
  0
LINE
  5
225
100
AcDbEntity
  8
0
100
AcDbLine
 62
7
  6
CONTINUOUS
 10
3.9103672762
 20
5.6034532301
 11
3.9953452581
 21
5.2972262682
  0
LINE
  5
226
100
AcDbEntity
  8
0
100
AcDbLine
 62
7
  6
CONTINUOUS
 10
4.1953892943
 20
5.2972262682
 11
4.2803672762
 21
5.6034532301
  0
LINE
  5
227
100
AcDbEntity
  8
0
100
AcDbLine
 62
7
  6
CONTINUOUS
 10
4.2803672762
 20
5.6034532301
 11
4.3653452581
 21
5.2972262682
  0
LINE
  5
228
100
AcDbEntity
  8
0
100
AcDbLine
 62
7
  6
CONTINUOUS
 10
4.5653892943
 20
5.2972262682
 11
4.6503672762
 21
5.6034532301
  0
LINE
  5
229
100
AcDbEntity
  8
0
100
AcDbLine
 62
7
  6
CONTINUOUS
 10
4.6503672762
 20
5.6034532301
 11
4.7353452581
 21
5.2972262682
  0
LINE
  5
22A
100
AcDbEntity
  8
0
100
AcDbLine
 62
7
  6
CONTINUOUS
 10
4.9353892943
 20
5.2972262682
 11
5.0203672762
 21
5.6034532301
  0
LINE
  5
22B
100
AcDbEntity
  8
0
100
AcDbLine
 62
7
  6
CONTINUOUS
 10
5.0203672762
 20
5.6034532301
 11
5.1053452581
 21
5.2972262682
  0
LINE
  5
22C
100
AcDbEntity
  8
0
100
AcDbLine
 62
7
  6
CONTINUOUS
 10
5.3053892943
 20
5.2972262682
 11
5.3903672762
 21
5.6034532301
  0
LINE
  5
22D
100
AcDbEntity
  8
0
100
AcDbLine
 62
7
  6
CONTINUOUS
 10
5.3903672762
 20
5.6034532301
 11
5.4753452581
 21
5.2972262682
  0
LINE
  5
22E
100
AcDbEntity
  8
0
100
AcDbLine
 62
7
  6
CONTINUOUS
 10
5.6753892943
 20
5.2972262682
 11
5.7603672762
 21
5.6034532301
  0
LINE
  5
22F
100
AcDbEntity
  8
0
100
AcDbLine
 62
7
  6
CONTINUOUS
 10
2.9209979735
 20
5.2701198968
 11
3.0497365789
 21
5.2701198968
  0
LINE
  5
230
100
AcDbEntity
  8
0
100
AcDbLine
 62
7
  6
CONTINUOUS
 10
3.2909979735
 20
5.2701198968
 11
3.4197365789
 21
5.2701198968
  0
LINE
  5
231
100
AcDbEntity
  8
0
100
AcDbLine
 62
7
  6
CONTINUOUS
 10
3.6609979735
 20
5.2701198968
 11
3.7897365789
 21
5.2701198968
  0
LINE
  5
232
100
AcDbEntity
  8
0
100
AcDbLine
 62
7
  6
CONTINUOUS
 10
4.0309979735
 20
5.2701198968
 11
4.1597365789
 21
5.2701198968
  0
LINE
  5
233
100
AcDbEntity
  8
0
100
AcDbLine
 62
7
  6
CONTINUOUS
 10
4.4009979735
 20
5.2701198968
 11
4.5297365789
 21
5.2701198968
  0
LINE
  5
234
100
AcDbEntity
  8
0
100
AcDbLine
 62
7
  6
CONTINUOUS
 10
4.7709979735
 20
5.2701198968
 11
4.8997365789
 21
5.2701198968
  0
LINE
  5
235
100
AcDbEntity
  8
0
100
AcDbLine
 62
7
  6
CONTINUOUS
 10
5.1409979735
 20
5.2701198968
 11
5.2697365789
 21
5.2701198968
  0
LINE
  5
236
100
AcDbEntity
  8
0
100
AcDbLine
 62
7
  6
CONTINUOUS
 10
5.5109979735
 20
5.2701198968
 11
5.6397365789
 21
5.2701198968
  0
LINE
  5
237
100
AcDbEntity
  8
0
100
AcDbLine
 62
7
  6
CONTINUOUS
 10
5.8809979735
 20
5.2701198968
 11
6.0097365789
 21
5.2701198968
  0
LINE
  5
238
100
AcDbEntity
  8
0
100
AcDbLine
 62
7
  6
CONTINUOUS
 10
6.2509979735
 20
5.2701198968
 11
6.3797365789
 21
5.2701198968
  0
LINE
  5
239
100
AcDbEntity
  8
0
100
AcDbLine
 62
7
  6
CONTINUOUS
 10
6.6209979735
 20
5.2701198968
 11
6.7497365789
 21
5.2701198968
  0
LINE
  5
23A
100
AcDbEntity
  8
0
100
AcDbLine
 62
7
  6
CONTINUOUS
 10
6.9909979735
 20
5.2701198968
 11
7.1197365789
 21
5.2701198968
  0
LINE
  5
23B
100
AcDbEntity
  8
0
100
AcDbLine
 62
7
  6
CONTINUOUS
 10
7.3609979735
 20
5.2701198968
 11
7.4897365789
 21
5.2701198968
  0
LINE
  5
23C
100
AcDbEntity
  8
0
100
AcDbLine
 62
7
  6
CONTINUOUS
 10
7.7309979735
 20
5.2701198968
 11
7.8597365789
 21
5.2701198968
  0
LINE
  5
23D
100
AcDbEntity
  8
0
100
AcDbLine
 62
7
  6
CONTINUOUS
 10
8.1009979735
 20
5.2701198968
 11
8.2297365789
 21
5.2701198968
  0
LINE
  5
23E
100
AcDbEntity
  8
0
100
AcDbLine
 62
7
  6
CONTINUOUS
 10
8.4709979735
 20
5.2701198968
 11
8.5997365789
 21
5.2701198968
  0
LINE
  5
23F
100
AcDbEntity
  8
0
100
AcDbLine
 62
7
  6
CONTINUOUS
 10
8.8409979735
 20
5.2701198968
 11
8.9697365789
 21
5.2701198968
  0
LINE
  5
240
100
AcDbEntity
  8
0
100
AcDbLine
 62
7
  6
CONTINUOUS
 10
9.2109979735
 20
5.2701198968
 11
9.3397365789
 21
5.2701198968
  0
LINE
  5
241
100
AcDbEntity
  8
0
100
AcDbLine
 62
7
  6
CONTINUOUS
 10
5.7603672762
 20
5.6034532301
 11
5.8453452581
 21
5.2972262682
  0
LINE
  5
242
100
AcDbEntity
  8
0
100
AcDbLine
 62
7
  6
CONTINUOUS
 10
6.0453892943
 20
5.2972262682
 11
6.1303672762
 21
5.6034532301
  0
LINE
  5
243
100
AcDbEntity
  8
0
100
AcDbLine
 62
7
  6
CONTINUOUS
 10
6.1303672762
 20
5.6034532301
 11
6.2153452581
 21
5.2972262682
  0
LINE
  5
244
100
AcDbEntity
  8
0
100
AcDbLine
 62
7
  6
CONTINUOUS
 10
9.4603672762
 20
5.7701198968
 11
2.8003672762
 21
5.7701198968
  0
LINE
  5
245
100
AcDbEntity
  8
0
100
AcDbLine
 62
7
  6
CONTINUOUS
 10
6.4153892943
 20
5.2972262682
 11
6.5003672762
 21
5.6034532301
  0
LINE
  5
246
100
AcDbEntity
  8
0
100
AcDbLine
 62
7
  6
CONTINUOUS
 10
6.5003672762
 20
5.6034532301
 11
6.5853452581
 21
5.2972262682
  0
LINE
  5
247
100
AcDbEntity
  8
0
100
AcDbLine
 62
7
  6
CONTINUOUS
 10
6.7853892943
 20
5.2972262682
 11
6.8703672762
 21
5.6034532301
  0
LINE
  5
248
100
AcDbEntity
  8
0
100
AcDbLine
 62
7
  6
CONTINUOUS
 10
6.8703672762
 20
5.6034532301
 11
6.9553452581
 21
5.2972262682
  0
LINE
  5
249
100
AcDbEntity
  8
0
100
AcDbLine
 62
7
  6
CONTINUOUS
 10
7.1553892943
 20
5.2972262682
 11
7.2403672762
 21
5.6034532301
  0
LINE
  5
24A
100
AcDbEntity
  8
0
100
AcDbLine
 62
7
  6
CONTINUOUS
 10
7.2403672762
 20
5.6034532301
 11
7.3253452581
 21
5.2972262682
  0
LINE
  5
24B
100
AcDbEntity
  8
0
100
AcDbLine
 62
7
  6
CONTINUOUS
 10
7.5253892943
 20
5.2972262682
 11
7.6103672762
 21
5.6034532301
  0
LINE
  5
24C
100
AcDbEntity
  8
0
100
AcDbLine
 62
7
  6
CONTINUOUS
 10
7.6103672762
 20
5.6034532301
 11
7.6953452581
 21
5.2972262682
  0
LINE
  5
24D
100
AcDbEntity
  8
0
100
AcDbLine
 62
7
  6
CONTINUOUS
 10
7.8953892943
 20
5.2972262682
 11
7.9803672762
 21
5.6034532301
  0
LINE
  5
24E
100
AcDbEntity
  8
0
100
AcDbLine
 62
7
  6
CONTINUOUS
 10
7.9803672762
 20
5.6034532301
 11
8.0653452581
 21
5.2972262682
  0
LINE
  5
24F
100
AcDbEntity
  8
0
100
AcDbLine
 62
7
  6
CONTINUOUS
 10
8.2653892943
 20
5.2972262682
 11
8.3503672762
 21
5.6034532301
  0
LINE
  5
250
100
AcDbEntity
  8
0
100
AcDbLine
 62
7
  6
CONTINUOUS
 10
8.3503672762
 20
5.6034532301
 11
8.4353452581
 21
5.2972262682
  0
LINE
  5
251
100
AcDbEntity
  8
0
100
AcDbLine
 62
7
  6
CONTINUOUS
 10
8.6353892943
 20
5.2972262682
 11
8.7203672762
 21
5.6034532301
  0
LINE
  5
252
100
AcDbEntity
  8
0
100
AcDbLine
 62
7
  6
CONTINUOUS
 10
8.7203672762
 20
5.6034532301
 11
8.8053452581
 21
5.2972262682
  0
LINE
  5
253
100
AcDbEntity
  8
0
100
AcDbLine
 62
7
  6
CONTINUOUS
 10
9.0053892943
 20
5.2972262682
 11
9.0903672762
 21
5.6034532301
  0
LINE
  5
254
100
AcDbEntity
  8
0
100
AcDbLine
 62
7
  6
CONTINUOUS
 10
9.0903672762
 20
5.6034532301
 11
9.1753452581
 21
5.2972262682
  0
LINE
  5
255
100
AcDbEntity
  8
0
100
AcDbLine
 62
7
  6
CONTINUOUS
 10
9.4603672762
 20
5.6034532301
 11
9.4603672762
 21
5.7701198968
  0
LINE
  5
256
100
AcDbEntity
  8
0
100
AcDbLine
 62
7
  6
CONTINUOUS
 10
9.3753892943
 20
5.2972262682
 11
9.4603672762
 21
5.6034532301
  0
LINE
  5
257
100
AcDbEntity
  8
0
100
AcDbLine
 62
7
  6
CONTINUOUS
 10
2.7408720839
 20
14.6000477814
 11
2.7408720839
 21
10.6000477814
  0
LINE
  5
258
100
AcDbEntity
  8
0
100
AcDbLine
 62
7
  6
CONTINUOUS
 10
9.4008720839
 20
10.6000477814
 11
2.7408720839
 21
10.6000477814
  0
LINE
  5
259
100
AcDbEntity
  8
0
100
AcDbLine
 62
7
  6
CONTINUOUS
 10
2.7408720839
 20
14.6000477814
 11
9.4008720839
 21
14.6000477814
  0
LINE
  5
25A
100
AcDbEntity
  8
0
100
AcDbLine
 62
7
  6
CONTINUOUS
 10
9.4008720839
 20
14.6000477814
 11
9.4008720839
 21
10.6000477814
  0
LINE
  5
25B
100
AcDbEntity
  8
0
100
AcDbLine
 62
7
  6
CONTINUOUS
 10
13.5603552569
 20
5.2106247044
 11
13.5603552569
 21
5.7106247044
  0
LINE
  5
25C
100
AcDbEntity
  8
0
100
AcDbLine
 62
7
  6
CONTINUOUS
 10
13.5603552569
 20
5.2106247044
 11
17.5603552569
 21
5.2106247044
  0
LINE
  5
25D
100
AcDbEntity
  8
0
100
AcDbLine
 62
7
  6
CONTINUOUS
 10
17.5603552569
 20
5.5439580378
 11
13.5603552569
 21
5.5439580378
  0
LINE
  5
25E
100
AcDbEntity
  8
0
100
AcDbLine
 62
7
  6
CONTINUOUS
 10
17.5603552569
 20
5.7106247044
 11
13.5603552569
 21
5.7106247044
  0
LINE
  5
25F
100
AcDbEntity
  8
0
100
AcDbLine
 62
7
  6
CONTINUOUS
 10
17.5603552569
 20
5.2106247044
 11
17.5603552569
 21
5.7106247044
  0
LINE
  5
260
100
AcDbEntity
  8
0
100
AcDbLine
 62
7
  6
CONTINUOUS
 10
11.8868554863
 20
11.0995536657
 11
11.9376957974
 21
10.9959520043
  0
LINE
  5
261
100
AcDbEntity
  8
0
100
AcDbLine
 62
7
  6
CONTINUOUS
 10
11.9376957974
 20
10.9959520043
 11
12.1093777459
 21
10.8055982723
  0
LINE
  5
262
100
AcDbEntity
  8
0
100
AcDbLine
 62
7
  6
CONTINUOUS
 10
12.2936305047
 20
10.8055982723
 11
12.2784883652
 21
10.9959520043
  0
LINE
  5
263
100
AcDbEntity
  8
0
100
AcDbLine
 62
7
  6
CONTINUOUS
 10
12.2784883652
 20
10.9959520043
 11
12.4501703137
 21
10.8055982723
  0
LINE
  5
264
100
AcDbEntity
  8
0
100
AcDbLine
 62
7
  6
CONTINUOUS
 10
12.6344230725
 20
10.8055982723
 11
12.619280933
 21
10.9959520043
  0
LINE
  5
265
100
AcDbEntity
  8
0
100
AcDbLine
 62
7
  6
CONTINUOUS
 10
12.2931174193
 20
10.8008263593
 11
12.2936305047
 21
10.8055982723
  0
LINE
  5
266
100
AcDbEntity
  8
0
100
AcDbLine
 62
7
  6
CONTINUOUS
 10
12.8551207799
 20
14.2328613042
 11
11.8868554863
 21
11.0995536657
  0
LINE
  5
267
100
AcDbEntity
  8
0
100
AcDbLine
 62
7
  6
CONTINUOUS
 10
12.619280933
 20
10.9959520043
 11
12.7909628815
 21
10.8055982723
  0
LINE
  5
268
100
AcDbEntity
  8
0
100
AcDbLine
 62
7
  6
CONTINUOUS
 10
12.9752156403
 20
10.8055982723
 11
12.9600735007
 21
10.9959520043
  0
LINE
  5
269
100
AcDbEntity
  8
0
100
AcDbLine
 62
7
  6
CONTINUOUS
 10
12.6339099871
 20
10.8008263593
 11
12.6344230725
 21
10.8055982723
  0
LINE
  5
26A
100
AcDbEntity
  8
0
100
AcDbLine
 62
7
  6
CONTINUOUS
 10
12.9600735007
 20
10.9959520043
 11
13.1317554493
 21
10.8055982723
  0
LINE
  5
26B
100
AcDbEntity
  8
0
100
AcDbLine
 62
7
  6
CONTINUOUS
 10
13.3008660685
 20
10.9959520043
 11
13.4725480171
 21
10.8055982723
  0
LINE
  5
26C
100
AcDbEntity
  8
0
100
AcDbLine
 62
7
  6
CONTINUOUS
 10
12.2945155896
 20
10.8053247604
 11
12.3343007477
 21
10.9340695793
  0
LINE
  5
26D
100
AcDbEntity
  8
0
100
AcDbLine
 62
7
  6
CONTINUOUS
 10
13.6416586363
 20
10.9959520043
 11
13.8133405849
 21
10.8055982723
  0
LINE
  5
26E
100
AcDbEntity
  8
0
100
AcDbLine
 62
7
  6
CONTINUOUS
 10
13.3160082081
 20
10.8055982723
 11
13.3008660685
 21
10.9959520043
  0
LINE
  5
26F
100
AcDbEntity
  8
0
100
AcDbLine
 62
7
  6
CONTINUOUS
 10
12.9747025549
 20
10.8008263593
 11
12.9752156403
 21
10.8055982723
  0
LINE
  5
270
100
AcDbEntity
  8
0
100
AcDbLine
 62
7
  6
CONTINUOUS
 10
12.6353081574
 20
10.8053247604
 11
12.6750933155
 21
10.9340695793
  0
LINE
  5
271
100
AcDbEntity
  8
0
100
AcDbLine
 62
7
  6
CONTINUOUS
 10
13.9824512041
 20
10.9959520043
 11
14.1541331526
 21
10.8055982723
  0
LINE
  5
272
100
AcDbEntity
  8
0
100
AcDbLine
 62
7
  6
CONTINUOUS
 10
13.6568007759
 20
10.8055982723
 11
13.6416586363
 21
10.9959520043
  0
LINE
  5
273
100
AcDbEntity
  8
0
100
AcDbLine
 62
7
  6
CONTINUOUS
 10
13.3154951227
 20
10.8008263593
 11
13.3160082081
 21
10.8055982723
  0
LINE
  5
274
100
AcDbEntity
  8
0
100
AcDbLine
 62
7
  6
CONTINUOUS
 10
12.9761007251
 20
10.8053247604
 11
13.0158858833
 21
10.9340695793
  0
LINE
  5
275
100
AcDbEntity
  8
0
100
AcDbLine
 62
7
  6
CONTINUOUS
 10
14.3232437719
 20
10.9959520043
 11
14.4949257204
 21
10.8055982723
  0
LINE
  5
276
100
AcDbEntity
  8
0
100
AcDbLine
 62
7
  6
CONTINUOUS
 10
13.9975933437
 20
10.8055982723
 11
13.9824512041
 21
10.9959520043
  0
LINE
  5
277
100
AcDbEntity
  8
0
100
AcDbLine
 62
7
  6
CONTINUOUS
 10
13.6562876905
 20
10.8008263593
 11
13.6568007759
 21
10.8055982723
  0
LINE
  5
278
100
AcDbEntity
  8
0
100
AcDbLine
 62
7
  6
CONTINUOUS
 10
12.1504846496
 20
10.7887486816
 11
12.2690607574
 21
10.7887486816
  0
LINE
  5
279
100
AcDbEntity
  8
0
100
AcDbLine
 62
7
  6
CONTINUOUS
 10
12.4912772174
 20
10.7887486816
 11
12.6098533252
 21
10.7887486816
  0
LINE
  5
27A
100
AcDbEntity
  8
0
100
AcDbLine
 62
7
  6
CONTINUOUS
 10
12.8320697851
 20
10.7887486816
 11
12.950645893
 21
10.7887486816
  0
LINE
  5
27B
100
AcDbEntity
  8
0
100
AcDbLine
 62
7
  6
CONTINUOUS
 10
13.1728623529
 20
10.7887486816
 11
13.2914384608
 21
10.7887486816
  0
LINE
  5
27C
100
AcDbEntity
  8
0
100
AcDbLine
 62
7
  6
CONTINUOUS
 10
13.5136549207
 20
10.7887486816
 11
13.6322310286
 21
10.7887486816
  0
LINE
  5
27D
100
AcDbEntity
  8
0
100
AcDbLine
 62
7
  6
CONTINUOUS
 10
13.8544474885
 20
10.7887486816
 11
13.9730235963
 21
10.7887486816
  0
LINE
  5
27E
100
AcDbEntity
  8
0
100
AcDbLine
 62
7
  6
CONTINUOUS
 10
14.1952400563
 20
10.7887486816
 11
14.3138161641
 21
10.7887486816
  0
LINE
  5
27F
100
AcDbEntity
  8
0
100
AcDbLine
 62
7
  6
CONTINUOUS
 10
14.536032624
 20
10.7887486816
 11
14.6546087319
 21
10.7887486816
  0
LINE
  5
280
100
AcDbEntity
  8
0
100
AcDbLine
 62
7
  6
CONTINUOUS
 10
14.8768251918
 20
10.7887486816
 11
14.9954012997
 21
10.7887486816
  0
LINE
  5
281
100
AcDbEntity
  8
0
100
AcDbLine
 62
7
  6
CONTINUOUS
 10
15.2176177596
 20
10.7887486816
 11
15.3361938675
 21
10.7887486816
  0
LINE
  5
282
100
AcDbEntity
  8
0
100
AcDbLine
 62
7
  6
CONTINUOUS
 10
15.5584103274
 20
10.7887486816
 11
15.6769864352
 21
10.7887486816
  0
LINE
  5
283
100
AcDbEntity
  8
0
100
AcDbLine
 62
7
  6
CONTINUOUS
 10
15.8992028952
 20
10.7887486816
 11
16.017779003
 21
10.7887486816
  0
LINE
  5
284
100
AcDbEntity
  8
0
100
AcDbLine
 62
7
  6
CONTINUOUS
 10
16.239995463
 20
10.7887486816
 11
16.3585715708
 21
10.7887486816
  0
LINE
  5
285
100
AcDbEntity
  8
0
100
AcDbLine
 62
7
  6
CONTINUOUS
 10
16.5807880307
 20
10.7887486816
 11
16.6993641386
 21
10.7887486816
  0
LINE
  5
286
100
AcDbEntity
  8
0
100
AcDbLine
 62
7
  6
CONTINUOUS
 10
16.9215805985
 20
10.7887486816
 11
17.0401567064
 21
10.7887486816
  0
LINE
  5
287
100
AcDbEntity
  8
0
100
AcDbLine
 62
7
  6
CONTINUOUS
 10
17.2623731663
 20
10.7887486816
 11
17.3809492741
 21
10.7887486816
  0
LINE
  5
288
100
AcDbEntity
  8
0
100
AcDbLine
 62
7
  6
CONTINUOUS
 10
17.6031657341
 20
10.7887486816
 11
17.7217418419
 21
10.7887486816
  0
LINE
  5
289
100
AcDbEntity
  8
0
100
AcDbLine
 62
7
  6
CONTINUOUS
 10
17.9439583019
 20
10.7887486816
 11
18.0625344097
 21
10.7887486816
  0
LINE
  5
28A
100
AcDbEntity
  8
0
100
AcDbLine
 62
7
  6
CONTINUOUS
 10
14.6640363396
 20
10.9959520043
 11
14.8357182882
 21
10.8055982723
  0
LINE
  5
28B
100
AcDbEntity
  8
0
100
AcDbLine
 62
7
  6
CONTINUOUS
 10
13.3168932929
 20
10.8053247604
 11
13.3566784511
 21
10.9340695793
  0
LINE
  5
28C
100
AcDbEntity
  8
0
100
AcDbLine
 62
7
  6
CONTINUOUS
 10
18.0211217064
 20
11.0995536657
 11
11.8868554863
 21
11.0995536657
  0
LINE
  5
28D
100
AcDbEntity
  8
0
100
AcDbLine
 62
7
  6
CONTINUOUS
 10
15.0048289074
 20
10.9959520043
 11
15.176510856
 21
10.8055982723
  0
LINE
  5
28E
100
AcDbEntity
  8
0
100
AcDbLine
 62
7
  6
CONTINUOUS
 10
14.3383859114
 20
10.8055982723
 11
14.3232437719
 21
10.9959520043
  0
LINE
  5
28F
100
AcDbEntity
  8
0
100
AcDbLine
 62
7
  6
CONTINUOUS
 10
13.9970802582
 20
10.8008263593
 11
13.9975933437
 21
10.8055982723
  0
LINE
  5
290
100
AcDbEntity
  8
0
100
AcDbLine
 62
7
  6
CONTINUOUS
 10
13.6576858607
 20
10.8053247604
 11
13.6974710188
 21
10.9340695793
  0
LINE
  5
291
100
AcDbEntity
  8
0
100
AcDbLine
 62
7
  6
CONTINUOUS
 10
15.3456214752
 20
10.9959520043
 11
15.5173034238
 21
10.8055982723
  0
LINE
  5
292
100
AcDbEntity
  8
0
100
AcDbLine
 62
7
  6
CONTINUOUS
 10
14.6791784792
 20
10.8055982723
 11
14.6640363396
 21
10.9959520043
  0
LINE
  5
293
100
AcDbEntity
  8
0
100
AcDbLine
 62
7
  6
CONTINUOUS
 10
14.337872826
 20
10.8008263593
 11
14.3383859114
 21
10.8055982723
  0
LINE
  5
294
100
AcDbEntity
  8
0
100
AcDbLine
 62
7
  6
CONTINUOUS
 10
13.9984784285
 20
10.8053247604
 11
14.0382635866
 21
10.9340695793
  0
LINE
  5
295
100
AcDbEntity
  8
0
100
AcDbLine
 62
7
  6
CONTINUOUS
 10
15.686414043
 20
10.9959520043
 11
15.8580959915
 21
10.8055982723
  0
LINE
  5
296
100
AcDbEntity
  8
0
100
AcDbLine
 62
7
  6
CONTINUOUS
 10
15.019971047
 20
10.8055982723
 11
15.0048289074
 21
10.9959520043
  0
LINE
  5
297
100
AcDbEntity
  8
0
100
AcDbLine
 62
7
  6
CONTINUOUS
 10
14.6786653938
 20
10.8008263593
 11
14.6791784792
 21
10.8055982723
  0
LINE
  5
298
100
AcDbEntity
  8
0
100
AcDbLine
 62
7
  6
CONTINUOUS
 10
14.3392709963
 20
10.8053247604
 11
14.3790561544
 21
10.9340695793
  0
LINE
  5
299
100
AcDbEntity
  8
0
100
AcDbLine
 62
7
  6
CONTINUOUS
 10
16.0272066108
 20
10.9959520043
 11
16.1988885593
 21
10.8055982723
  0
LINE
  5
29A
100
AcDbEntity
  8
0
100
AcDbLine
 62
7
  6
CONTINUOUS
 10
15.3607636148
 20
10.8055982723
 11
15.3456214752
 21
10.9959520043
  0
LINE
  5
29B
100
AcDbEntity
  8
0
100
AcDbLine
 62
7
  6
CONTINUOUS
 10
15.0194579616
 20
10.8008263593
 11
15.019971047
 21
10.8055982723
  0
LINE
  5
29C
100
AcDbEntity
  8
0
100
AcDbLine
 62
7
  6
CONTINUOUS
 10
14.680063564
 20
10.8053247604
 11
14.7198487222
 21
10.9340695793
  0
LINE
  5
29D
100
AcDbEntity
  8
0
100
AcDbLine
 62
7
  6
CONTINUOUS
 10
16.3679991786
 20
10.9959520043
 11
16.5396811271
 21
10.8055982723
  0
LINE
  5
29E
100
AcDbEntity
  8
0
100
AcDbLine
 62
7
  6
CONTINUOUS
 10
16.7087917463
 20
10.9959520043
 11
16.8804736949
 21
10.8055982723
  0
LINE
  5
29F
100
AcDbEntity
  8
0
100
AcDbLine
 62
7
  6
CONTINUOUS
 10
15.7015561826
 20
10.8055982723
 11
15.686414043
 21
10.9959520043
  0
LINE
  5
2A0
100
AcDbEntity
  8
0
100
AcDbLine
 62
7
  6
CONTINUOUS
 10
15.3602505294
 20
10.8008263593
 11
15.3607636148
 21
10.8055982723
  0
LINE
  5
2A1
100
AcDbEntity
  8
0
100
AcDbLine
 62
7
  6
CONTINUOUS
 10
15.0208561318
 20
10.8053247604
 11
15.06064129
 21
10.9340695793
  0
LINE
  5
2A2
100
AcDbEntity
  8
0
100
AcDbLine
 62
7
  6
CONTINUOUS
 10
17.0495843141
 20
10.9959520043
 11
17.2212662627
 21
10.8055982723
  0
LINE
  5
2A3
100
AcDbEntity
  8
0
100
AcDbLine
 62
7
  6
CONTINUOUS
 10
16.0423487503
 20
10.8055982723
 11
16.0272066108
 21
10.9959520043
  0
LINE
  5
2A4
100
AcDbEntity
  8
0
100
AcDbLine
 62
7
  6
CONTINUOUS
 10
15.7010430971
 20
10.8008263593
 11
15.7015561826
 21
10.8055982723
  0
LINE
  5
2A5
100
AcDbEntity
  8
0
100
AcDbLine
 62
7
  6
CONTINUOUS
 10
15.3616486996
 20
10.8053247604
 11
15.4014338577
 21
10.9340695793
  0
LINE
  5
2A6
100
AcDbEntity
  8
0
100
AcDbLine
 62
7
  6
CONTINUOUS
 10
17.3903768819
 20
10.9959520043
 11
17.5620588304
 21
10.8055982723
  0
LINE
  5
2A7
100
AcDbEntity
  8
0
100
AcDbLine
 62
7
  6
CONTINUOUS
 10
16.3831413181
 20
10.8055982723
 11
16.3679991786
 21
10.9959520043
  0
LINE
  5
2A8
100
AcDbEntity
  8
0
100
AcDbLine
 62
7
  6
CONTINUOUS
 10
16.0418356649
 20
10.8008263593
 11
16.0423487503
 21
10.8055982723
  0
LINE
  5
2A9
100
AcDbEntity
  8
0
100
AcDbLine
 62
7
  6
CONTINUOUS
 10
15.7024412674
 20
10.8053247604
 11
15.7422264255
 21
10.9340695793
  0
LINE
  5
2AA
100
AcDbEntity
  8
0
100
AcDbLine
 62
7
  6
CONTINUOUS
 10
17.7311694497
 20
10.9959520043
 11
17.9028513982
 21
10.8055982723
  0
LINE
  5
2AB
100
AcDbEntity
  8
0
100
AcDbLine
 62
7
  6
CONTINUOUS
 10
16.3826282327
 20
10.8008263593
 11
16.3831413181
 21
10.8055982723
  0
LINE
  5
2AC
100
AcDbEntity
  8
0
100
AcDbLine
 62
7
  6
CONTINUOUS
 10
16.0432338352
 20
10.8053247604
 11
16.0830189933
 21
10.9340695793
  0
LINE
  5
2AD
100
AcDbEntity
  8
0
100
AcDbLine
 62
7
  6
CONTINUOUS
 10
16.7239338859
 20
10.8055982723
 11
16.7087917463
 21
10.9959520043
  0
LINE
  5
2AE
100
AcDbEntity
  8
0
100
AcDbLine
 62
7
  6
CONTINUOUS
 10
17.0647264537
 20
10.8055982723
 11
17.0495843141
 21
10.9959520043
  0
LINE
  5
2AF
100
AcDbEntity
  8
0
100
AcDbLine
 62
7
  6
CONTINUOUS
 10
16.7234208005
 20
10.8008263593
 11
16.7239338859
 21
10.8055982723
  0
LINE
  5
2B0
100
AcDbEntity
  8
0
100
AcDbLine
 62
7
  6
CONTINUOUS
 10
16.3840264029
 20
10.8053247604
 11
16.4238115611
 21
10.9340695793
  0
LINE
  5
2B1
100
AcDbEntity
  8
0
100
AcDbLine
 62
7
  6
CONTINUOUS
 10
17.4055190215
 20
10.8055982723
 11
17.3903768819
 21
10.9959520043
  0
LINE
  5
2B2
100
AcDbEntity
  8
0
100
AcDbLine
 62
7
  6
CONTINUOUS
 10
17.0642133683
 20
10.8008263593
 11
17.0647264537
 21
10.8055982723
  0
LINE
  5
2B3
100
AcDbEntity
  8
0
100
AcDbLine
 62
7
  6
CONTINUOUS
 10
16.7248189707
 20
10.8053247604
 11
16.7646041289
 21
10.9340695793
  0
LINE
  5
2B4
100
AcDbEntity
  8
0
100
AcDbLine
 62
7
  6
CONTINUOUS
 10
12.8551207799
 20
14.2328613042
 11
18.989387
 21
14.2328613042
  0
LINE
  5
2B5
100
AcDbEntity
  8
0
100
AcDbLine
 62
7
  6
CONTINUOUS
 10
18.0719620175
 20
10.9959520043
 11
18.0211217064
 21
11.0995536657
  0
LINE
  5
2B6
100
AcDbEntity
  8
0
100
AcDbLine
 62
7
  6
CONTINUOUS
 10
17.7463115892
 20
10.8055982723
 11
17.7311694497
 21
10.9959520043
  0
LINE
  5
2B7
100
AcDbEntity
  8
0
100
AcDbLine
 62
7
  6
CONTINUOUS
 10
17.405005936
 20
10.8008263593
 11
17.4055190215
 21
10.8055982723
  0
LINE
  5
2B8
100
AcDbEntity
  8
0
100
AcDbLine
 62
7
  6
CONTINUOUS
 10
17.0656115385
 20
10.8053247604
 11
17.1053966966
 21
10.9340695793
  0
LINE
  5
2B9
100
AcDbEntity
  8
0
100
AcDbLine
 62
7
  6
CONTINUOUS
 10
17.4064041063
 20
10.8053247604
 11
17.4461892644
 21
10.9340695793
  0
LINE
  5
2BA
100
AcDbEntity
  8
0
100
AcDbLine
 62
7
  6
CONTINUOUS
 10
18.087104157
 20
10.8055982723
 11
18.0719620175
 21
10.9959520043
  0
LINE
  5
2BB
100
AcDbEntity
  8
0
100
AcDbLine
 62
7
  6
CONTINUOUS
 10
17.7457985038
 20
10.8008263593
 11
17.7463115892
 21
10.8055982723
  0
LINE
  5
2BC
100
AcDbEntity
  8
0
100
AcDbLine
 62
7
  6
CONTINUOUS
 10
17.7471966741
 20
10.8053247604
 11
17.7869818322
 21
10.9340695793
  0
LINE
  5
2BD
100
AcDbEntity
  8
0
100
AcDbLine
 62
7
  6
CONTINUOUS
 10
18.0865910716
 20
10.8008263593
 11
18.087104157
 21
10.8055982723
  0
LINE
  5
2BE
100
AcDbEntity
  8
0
100
AcDbLine
 62
7
  6
CONTINUOUS
 10
18.989387
 20
14.2328613042
 11
18.0211217064
 21
11.0995536657
  0
LINE
  5
2BF
100
AcDbEntity
  8
0
100
AcDbLine
 62
7
  6
CONTINUOUS
 10
19.0402273111
 20
14.1292596429
 11
18.0719620175
 21
10.9959520043
  0
LINE
  5
2C0
100
AcDbEntity
  8
0
100
AcDbLine
 62
7
  6
CONTINUOUS
 10
18.0879892419
 20
10.8053247604
 11
19.0548637255
 21
13.9341317362
  0
LINE
  5
2C1
100
AcDbEntity
  8
0
100
AcDbLine
 62
7
  6
CONTINUOUS
 10
19.0553694507
 20
13.9389059108
 11
19.0548563652
 21
13.9341339978
  0
LINE
  5
2C2
100
AcDbEntity
  8
0
100
AcDbLine
 62
7
  6
CONTINUOUS
 10
19.0553694507
 20
13.9389059108
 11
19.0402273111
 21
14.1292596429
  0
LINE
  5
2C3
100
AcDbEntity
  8
0
100
AcDbLine
 62
7
  6
CONTINUOUS
 10
19.0402273111
 20
14.1292596429
 11
18.989387
 21
14.2328613042
  0
ARC
  5
2C4
100
AcDbEntity
  8
0
100
AcDbCircle
 62
7
  6
CONTINUOUS
 10
2.9209979735
 20
5.3071198968
 40
0.037
100
AcDbArc
 50
195.5093345227
 51
270.0
  0
ARC
  5
2C5
100
AcDbEntity
  8
0
100
AcDbCircle
 62
7
  6
CONTINUOUS
 10
3.0497365789
 20
5.3071198968
 40
0.037
100
AcDbArc
 50
270.0
 51
344.4906654773
  0
ARC
  5
2C6
100
AcDbEntity
  8
0
100
AcDbCircle
 62
7
  6
CONTINUOUS
 10
3.2909979735
 20
5.3071198968
 40
0.037
100
AcDbArc
 50
195.5093345227
 51
270.0
  0
ARC
  5
2C7
100
AcDbEntity
  8
0
100
AcDbCircle
 62
7
  6
CONTINUOUS
 10
3.4197365789
 20
5.3071198968
 40
0.037
100
AcDbArc
 50
270.0
 51
344.4906654773
  0
ARC
  5
2C8
100
AcDbEntity
  8
0
100
AcDbCircle
 62
7
  6
CONTINUOUS
 10
3.6609979735
 20
5.3071198968
 40
0.037
100
AcDbArc
 50
195.5093345227
 51
270.0
  0
ARC
  5
2C9
100
AcDbEntity
  8
0
100
AcDbCircle
 62
7
  6
CONTINUOUS
 10
3.7897365789
 20
5.3071198968
 40
0.037
100
AcDbArc
 50
270.0
 51
344.4906654773
  0
ARC
  5
2CA
100
AcDbEntity
  8
0
100
AcDbCircle
 62
7
  6
CONTINUOUS
 10
4.0309979735
 20
5.3071198968
 40
0.037
100
AcDbArc
 50
195.5093345227
 51
270.0
  0
ARC
  5
2CB
100
AcDbEntity
  8
0
100
AcDbCircle
 62
7
  6
CONTINUOUS
 10
4.1597365789
 20
5.3071198968
 40
0.037
100
AcDbArc
 50
270.0
 51
344.4906654773
  0
ARC
  5
2CC
100
AcDbEntity
  8
0
100
AcDbCircle
 62
7
  6
CONTINUOUS
 10
4.4009979735
 20
5.3071198968
 40
0.037
100
AcDbArc
 50
195.5093345227
 51
270.0
  0
ARC
  5
2CD
100
AcDbEntity
  8
0
100
AcDbCircle
 62
7
  6
CONTINUOUS
 10
4.5297365789
 20
5.3071198968
 40
0.037
100
AcDbArc
 50
270.0
 51
344.4906654773
  0
ARC
  5
2CE
100
AcDbEntity
  8
0
100
AcDbCircle
 62
7
  6
CONTINUOUS
 10
4.7709979735
 20
5.3071198968
 40
0.037
100
AcDbArc
 50
195.5093345227
 51
270.0
  0
ARC
  5
2CF
100
AcDbEntity
  8
0
100
AcDbCircle
 62
7
  6
CONTINUOUS
 10
4.8997365789
 20
5.3071198968
 40
0.037
100
AcDbArc
 50
270.0
 51
344.4906654773
  0
ARC
  5
2D0
100
AcDbEntity
  8
0
100
AcDbCircle
 62
7
  6
CONTINUOUS
 10
5.1409979735
 20
5.3071198968
 40
0.037
100
AcDbArc
 50
195.5093345227
 51
270.0
  0
ARC
  5
2D1
100
AcDbEntity
  8
0
100
AcDbCircle
 62
7
  6
CONTINUOUS
 10
5.2697365789
 20
5.3071198968
 40
0.037
100
AcDbArc
 50
270.0
 51
344.4906654773
  0
ARC
  5
2D2
100
AcDbEntity
  8
0
100
AcDbCircle
 62
7
  6
CONTINUOUS
 10
5.5109979735
 20
5.3071198968
 40
0.037
100
AcDbArc
 50
195.5093345227
 51
270.0
  0
ARC
  5
2D3
100
AcDbEntity
  8
0
100
AcDbCircle
 62
7
  6
CONTINUOUS
 10
5.6397365789
 20
5.3071198968
 40
0.037
100
AcDbArc
 50
270.0
 51
344.4906654773
  0
ARC
  5
2D4
100
AcDbEntity
  8
0
100
AcDbCircle
 62
7
  6
CONTINUOUS
 10
5.8809979735
 20
5.3071198968
 40
0.037
100
AcDbArc
 50
195.5093345227
 51
270.0
  0
ARC
  5
2D5
100
AcDbEntity
  8
0
100
AcDbCircle
 62
7
  6
CONTINUOUS
 10
6.0097365789
 20
5.3071198968
 40
0.037
100
AcDbArc
 50
270.0
 51
344.4906654773
  0
ARC
  5
2D6
100
AcDbEntity
  8
0
100
AcDbCircle
 62
7
  6
CONTINUOUS
 10
6.2509979735
 20
5.3071198968
 40
0.037
100
AcDbArc
 50
195.5093345227
 51
270.0
  0
ARC
  5
2D7
100
AcDbEntity
  8
0
100
AcDbCircle
 62
7
  6
CONTINUOUS
 10
6.3797365789
 20
5.3071198968
 40
0.037
100
AcDbArc
 50
270.0
 51
344.4906654773
  0
ARC
  5
2D8
100
AcDbEntity
  8
0
100
AcDbCircle
 62
7
  6
CONTINUOUS
 10
6.6209979735
 20
5.3071198968
 40
0.037
100
AcDbArc
 50
195.5093345227
 51
270.0
  0
ARC
  5
2D9
100
AcDbEntity
  8
0
100
AcDbCircle
 62
7
  6
CONTINUOUS
 10
6.7497365789
 20
5.3071198968
 40
0.037
100
AcDbArc
 50
270.0
 51
344.4906654773
  0
ARC
  5
2DA
100
AcDbEntity
  8
0
100
AcDbCircle
 62
7
  6
CONTINUOUS
 10
6.9909979735
 20
5.3071198968
 40
0.037
100
AcDbArc
 50
195.5093345227
 51
270.0
  0
ARC
  5
2DB
100
AcDbEntity
  8
0
100
AcDbCircle
 62
7
  6
CONTINUOUS
 10
7.1197365789
 20
5.3071198968
 40
0.037
100
AcDbArc
 50
270.0
 51
344.4906654773
  0
ARC
  5
2DC
100
AcDbEntity
  8
0
100
AcDbCircle
 62
7
  6
CONTINUOUS
 10
7.3609979735
 20
5.3071198968
 40
0.037
100
AcDbArc
 50
195.5093345227
 51
270.0
  0
ARC
  5
2DD
100
AcDbEntity
  8
0
100
AcDbCircle
 62
7
  6
CONTINUOUS
 10
7.4897365789
 20
5.3071198968
 40
0.037
100
AcDbArc
 50
270.0
 51
344.4906654773
  0
ARC
  5
2DE
100
AcDbEntity
  8
0
100
AcDbCircle
 62
7
  6
CONTINUOUS
 10
7.7309979735
 20
5.3071198968
 40
0.037
100
AcDbArc
 50
195.5093345227
 51
270.0
  0
ARC
  5
2DF
100
AcDbEntity
  8
0
100
AcDbCircle
 62
7
  6
CONTINUOUS
 10
7.8597365789
 20
5.3071198968
 40
0.037
100
AcDbArc
 50
270.0
 51
344.4906654773
  0
ARC
  5
2E0
100
AcDbEntity
  8
0
100
AcDbCircle
 62
7
  6
CONTINUOUS
 10
8.1009979735
 20
5.3071198968
 40
0.037
100
AcDbArc
 50
195.5093345227
 51
270.0
  0
ARC
  5
2E1
100
AcDbEntity
  8
0
100
AcDbCircle
 62
7
  6
CONTINUOUS
 10
8.2297365789
 20
5.3071198968
 40
0.037
100
AcDbArc
 50
270.0
 51
344.4906654773
  0
ARC
  5
2E2
100
AcDbEntity
  8
0
100
AcDbCircle
 62
7
  6
CONTINUOUS
 10
8.4709979735
 20
5.3071198968
 40
0.037
100
AcDbArc
 50
195.5093345227
 51
270.0
  0
ARC
  5
2E3
100
AcDbEntity
  8
0
100
AcDbCircle
 62
7
  6
CONTINUOUS
 10
8.5997365789
 20
5.3071198968
 40
0.037
100
AcDbArc
 50
270.0
 51
344.4906654773
  0
ARC
  5
2E4
100
AcDbEntity
  8
0
100
AcDbCircle
 62
7
  6
CONTINUOUS
 10
8.8409979735
 20
5.3071198968
 40
0.037
100
AcDbArc
 50
195.5093345227
 51
270.0
  0
ARC
  5
2E5
100
AcDbEntity
  8
0
100
AcDbCircle
 62
7
  6
CONTINUOUS
 10
8.9697365789
 20
5.3071198968
 40
0.037
100
AcDbArc
 50
270.0
 51
344.4906654773
  0
ARC
  5
2E6
100
AcDbEntity
  8
0
100
AcDbCircle
 62
7
  6
CONTINUOUS
 10
9.2109979735
 20
5.3071198968
 40
0.037
100
AcDbArc
 50
195.5093345227
 51
270.0
  0
ARC
  5
2E7
100
AcDbEntity
  8
0
100
AcDbCircle
 62
7
  6
CONTINUOUS
 10
9.3397365789
 20
5.3071198968
 40
0.037
100
AcDbArc
 50
270.0
 51
344.4906654773
  0
SPLINE
  5
2E8
100
AcDbEntity
  8
0
100
AcDbSpline
 62
7
  6
CONTINUOUS
 70
0
 71
3
 72
14
 73
10
 74
0
 42
0.0000001
 43
0.0000001
 44
0.0000000001
 40
0.0
 40
0.0
 40
0.0
 40
0.0
 40
0.155636677
 40
0.3032737908
 40
0.5688233258
 40
0.6871263767
 40
0.7968617698
 40
0.9001590393
 40
1.0
 40
1.0
 40
1.0
 40
1.0
 10
18.0625344097
 20
10.7887486816
 30
0.0
 10
18.0640221031
 20
10.7887486816
 30
0.0
 10
18.0669244528
 20
10.78887864
 30
0.0
 10
18.0723084617
 20
10.7896552041
 30
0.0
 10
18.0772228575
 20
10.7912003795
 30
0.0
 10
18.0812930258
 20
10.7936255783
 30
0.0
 10
18.0836963684
 20
10.7957186869
 30
0.0
 10
18.0855189873
 20
10.7981184301
 30
0.0
 10
18.0863154555
 20
10.7999126477
 30
0.0
 10
18.0865965546
 20
10.8008246663
 30
0.0
  0
SPLINE
  5
2E9
100
AcDbEntity
  8
0
100
AcDbSpline
 62
7
  6
CONTINUOUS
 70
0
 71
3
 72
15
 73
11
 74
0
 42
0.0000001
 43
0.0000001
 44
0.0000000001
 40
0.0
 40
0.0
 40
0.0
 40
0.0
 40
0.1105338986
 40
0.2292508778
 40
0.3542399302
 40
0.4835313654
 40
0.6150314629
 40
0.7465308645
 40
0.8757271195
 40
1.0
 40
1.0
 40
1.0
 40
1.0
 10
17.9028513982
 20
10.8055982723
 30
0.0
 10
17.9039759792
 20
10.8043513842
 30
0.0
 10
17.906502892
 20
10.8019375351
 30
0.0
 10
17.9108192081
 20
10.7987063104
 30
0.0
 10
17.915705568
 20
10.7958172986
 30
0.0
 10
17.9210264623
 20
10.7933402369
 30
0.0
 10
17.9266495477
 20
10.7913414598
 30
0.0
 10
17.932431296
 20
10.7898676603
 30
0.0
 10
17.9382179413
 20
10.7889662205
 30
0.0
 10
17.9420704837
 20
10.7887486816
 30
0.0
 10
17.9439583019
 20
10.7887486816
 30
0.0
  0
SPLINE
  5
2EA
100
AcDbEntity
  8
0
100
AcDbSpline
 62
7
  6
CONTINUOUS
 70
0
 71
3
 72
14
 73
10
 74
0
 42
0.0000001
 43
0.0000001
 44
0.0000000001
 40
0.0
 40
0.0
 40
0.0
 40
0.0
 40
0.155636677
 40
0.3032737908
 40
0.5688233258
 40
0.6871263767
 40
0.7968617698
 40
0.9001590393
 40
1.0
 40
1.0
 40
1.0
 40
1.0
 10
17.7217418419
 20
10.7887486816
 30
0.0
 10
17.7232295353
 20
10.7887486816
 30
0.0
 10
17.726131885
 20
10.78887864
 30
0.0
 10
17.7315158939
 20
10.7896552041
 30
0.0
 10
17.7364302897
 20
10.7912003795
 30
0.0
 10
17.740500458
 20
10.7936255783
 30
0.0
 10
17.7429038006
 20
10.7957186869
 30
0.0
 10
17.7447264195
 20
10.7981184301
 30
0.0
 10
17.7455228877
 20
10.7999126477
 30
0.0
 10
17.7458039868
 20
10.8008246663
 30
0.0
  0
SPLINE
  5
2EB
100
AcDbEntity
  8
0
100
AcDbSpline
 62
7
  6
CONTINUOUS
 70
0
 71
3
 72
15
 73
11
 74
0
 42
0.0000001
 43
0.0000001
 44
0.0000000001
 40
0.0
 40
0.0
 40
0.0
 40
0.0
 40
0.1105338986
 40
0.2292508778
 40
0.3542399302
 40
0.4835313654
 40
0.6150314629
 40
0.7465308645
 40
0.8757271195
 40
1.0
 40
1.0
 40
1.0
 40
1.0
 10
17.5620588304
 20
10.8055982723
 30
0.0
 10
17.5631834114
 20
10.8043513842
 30
0.0
 10
17.5657103242
 20
10.8019375351
 30
0.0
 10
17.5700266403
 20
10.7987063104
 30
0.0
 10
17.5749130002
 20
10.7958172986
 30
0.0
 10
17.5802338946
 20
10.7933402369
 30
0.0
 10
17.5858569799
 20
10.7913414598
 30
0.0
 10
17.5916387282
 20
10.7898676603
 30
0.0
 10
17.5974253736
 20
10.7889662205
 30
0.0
 10
17.6012779159
 20
10.7887486816
 30
0.0
 10
17.6031657341
 20
10.7887486816
 30
0.0
  0
SPLINE
  5
2EC
100
AcDbEntity
  8
0
100
AcDbSpline
 62
7
  6
CONTINUOUS
 70
0
 71
3
 72
14
 73
10
 74
0
 42
0.0000001
 43
0.0000001
 44
0.0000000001
 40
0.0
 40
0.0
 40
0.0
 40
0.0
 40
0.155636677
 40
0.3032737908
 40
0.5688233258
 40
0.6871263767
 40
0.7968617698
 40
0.9001590393
 40
1.0
 40
1.0
 40
1.0
 40
1.0
 10
17.3809492741
 20
10.7887486816
 30
0.0
 10
17.3824369675
 20
10.7887486816
 30
0.0
 10
17.3853393172
 20
10.78887864
 30
0.0
 10
17.3907233261
 20
10.7896552041
 30
0.0
 10
17.3956377219
 20
10.7912003795
 30
0.0
 10
17.3997078903
 20
10.7936255783
 30
0.0
 10
17.4021112328
 20
10.7957186869
 30
0.0
 10
17.4039338517
 20
10.7981184301
 30
0.0
 10
17.40473032
 20
10.7999126477
 30
0.0
 10
17.405011419
 20
10.8008246663
 30
0.0
  0
SPLINE
  5
2ED
100
AcDbEntity
  8
0
100
AcDbSpline
 62
7
  6
CONTINUOUS
 70
0
 71
3
 72
15
 73
11
 74
0
 42
0.0000001
 43
0.0000001
 44
0.0000000001
 40
0.0
 40
0.0
 40
0.0
 40
0.0
 40
0.1105338986
 40
0.2292508778
 40
0.3542399302
 40
0.4835313654
 40
0.6150314629
 40
0.7465308645
 40
0.8757271195
 40
1.0
 40
1.0
 40
1.0
 40
1.0
 10
17.2212662627
 20
10.8055982723
 30
0.0
 10
17.2223908436
 20
10.8043513842
 30
0.0
 10
17.2249177564
 20
10.8019375351
 30
0.0
 10
17.2292340725
 20
10.7987063104
 30
0.0
 10
17.2341204325
 20
10.7958172986
 30
0.0
 10
17.2394413268
 20
10.7933402369
 30
0.0
 10
17.2450644122
 20
10.7913414598
 30
0.0
 10
17.2508461604
 20
10.7898676603
 30
0.0
 10
17.2566328058
 20
10.7889662205
 30
0.0
 10
17.2604853481
 20
10.7887486816
 30
0.0
 10
17.2623731663
 20
10.7887486816
 30
0.0
  0
SPLINE
  5
2EE
100
AcDbEntity
  8
0
100
AcDbSpline
 62
7
  6
CONTINUOUS
 70
0
 71
3
 72
14
 73
10
 74
0
 42
0.0000001
 43
0.0000001
 44
0.0000000001
 40
0.0
 40
0.0
 40
0.0
 40
0.0
 40
0.155636677
 40
0.3032737908
 40
0.5688233258
 40
0.6871263767
 40
0.7968617698
 40
0.9001590393
 40
1.0
 40
1.0
 40
1.0
 40
1.0
 10
17.0401567064
 20
10.7887486816
 30
0.0
 10
17.0416443998
 20
10.7887486816
 30
0.0
 10
17.0445467494
 20
10.78887864
 30
0.0
 10
17.0499307583
 20
10.7896552041
 30
0.0
 10
17.0548451541
 20
10.7912003795
 30
0.0
 10
17.0589153225
 20
10.7936255783
 30
0.0
 10
17.061318665
 20
10.7957186869
 30
0.0
 10
17.063141284
 20
10.7981184301
 30
0.0
 10
17.0639377522
 20
10.7999126477
 30
0.0
 10
17.0642188512
 20
10.8008246663
 30
0.0
  0
SPLINE
  5
2EF
100
AcDbEntity
  8
0
100
AcDbSpline
 62
7
  6
CONTINUOUS
 70
0
 71
3
 72
15
 73
11
 74
0
 42
0.0000001
 43
0.0000001
 44
0.0000000001
 40
0.0
 40
0.0
 40
0.0
 40
0.0
 40
0.1105338986
 40
0.2292508778
 40
0.3542399302
 40
0.4835313654
 40
0.6150314629
 40
0.7465308645
 40
0.8757271195
 40
1.0
 40
1.0
 40
1.0
 40
1.0
 10
16.8804736949
 20
10.8055982723
 30
0.0
 10
16.8815982758
 20
10.8043513842
 30
0.0
 10
16.8841251887
 20
10.8019375351
 30
0.0
 10
16.8884415048
 20
10.7987063104
 30
0.0
 10
16.8933278647
 20
10.7958172986
 30
0.0
 10
16.898648759
 20
10.7933402369
 30
0.0
 10
16.9042718444
 20
10.7913414598
 30
0.0
 10
16.9100535926
 20
10.7898676603
 30
0.0
 10
16.915840238
 20
10.7889662205
 30
0.0
 10
16.9196927803
 20
10.7887486816
 30
0.0
 10
16.9215805985
 20
10.7887486816
 30
0.0
  0
SPLINE
  5
2F0
100
AcDbEntity
  8
0
100
AcDbSpline
 62
7
  6
CONTINUOUS
 70
0
 71
3
 72
14
 73
10
 74
0
 42
0.0000001
 43
0.0000001
 44
0.0000000001
 40
0.0
 40
0.0
 40
0.0
 40
0.0
 40
0.155636677
 40
0.3032737908
 40
0.5688233258
 40
0.6871263767
 40
0.7968617698
 40
0.9001590393
 40
1.0
 40
1.0
 40
1.0
 40
1.0
 10
16.6993641386
 20
10.7887486816
 30
0.0
 10
16.700851832
 20
10.7887486816
 30
0.0
 10
16.7037541817
 20
10.78887864
 30
0.0
 10
16.7091381906
 20
10.7896552041
 30
0.0
 10
16.7140525863
 20
10.7912003795
 30
0.0
 10
16.7181227547
 20
10.7936255783
 30
0.0
 10
16.7205260972
 20
10.7957186869
 30
0.0
 10
16.7223487162
 20
10.7981184301
 30
0.0
 10
16.7231451844
 20
10.7999126477
 30
0.0
 10
16.7234262834
 20
10.8008246663
 30
0.0
  0
SPLINE
  5
2F1
100
AcDbEntity
  8
0
100
AcDbSpline
 62
7
  6
CONTINUOUS
 70
0
 71
3
 72
15
 73
11
 74
0
 42
0.0000001
 43
0.0000001
 44
0.0000000001
 40
0.0
 40
0.0
 40
0.0
 40
0.0
 40
0.1105338986
 40
0.2292508778
 40
0.3542399302
 40
0.4835313654
 40
0.6150314629
 40
0.7465308645
 40
0.8757271195
 40
1.0
 40
1.0
 40
1.0
 40
1.0
 10
16.5396811271
 20
10.8055982723
 30
0.0
 10
16.540805708
 20
10.8043513842
 30
0.0
 10
16.5433326209
 20
10.8019375351
 30
0.0
 10
16.547648937
 20
10.7987063104
 30
0.0
 10
16.5525352969
 20
10.7958172986
 30
0.0
 10
16.5578561912
 20
10.7933402369
 30
0.0
 10
16.5634792766
 20
10.7913414598
 30
0.0
 10
16.5692610248
 20
10.7898676603
 30
0.0
 10
16.5750476702
 20
10.7889662205
 30
0.0
 10
16.5789002126
 20
10.7887486816
 30
0.0
 10
16.5807880307
 20
10.7887486816
 30
0.0
  0
SPLINE
  5
2F2
100
AcDbEntity
  8
0
100
AcDbSpline
 62
7
  6
CONTINUOUS
 70
0
 71
3
 72
14
 73
10
 74
0
 42
0.0000001
 43
0.0000001
 44
0.0000000001
 40
0.0
 40
0.0
 40
0.0
 40
0.0
 40
0.155636677
 40
0.3032737908
 40
0.5688233258
 40
0.6871263767
 40
0.7968617698
 40
0.9001590393
 40
1.0
 40
1.0
 40
1.0
 40
1.0
 10
16.3585715708
 20
10.7887486816
 30
0.0
 10
16.3600592642
 20
10.7887486816
 30
0.0
 10
16.3629616139
 20
10.78887864
 30
0.0
 10
16.3683456228
 20
10.7896552041
 30
0.0
 10
16.3732600185
 20
10.7912003795
 30
0.0
 10
16.3773301869
 20
10.7936255783
 30
0.0
 10
16.3797335294
 20
10.7957186869
 30
0.0
 10
16.3815561484
 20
10.7981184301
 30
0.0
 10
16.3823526166
 20
10.7999126477
 30
0.0
 10
16.3826337157
 20
10.8008246663
 30
0.0
  0
SPLINE
  5
2F3
100
AcDbEntity
  8
0
100
AcDbSpline
 62
7
  6
CONTINUOUS
 70
0
 71
3
 72
15
 73
11
 74
0
 42
0.0000001
 43
0.0000001
 44
0.0000000001
 40
0.0
 40
0.0
 40
0.0
 40
0.0
 40
0.1105338986
 40
0.2292508778
 40
0.3542399302
 40
0.4835313654
 40
0.6150314629
 40
0.7465308645
 40
0.8757271195
 40
1.0
 40
1.0
 40
1.0
 40
1.0
 10
16.1988885593
 20
10.8055982723
 30
0.0
 10
16.2000131402
 20
10.8043513842
 30
0.0
 10
16.2025400531
 20
10.8019375351
 30
0.0
 10
16.2068563692
 20
10.7987063104
 30
0.0
 10
16.2117427291
 20
10.7958172986
 30
0.0
 10
16.2170636234
 20
10.7933402369
 30
0.0
 10
16.2226867088
 20
10.7913414598
 30
0.0
 10
16.2284684571
 20
10.7898676603
 30
0.0
 10
16.2342551024
 20
10.7889662205
 30
0.0
 10
16.2381076448
 20
10.7887486816
 30
0.0
 10
16.239995463
 20
10.7887486816
 30
0.0
  0
SPLINE
  5
2F4
100
AcDbEntity
  8
0
100
AcDbSpline
 62
7
  6
CONTINUOUS
 70
0
 71
3
 72
14
 73
10
 74
0
 42
0.0000001
 43
0.0000001
 44
0.0000000001
 40
0.0
 40
0.0
 40
0.0
 40
0.0
 40
0.155636677
 40
0.3032737908
 40
0.5688233258
 40
0.6871263767
 40
0.7968617698
 40
0.9001590393
 40
1.0
 40
1.0
 40
1.0
 40
1.0
 10
16.017779003
 20
10.7887486816
 30
0.0
 10
16.0192666964
 20
10.7887486816
 30
0.0
 10
16.0221690461
 20
10.78887864
 30
0.0
 10
16.027553055
 20
10.7896552041
 30
0.0
 10
16.0324674508
 20
10.7912003795
 30
0.0
 10
16.0365376191
 20
10.7936255783
 30
0.0
 10
16.0389409617
 20
10.7957186869
 30
0.0
 10
16.0407635806
 20
10.7981184301
 30
0.0
 10
16.0415600488
 20
10.7999126477
 30
0.0
 10
16.0418411479
 20
10.8008246663
 30
0.0
  0
SPLINE
  5
2F5
100
AcDbEntity
  8
0
100
AcDbSpline
 62
7
  6
CONTINUOUS
 70
0
 71
3
 72
15
 73
11
 74
0
 42
0.0000001
 43
0.0000001
 44
0.0000000001
 40
0.0
 40
0.0
 40
0.0
 40
0.0
 40
0.1105338986
 40
0.2292508778
 40
0.3542399302
 40
0.4835313654
 40
0.6150314629
 40
0.7465308645
 40
0.8757271195
 40
1.0
 40
1.0
 40
1.0
 40
1.0
 10
15.8580959915
 20
10.8055982723
 30
0.0
 10
15.8592205725
 20
10.8043513842
 30
0.0
 10
15.8617474853
 20
10.8019375351
 30
0.0
 10
15.8660638014
 20
10.7987063104
 30
0.0
 10
15.8709501613
 20
10.7958172986
 30
0.0
 10
15.8762710557
 20
10.7933402369
 30
0.0
 10
15.881894141
 20
10.7913414598
 30
0.0
 10
15.8876758893
 20
10.7898676603
 30
0.0
 10
15.8934625346
 20
10.7889662205
 30
0.0
 10
15.897315077
 20
10.7887486816
 30
0.0
 10
15.8992028952
 20
10.7887486816
 30
0.0
  0
SPLINE
  5
2F6
100
AcDbEntity
  8
0
100
AcDbSpline
 62
7
  6
CONTINUOUS
 70
0
 71
3
 72
14
 73
10
 74
0
 42
0.0000001
 43
0.0000001
 44
0.0000000001
 40
0.0
 40
0.0
 40
0.0
 40
0.0
 40
0.155636677
 40
0.3032737908
 40
0.5688233258
 40
0.6871263767
 40
0.7968617698
 40
0.9001590393
 40
1.0
 40
1.0
 40
1.0
 40
1.0
 10
15.6769864352
 20
10.7887486816
 30
0.0
 10
15.6784741286
 20
10.7887486816
 30
0.0
 10
15.6813764783
 20
10.78887864
 30
0.0
 10
15.6867604872
 20
10.7896552041
 30
0.0
 10
15.691674883
 20
10.7912003795
 30
0.0
 10
15.6957450513
 20
10.7936255783
 30
0.0
 10
15.6981483939
 20
10.7957186869
 30
0.0
 10
15.6999710128
 20
10.7981184301
 30
0.0
 10
15.7007674811
 20
10.7999126477
 30
0.0
 10
15.7010485801
 20
10.8008246663
 30
0.0
  0
SPLINE
  5
2F7
100
AcDbEntity
  8
0
100
AcDbSpline
 62
7
  6
CONTINUOUS
 70
0
 71
3
 72
15
 73
11
 74
0
 42
0.0000001
 43
0.0000001
 44
0.0000000001
 40
0.0
 40
0.0
 40
0.0
 40
0.0
 40
0.1105338986
 40
0.2292508778
 40
0.3542399302
 40
0.4835313654
 40
0.6150314629
 40
0.7465308645
 40
0.8757271195
 40
1.0
 40
1.0
 40
1.0
 40
1.0
 10
15.5173034238
 20
10.8055982723
 30
0.0
 10
15.5184280047
 20
10.8043513842
 30
0.0
 10
15.5209549175
 20
10.8019375351
 30
0.0
 10
15.5252712336
 20
10.7987063104
 30
0.0
 10
15.5301575936
 20
10.7958172986
 30
0.0
 10
15.5354784879
 20
10.7933402369
 30
0.0
 10
15.5411015732
 20
10.7913414598
 30
0.0
 10
15.5468833215
 20
10.7898676603
 30
0.0
 10
15.5526699669
 20
10.7889662205
 30
0.0
 10
15.5565225092
 20
10.7887486816
 30
0.0
 10
15.5584103274
 20
10.7887486816
 30
0.0
  0
SPLINE
  5
2F8
100
AcDbEntity
  8
0
100
AcDbSpline
 62
7
  6
CONTINUOUS
 70
0
 71
3
 72
14
 73
10
 74
0
 42
0.0000001
 43
0.0000001
 44
0.0000000001
 40
0.0
 40
0.0
 40
0.0
 40
0.0
 40
0.155636677
 40
0.3032737908
 40
0.5688233258
 40
0.6871263767
 40
0.7968617698
 40
0.9001590393
 40
1.0
 40
1.0
 40
1.0
 40
1.0
 10
15.3361938675
 20
10.7887486816
 30
0.0
 10
15.3376815609
 20
10.7887486816
 30
0.0
 10
15.3405839105
 20
10.78887864
 30
0.0
 10
15.3459679194
 20
10.7896552041
 30
0.0
 10
15.3508823152
 20
10.7912003795
 30
0.0
 10
15.3549524836
 20
10.7936255783
 30
0.0
 10
15.3573558261
 20
10.7957186869
 30
0.0
 10
15.3591784451
 20
10.7981184301
 30
0.0
 10
15.3599749133
 20
10.7999126477
 30
0.0
 10
15.3602560123
 20
10.8008246663
 30
0.0
  0
SPLINE
  5
2F9
100
AcDbEntity
  8
0
100
AcDbSpline
 62
7
  6
CONTINUOUS
 70
0
 71
3
 72
15
 73
11
 74
0
 42
0.0000001
 43
0.0000001
 44
0.0000000001
 40
0.0
 40
0.0
 40
0.0
 40
0.0
 40
0.1105338986
 40
0.2292508778
 40
0.3542399302
 40
0.4835313654
 40
0.6150314629
 40
0.7465308645
 40
0.8757271195
 40
1.0
 40
1.0
 40
1.0
 40
1.0
 10
15.176510856
 20
10.8055982723
 30
0.0
 10
15.1776354369
 20
10.8043513842
 30
0.0
 10
15.1801623498
 20
10.8019375351
 30
0.0
 10
15.1844786659
 20
10.7987063104
 30
0.0
 10
15.1893650258
 20
10.7958172986
 30
0.0
 10
15.1946859201
 20
10.7933402369
 30
0.0
 10
15.2003090055
 20
10.7913414598
 30
0.0
 10
15.2060907537
 20
10.7898676603
 30
0.0
 10
15.2118773991
 20
10.7889662205
 30
0.0
 10
15.2157299414
 20
10.7887486816
 30
0.0
 10
15.2176177596
 20
10.7887486816
 30
0.0
  0
SPLINE
  5
2FA
100
AcDbEntity
  8
0
100
AcDbSpline
 62
7
  6
CONTINUOUS
 70
0
 71
3
 72
14
 73
10
 74
0
 42
0.0000001
 43
0.0000001
 44
0.0000000001
 40
0.0
 40
0.0
 40
0.0
 40
0.0
 40
0.155636677
 40
0.3032737908
 40
0.5688233258
 40
0.6871263767
 40
0.7968617698
 40
0.9001590393
 40
1.0
 40
1.0
 40
1.0
 40
1.0
 10
14.9954012997
 20
10.7887486816
 30
0.0
 10
14.9968889931
 20
10.7887486816
 30
0.0
 10
14.9997913428
 20
10.78887864
 30
0.0
 10
15.0051753516
 20
10.7896552041
 30
0.0
 10
15.0100897474
 20
10.7912003795
 30
0.0
 10
15.0141599158
 20
10.7936255783
 30
0.0
 10
15.0165632583
 20
10.7957186869
 30
0.0
 10
15.0183858773
 20
10.7981184301
 30
0.0
 10
15.0191823455
 20
10.7999126477
 30
0.0
 10
15.0194634445
 20
10.8008246663
 30
0.0
  0
SPLINE
  5
2FB
100
AcDbEntity
  8
0
100
AcDbSpline
 62
7
  6
CONTINUOUS
 70
0
 71
3
 72
15
 73
11
 74
0
 42
0.0000001
 43
0.0000001
 44
0.0000000001
 40
0.0
 40
0.0
 40
0.0
 40
0.0
 40
0.1105338986
 40
0.2292508778
 40
0.3542399302
 40
0.4835313654
 40
0.6150314629
 40
0.7465308645
 40
0.8757271195
 40
1.0
 40
1.0
 40
1.0
 40
1.0
 10
14.8357182882
 20
10.8055982723
 30
0.0
 10
14.8368428691
 20
10.8043513842
 30
0.0
 10
14.839369782
 20
10.8019375351
 30
0.0
 10
14.8436860981
 20
10.7987063104
 30
0.0
 10
14.848572458
 20
10.7958172986
 30
0.0
 10
14.8538933523
 20
10.7933402369
 30
0.0
 10
14.8595164377
 20
10.7913414598
 30
0.0
 10
14.8652981859
 20
10.7898676603
 30
0.0
 10
14.8710848313
 20
10.7889662205
 30
0.0
 10
14.8749373737
 20
10.7887486816
 30
0.0
 10
14.8768251918
 20
10.7887486816
 30
0.0
  0
SPLINE
  5
2FC
100
AcDbEntity
  8
0
100
AcDbSpline
 62
7
  6
CONTINUOUS
 70
0
 71
3
 72
14
 73
10
 74
0
 42
0.0000001
 43
0.0000001
 44
0.0000000001
 40
0.0
 40
0.0
 40
0.0
 40
0.0
 40
0.155636677
 40
0.3032737908
 40
0.5688233258
 40
0.6871263767
 40
0.7968617698
 40
0.9001590393
 40
1.0
 40
1.0
 40
1.0
 40
1.0
 10
14.6546087319
 20
10.7887486816
 30
0.0
 10
14.6560964253
 20
10.7887486816
 30
0.0
 10
14.658998775
 20
10.78887864
 30
0.0
 10
14.6643827839
 20
10.7896552041
 30
0.0
 10
14.6692971796
 20
10.7912003795
 30
0.0
 10
14.673367348
 20
10.7936255783
 30
0.0
 10
14.6757706905
 20
10.7957186869
 30
0.0
 10
14.6775933095
 20
10.7981184301
 30
0.0
 10
14.6783897777
 20
10.7999126477
 30
0.0
 10
14.6786708767
 20
10.8008246663
 30
0.0
  0
SPLINE
  5
2FD
100
AcDbEntity
  8
0
100
AcDbSpline
 62
7
  6
CONTINUOUS
 70
0
 71
3
 72
15
 73
11
 74
0
 42
0.0000001
 43
0.0000001
 44
0.0000000001
 40
0.0
 40
0.0
 40
0.0
 40
0.0
 40
0.1105338986
 40
0.2292508778
 40
0.3542399302
 40
0.4835313654
 40
0.6150314629
 40
0.7465308645
 40
0.8757271195
 40
1.0
 40
1.0
 40
1.0
 40
1.0
 10
14.4949257204
 20
10.8055982723
 30
0.0
 10
14.4960503013
 20
10.8043513842
 30
0.0
 10
14.4985772142
 20
10.8019375351
 30
0.0
 10
14.5028935303
 20
10.7987063104
 30
0.0
 10
14.5077798902
 20
10.7958172986
 30
0.0
 10
14.5131007845
 20
10.7933402369
 30
0.0
 10
14.5187238699
 20
10.7913414598
 30
0.0
 10
14.5245056182
 20
10.7898676603
 30
0.0
 10
14.5302922635
 20
10.7889662205
 30
0.0
 10
14.5341448059
 20
10.7887486816
 30
0.0
 10
14.536032624
 20
10.7887486816
 30
0.0
  0
SPLINE
  5
2FE
100
AcDbEntity
  8
0
100
AcDbSpline
 62
7
  6
CONTINUOUS
 70
0
 71
3
 72
14
 73
10
 74
0
 42
0.0000001
 43
0.0000001
 44
0.0000000001
 40
0.0
 40
0.0
 40
0.0
 40
0.0
 40
0.155636677
 40
0.3032737908
 40
0.5688233258
 40
0.6871263767
 40
0.7968617698
 40
0.9001590393
 40
1.0
 40
1.0
 40
1.0
 40
1.0
 10
14.3138161641
 20
10.7887486816
 30
0.0
 10
14.3153038575
 20
10.7887486816
 30
0.0
 10
14.3182062072
 20
10.78887864
 30
0.0
 10
14.3235902161
 20
10.7896552041
 30
0.0
 10
14.3285046119
 20
10.7912003795
 30
0.0
 10
14.3325747802
 20
10.7936255783
 30
0.0
 10
14.3349781228
 20
10.7957186869
 30
0.0
 10
14.3368007417
 20
10.7981184301
 30
0.0
 10
14.3375972099
 20
10.7999126477
 30
0.0
 10
14.337878309
 20
10.8008246663
 30
0.0
  0
SPLINE
  5
2FF
100
AcDbEntity
  8
0
100
AcDbSpline
 62
7
  6
CONTINUOUS
 70
0
 71
3
 72
15
 73
11
 74
0
 42
0.0000001
 43
0.0000001
 44
0.0000000001
 40
0.0
 40
0.0
 40
0.0
 40
0.0
 40
0.1105338986
 40
0.2292508778
 40
0.3542399302
 40
0.4835313654
 40
0.6150314629
 40
0.7465308645
 40
0.8757271195
 40
1.0
 40
1.0
 40
1.0
 40
1.0
 10
14.1541331526
 20
10.8055982723
 30
0.0
 10
14.1552577336
 20
10.8043513842
 30
0.0
 10
14.1577846464
 20
10.8019375351
 30
0.0
 10
14.1621009625
 20
10.7987063104
 30
0.0
 10
14.1669873224
 20
10.7958172986
 30
0.0
 10
14.1723082168
 20
10.7933402369
 30
0.0
 10
14.1779313021
 20
10.7913414598
 30
0.0
 10
14.1837130504
 20
10.7898676603
 30
0.0
 10
14.1894996957
 20
10.7889662205
 30
0.0
 10
14.1933522381
 20
10.7887486816
 30
0.0
 10
14.1952400563
 20
10.7887486816
 30
0.0
  0
SPLINE
  5
300
100
AcDbEntity
  8
0
100
AcDbSpline
 62
7
  6
CONTINUOUS
 70
0
 71
3
 72
14
 73
10
 74
0
 42
0.0000001
 43
0.0000001
 44
0.0000000001
 40
0.0
 40
0.0
 40
0.0
 40
0.0
 40
0.155636677
 40
0.3032737908
 40
0.5688233258
 40
0.6871263767
 40
0.7968617698
 40
0.9001590393
 40
1.0
 40
1.0
 40
1.0
 40
1.0
 10
13.9730235963
 20
10.7887486816
 30
0.0
 10
13.9745112897
 20
10.7887486816
 30
0.0
 10
13.9774136394
 20
10.78887864
 30
0.0
 10
13.9827976483
 20
10.7896552041
 30
0.0
 10
13.9877120441
 20
10.7912003795
 30
0.0
 10
13.9917822124
 20
10.7936255783
 30
0.0
 10
13.994185555
 20
10.7957186869
 30
0.0
 10
13.9960081739
 20
10.7981184301
 30
0.0
 10
13.9968046422
 20
10.7999126477
 30
0.0
 10
13.9970857412
 20
10.8008246663
 30
0.0
  0
SPLINE
  5
301
100
AcDbEntity
  8
0
100
AcDbSpline
 62
7
  6
CONTINUOUS
 70
0
 71
3
 72
15
 73
11
 74
0
 42
0.0000001
 43
0.0000001
 44
0.0000000001
 40
0.0
 40
0.0
 40
0.0
 40
0.0
 40
0.1105338986
 40
0.2292508778
 40
0.3542399302
 40
0.4835313654
 40
0.6150314629
 40
0.7465308645
 40
0.8757271195
 40
1.0
 40
1.0
 40
1.0
 40
1.0
 10
13.8133405849
 20
10.8055982723
 30
0.0
 10
13.8144651658
 20
10.8043513842
 30
0.0
 10
13.8169920786
 20
10.8019375351
 30
0.0
 10
13.8213083947
 20
10.7987063104
 30
0.0
 10
13.8261947546
 20
10.7958172986
 30
0.0
 10
13.831515649
 20
10.7933402369
 30
0.0
 10
13.8371387343
 20
10.7913414598
 30
0.0
 10
13.8429204826
 20
10.7898676603
 30
0.0
 10
13.848707128
 20
10.7889662205
 30
0.0
 10
13.8525596703
 20
10.7887486816
 30
0.0
 10
13.8544474885
 20
10.7887486816
 30
0.0
  0
SPLINE
  5
302
100
AcDbEntity
  8
0
100
AcDbSpline
 62
7
  6
CONTINUOUS
 70
0
 71
3
 72
14
 73
10
 74
0
 42
0.0000001
 43
0.0000001
 44
0.0000000001
 40
0.0
 40
0.0
 40
0.0
 40
0.0
 40
0.155636677
 40
0.3032737908
 40
0.5688233258
 40
0.6871263767
 40
0.7968617698
 40
0.9001590393
 40
1.0
 40
1.0
 40
1.0
 40
1.0
 10
13.6322310286
 20
10.7887486816
 30
0.0
 10
13.633718722
 20
10.7887486816
 30
0.0
 10
13.6366210716
 20
10.78887864
 30
0.0
 10
13.6420050805
 20
10.7896552041
 30
0.0
 10
13.6469194763
 20
10.7912003795
 30
0.0
 10
13.6509896447
 20
10.7936255783
 30
0.0
 10
13.6533929872
 20
10.7957186869
 30
0.0
 10
13.6552156061
 20
10.7981184301
 30
0.0
 10
13.6560120744
 20
10.7999126477
 30
0.0
 10
13.6562931734
 20
10.8008246663
 30
0.0
  0
SPLINE
  5
303
100
AcDbEntity
  8
0
100
AcDbSpline
 62
7
  6
CONTINUOUS
 70
0
 71
3
 72
15
 73
11
 74
0
 42
0.0000001
 43
0.0000001
 44
0.0000000001
 40
0.0
 40
0.0
 40
0.0
 40
0.0
 40
0.1105338986
 40
0.2292508778
 40
0.3542399302
 40
0.4835313654
 40
0.6150314629
 40
0.7465308645
 40
0.8757271195
 40
1.0
 40
1.0
 40
1.0
 40
1.0
 10
13.4725480171
 20
10.8055982723
 30
0.0
 10
13.473672598
 20
10.8043513842
 30
0.0
 10
13.4761995108
 20
10.8019375351
 30
0.0
 10
13.4805158269
 20
10.7987063104
 30
0.0
 10
13.4854021869
 20
10.7958172986
 30
0.0
 10
13.4907230812
 20
10.7933402369
 30
0.0
 10
13.4963461666
 20
10.7913414598
 30
0.0
 10
13.5021279148
 20
10.7898676603
 30
0.0
 10
13.5079145602
 20
10.7889662205
 30
0.0
 10
13.5117671025
 20
10.7887486816
 30
0.0
 10
13.5136549207
 20
10.7887486816
 30
0.0
  0
SPLINE
  5
304
100
AcDbEntity
  8
0
100
AcDbSpline
 62
7
  6
CONTINUOUS
 70
0
 71
3
 72
14
 73
10
 74
0
 42
0.0000001
 43
0.0000001
 44
0.0000000001
 40
0.0
 40
0.0
 40
0.0
 40
0.0
 40
0.155636677
 40
0.3032737908
 40
0.5688233258
 40
0.6871263767
 40
0.7968617698
 40
0.9001590393
 40
1.0
 40
1.0
 40
1.0
 40
1.0
 10
13.2914384608
 20
10.7887486816
 30
0.0
 10
13.2929261542
 20
10.7887486816
 30
0.0
 10
13.2958285038
 20
10.78887864
 30
0.0
 10
13.3012125127
 20
10.7896552041
 30
0.0
 10
13.3061269085
 20
10.7912003795
 30
0.0
 10
13.3101970769
 20
10.7936255783
 30
0.0
 10
13.3126004194
 20
10.7957186869
 30
0.0
 10
13.3144230384
 20
10.7981184301
 30
0.0
 10
13.3152195066
 20
10.7999126477
 30
0.0
 10
13.3155006056
 20
10.8008246663
 30
0.0
  0
SPLINE
  5
305
100
AcDbEntity
  8
0
100
AcDbSpline
 62
7
  6
CONTINUOUS
 70
0
 71
3
 72
15
 73
11
 74
0
 42
0.0000001
 43
0.0000001
 44
0.0000000001
 40
0.0
 40
0.0
 40
0.0
 40
0.0
 40
0.1105338986
 40
0.2292508778
 40
0.3542399302
 40
0.4835313654
 40
0.6150314629
 40
0.7465308645
 40
0.8757271195
 40
1.0
 40
1.0
 40
1.0
 40
1.0
 10
13.1317554493
 20
10.8055982723
 30
0.0
 10
13.1328800302
 20
10.8043513842
 30
0.0
 10
13.1354069431
 20
10.8019375351
 30
0.0
 10
13.1397232592
 20
10.7987063104
 30
0.0
 10
13.1446096191
 20
10.7958172986
 30
0.0
 10
13.1499305134
 20
10.7933402369
 30
0.0
 10
13.1555535988
 20
10.7913414598
 30
0.0
 10
13.161335347
 20
10.7898676603
 30
0.0
 10
13.1671219924
 20
10.7889662205
 30
0.0
 10
13.1709745348
 20
10.7887486816
 30
0.0
 10
13.1728623529
 20
10.7887486816
 30
0.0
  0
SPLINE
  5
306
100
AcDbEntity
  8
0
100
AcDbSpline
 62
7
  6
CONTINUOUS
 70
0
 71
3
 72
14
 73
10
 74
0
 42
0.0000001
 43
0.0000001
 44
0.0000000001
 40
0.0
 40
0.0
 40
0.0
 40
0.0
 40
0.155636677
 40
0.3032737908
 40
0.5688233258
 40
0.6871263767
 40
0.7968617698
 40
0.9001590393
 40
1.0
 40
1.0
 40
1.0
 40
1.0
 10
12.950645893
 20
10.7887486816
 30
0.0
 10
12.9521335864
 20
10.7887486816
 30
0.0
 10
12.9550359361
 20
10.78887864
 30
0.0
 10
12.960419945
 20
10.7896552041
 30
0.0
 10
12.9653343407
 20
10.7912003795
 30
0.0
 10
12.9694045091
 20
10.7936255783
 30
0.0
 10
12.9718078516
 20
10.7957186869
 30
0.0
 10
12.9736304706
 20
10.7981184301
 30
0.0
 10
12.9744269388
 20
10.7999126477
 30
0.0
 10
12.9747080378
 20
10.8008246663
 30
0.0
  0
SPLINE
  5
307
100
AcDbEntity
  8
0
100
AcDbSpline
 62
7
  6
CONTINUOUS
 70
0
 71
3
 72
15
 73
11
 74
0
 42
0.0000001
 43
0.0000001
 44
0.0000000001
 40
0.0
 40
0.0
 40
0.0
 40
0.0
 40
0.1105338986
 40
0.2292508778
 40
0.3542399302
 40
0.4835313654
 40
0.6150314629
 40
0.7465308645
 40
0.8757271195
 40
1.0
 40
1.0
 40
1.0
 40
1.0
 10
12.7909628815
 20
10.8055982723
 30
0.0
 10
12.7920874624
 20
10.8043513842
 30
0.0
 10
12.7946143753
 20
10.8019375351
 30
0.0
 10
12.7989306914
 20
10.7987063104
 30
0.0
 10
12.8038170513
 20
10.7958172986
 30
0.0
 10
12.8091379456
 20
10.7933402369
 30
0.0
 10
12.814761031
 20
10.7913414598
 30
0.0
 10
12.8205427793
 20
10.7898676603
 30
0.0
 10
12.8263294246
 20
10.7889662205
 30
0.0
 10
12.830181967
 20
10.7887486816
 30
0.0
 10
12.8320697851
 20
10.7887486816
 30
0.0
  0
SPLINE
  5
308
100
AcDbEntity
  8
0
100
AcDbSpline
 62
7
  6
CONTINUOUS
 70
0
 71
3
 72
14
 73
10
 74
0
 42
0.0000001
 43
0.0000001
 44
0.0000000001
 40
0.0
 40
0.0
 40
0.0
 40
0.0
 40
0.155636677
 40
0.3032737908
 40
0.5688233258
 40
0.6871263767
 40
0.7968617698
 40
0.9001590393
 40
1.0
 40
1.0
 40
1.0
 40
1.0
 10
12.6098533252
 20
10.7887486816
 30
0.0
 10
12.6113410186
 20
10.7887486816
 30
0.0
 10
12.6142433683
 20
10.78887864
 30
0.0
 10
12.6196273772
 20
10.7896552041
 30
0.0
 10
12.624541773
 20
10.7912003795
 30
0.0
 10
12.6286119413
 20
10.7936255783
 30
0.0
 10
12.6310152839
 20
10.7957186869
 30
0.0
 10
12.6328379028
 20
10.7981184301
 30
0.0
 10
12.633634371
 20
10.7999126477
 30
0.0
 10
12.6339154701
 20
10.8008246663
 30
0.0
  0
SPLINE
  5
309
100
AcDbEntity
  8
0
100
AcDbSpline
 62
7
  6
CONTINUOUS
 70
0
 71
3
 72
15
 73
11
 74
0
 42
0.0000001
 43
0.0000001
 44
0.0000000001
 40
0.0
 40
0.0
 40
0.0
 40
0.0
 40
0.1105338986
 40
0.2292508778
 40
0.3542399302
 40
0.4835313654
 40
0.6150314629
 40
0.7465308645
 40
0.8757271195
 40
1.0
 40
1.0
 40
1.0
 40
1.0
 10
12.4501703137
 20
10.8055982723
 30
0.0
 10
12.4512948947
 20
10.8043513842
 30
0.0
 10
12.4538218075
 20
10.8019375351
 30
0.0
 10
12.4581381236
 20
10.7987063104
 30
0.0
 10
12.4630244835
 20
10.7958172986
 30
0.0
 10
12.4683453778
 20
10.7933402369
 30
0.0
 10
12.4739684632
 20
10.7913414598
 30
0.0
 10
12.4797502115
 20
10.7898676603
 30
0.0
 10
12.4855368568
 20
10.7889662205
 30
0.0
 10
12.4893893992
 20
10.7887486816
 30
0.0
 10
12.4912772174
 20
10.7887486816
 30
0.0
  0
SPLINE
  5
30A
100
AcDbEntity
  8
0
100
AcDbSpline
 62
7
  6
CONTINUOUS
 70
0
 71
3
 72
14
 73
10
 74
0
 42
0.0000001
 43
0.0000001
 44
0.0000000001
 40
0.0
 40
0.0
 40
0.0
 40
0.0
 40
0.155636677
 40
0.3032737908
 40
0.5688233258
 40
0.6871263767
 40
0.7968617698
 40
0.9001590393
 40
1.0
 40
1.0
 40
1.0
 40
1.0
 10
12.2690607574
 20
10.7887486816
 30
0.0
 10
12.2705484508
 20
10.7887486816
 30
0.0
 10
12.2734508005
 20
10.78887864
 30
0.0
 10
12.2788348094
 20
10.7896552041
 30
0.0
 10
12.2837492052
 20
10.7912003795
 30
0.0
 10
12.2878193735
 20
10.7936255783
 30
0.0
 10
12.2902227161
 20
10.7957186869
 30
0.0
 10
12.292045335
 20
10.7981184301
 30
0.0
 10
12.2928418032
 20
10.7999126477
 30
0.0
 10
12.2931229023
 20
10.8008246663
 30
0.0
  0
SPLINE
  5
30B
100
AcDbEntity
  8
0
100
AcDbSpline
 62
7
  6
CONTINUOUS
 70
0
 71
3
 72
15
 73
11
 74
0
 42
0.0000001
 43
0.0000001
 44
0.0000000001
 40
0.0
 40
0.0
 40
0.0
 40
0.0
 40
0.1105338986
 40
0.2292508778
 40
0.3542399302
 40
0.4835313654
 40
0.6150314629
 40
0.7465308645
 40
0.8757271195
 40
1.0
 40
1.0
 40
1.0
 40
1.0
 10
12.1093777459
 20
10.8055982723
 30
0.0
 10
12.1105023269
 20
10.8043513842
 30
0.0
 10
12.1130292397
 20
10.8019375351
 30
0.0
 10
12.1173455558
 20
10.7987063104
 30
0.0
 10
12.1222319157
 20
10.7958172986
 30
0.0
 10
12.1275528101
 20
10.7933402369
 30
0.0
 10
12.1331758954
 20
10.7913414598
 30
0.0
 10
12.1389576437
 20
10.7898676603
 30
0.0
 10
12.1447442891
 20
10.7889662205
 30
0.0
 10
12.1485968314
 20
10.7887486816
 30
0.0
 10
12.1504846496
 20
10.7887486816
 30
0.0
  0
ENDSEC
  0
SECTION
  2
OBJECTS
  0
DICTIONARY
  5
C
100
AcDbDictionary
280
0
281
1
  3
ACAD_GROUP
350
D
  3
ACAD_MLINESTYLE
350
17
  3
ACAD_LAYOUT
350
1A
  3
ACAD_PLOTSETTINGS
350
19
  3
ACAD_PLOTSTYLENAME
350
E
  0
DICTIONARY
  5
D
102
{ACAD_REACTORS
330
C
102
}
100
AcDbDictionary
280
0
281
1
  0
ACDBDICTIONARYWDFLT
  5
E
102
{ACAD_REACTORS
330
C
102
}
100
AcDbDictionary
281
1
  3
Normal
350
F
100
AcDbDictionaryWithDefault
340
F
  0
DICTIONARY
  5
17
102
{ACAD_REACTORS
330
C
102
}
100
AcDbDictionary
280
0
281
1
  3
Standard
350
18
  0
DICTIONARY
  5
19
102
{ACAD_REACTORS
330
C
102
}
100
AcDbDictionary
281
1
  0
DICTIONARY
  5
1A
102
{ACAD_REACTORS
330
C
102
}
100
AcDbDictionary
281
1
  3
Model
350
30C
  3
Layout1
350
30D
  0
ACDBPLACEHOLDER
  5
F
102
{ACAD_REACTORS
330
E
102
}
  0
MLINESTYLE
  5
18
102
{ACAD_REACTORS
330
17
102
}
100
AcDbMlineStyle
  2
STANDARD
 70
0
  3

 62
256
 51
90.0
 52
90.0
 71
2
 49
0.5
 62
256
  6
BYLAYER
 49
-0.5
 62
256
  6
BYLAYER
  0
LAYOUT
  5
30C
102
{ACAD_REACTORS
330
1A
102
}
100
AcDbPlotSettings
  1

  2
none_device
  4
ANSI_C_(22.00_x_17.00_Inches)
  6

 40
0.0
 41
0.0
 42
0.0
 43
0.0
 44
558.8
 45
431.8
 46
0.0
 47
0.0
 48
0.0
 49
0.0
140
0.0
141
0.0
142
1.0
143
1.0
 70
1024
 72
0
 73
0
 74
0
  7

 75
0
147
1.0
148
0.0
149
0.0
100
AcDbLayout
  1
Model
 70
0
 71
0
 10
0.0
 20
0.0
 11
22.0
 21
17.0
 12
0.0
 22
0.0
 32
0.0
 14
0.0
 24
0.0
 34
0.0
 15
0.0
 25
0.0
 35
0.0
146
0.0
 13
0.0
 23
0.0
 33
0.0
 16
1.0
 26
0.0
 36
0.0
 17
0.0
 27
1.0
 37
0.0
 76
0
330
216
345
0
346
0
  0
LAYOUT
  5
30D
102
{ACAD_REACTORS
330
1A
102
}
100
AcDbPlotSettings
  1

  2
none_device
  4
ANSI_C_(22.00_x_17.00_Inches)
  6

 40
0.0
 41
0.0
 42
0.0
 43
0.0
 44
558.8
 45
431.8
 46
0.0
 47
0.0
 48
0.0
 49
0.0
140
0.0
141
0.0
142
1.0
143
1.0
 70
0
 72
0
 73
0
 74
0
  7

 75
0
147
1.0
148
0.0
149
0.0
100
AcDbLayout
  1
Layout1
 70
0
 71
1
 10
0.0
 20
0.0
 11
22.0
 21
17.0
 12
0.0
 22
0.0
 32
0.0
 14
0.0
 24
0.0
 34
0.0
 15
0.0
 25
0.0
 35
0.0
146
0.0
 13
0.0
 23
0.0
 33
0.0
 16
1.0
 26
0.0
 36
0.0
 17
0.0
 27
1.0
 37
0.0
 76
0
330
217
345
0
346
0
  0
ENDSEC
  0
EOF