999
DXF file: _cgs_temp_output.dxf
999
Pro/ENGINEER 2016360 by Parametric Technology Corporation
  0
SECTION
  2
HEADER
  9
$ACADVER
  1
AC1021
  9
$DWGCODEPAGE
  3
ANSI_1252
  9
$EXTMAX
 10
22.0
 20
17.0
 30
0.0
  9
$EXTMIN
 10
0.0
 20
0.0
 30
0.0
  9
$LIMMIN
 10
0.0
 20
0.0
  9
$LIMMAX
 10
22.0
 20
17.0
  9
$VIEWCTR
 10
11.0
 20
8.5
  9
$VIEWSIZE
 40
17.0
  9
$CLAYER
  8
0
  9
$LTSCALE
 40
1.21
  9
$CELTYPE
  6
BYLAYER
  9
$DIMSCALE
 40
1.0
  9
$DIMASZ
 40
0.1875
  9
$DIMEXO
 40
0.0625
  9
$DIMDLI
 40
0.836
  9
$DIMEXE
 40
0.125
  9
$DIMCEN
 40
0.198
  9
$DIMLFAC
 40
1.0
  9
$DIMBLK
  1
_CLOSED
  9
$DIMALT
 70
0
  9
$DIMALTF
 40
25.4
  9
$DIMTXT
 40
0.15625
  9
$DIMTOL
 70
0
  9
$DIMLIM
 70
0
  9
$DIMTFAC
 40
1.0
  9
$DIMGAP
 40
0.09
  9
$DIMDSEP
 70
46
  9
$AUNITS
 70
0
  9
$PDMODE
 70
3
  9
$PDSIZE
 40
0.3125
  9
$HANDSEED
  5
37D
  9
$TILEMODE
 70
1
  9
$MEASUREMENT
 70
0
  9
$INSUNITS
 70
1
  0
ENDSEC
  0
SECTION
  2
CLASSES
  0
CLASS
  1
ACDBDICTIONARYWDFLT
  2
AcDbDictionaryWithDefault
  3
AutoCAD 2000
 90
0
 91
1
280
0
281
0
  0
CLASS
  1
ACDBPLACEHOLDER
  2
AcDbPlaceHolder
  3
AutoCAD 2000
 90
0
 91
1
280
0
281
0
  0
CLASS
  1
LAYOUT
  2
AcDbLayout
  3
AutoCAD 2000
 90
0
 91
0
280
0
281
0
  0
ENDSEC
  0
SECTION
  2
TABLES
  0
TABLE
  2
VPORT
  5
8
100
AcDbSymbolTable
 70
2
  0
VPORT
  5
1F4
100
AcDbSymbolTableRecord
100
AcDbViewportTableRecord
  2
*ACTIVE
 70
0
 10
0.0
 20
0.0
 11
1.0
 21
1.0
 12
11.0
 22
8.5
 13
0.0
 23
0.0
 14
1.0
 24
1.0
 15
0.0
 25
0.0
 16
0.0
 26
0.0
 36
1.0
 17
0.0
 27
0.0
 37
0.0
 40
17.0
 41
1.2941176471
 42
50.0
 43
0.0
 44
0.0
 50
0.0
 51
0.0
 71
0
 72
100
 73
1
 74
1
 75
0
 76
0
 77
0
 78
0
  0
ENDTAB
  0
TABLE
  2
LTYPE
  5
5
100
AcDbSymbolTable
 70
6
  0
LTYPE
  5
14
100
AcDbSymbolTableRecord
100
AcDbLinetypeTableRecord
  2
BYBLOCK
 70
0
  3

 72
65
 73
0
 40
0.0
  0
LTYPE
  5
15
100
AcDbSymbolTableRecord
100
AcDbLinetypeTableRecord
  2
BYLAYER
 70
0
  3

 72
65
 73
0
 40
0.0
  0
LTYPE
  5
16
100
AcDbSymbolTableRecord
100
AcDbLinetypeTableRecord
  2
CONTINUOUS
 70
64
  3
Solid line
 72
65
 73
0
 40
0.0
  0
LTYPE
  5
1F5
100
AcDbSymbolTableRecord
100
AcDbLinetypeTableRecord
  2
CENTER
 70
64
  3
____ _ ____ _ ____ _ ____ _ ____ _ ____ _ ____
 72
65
 73
4
 40
0.6
 49
0.375
 74
0
 49
-0.075
 74
0
 49
0.075
 74
0
 49
-0.075
 74
0
  0
LTYPE
  5
1F6
100
AcDbSymbolTableRecord
100
AcDbLinetypeTableRecord
  2
HIDDEN
 70
64
  3
- - - - - - - - - - - - - - - - - - - -
 72
65
 73
2
 40
0.2
 49
0.1
 74
0
 49
-0.1
 74
0
  0
LTYPE
  5
1F7
100
AcDbSymbolTableRecord
100
AcDbLinetypeTableRecord
  2
PHANTOM
 70
64
  3
_____ _ _ _____ _ _ _____ _ _ _____
 72
65
 73
6
 40
0.8
 49
0.45
 74
0
 49
-0.05
 74
0
 49
0.1
 74
0
 49
-0.05
 74
0
 49
0.1
 74
0
 49
-0.05
 74
0
  0
LTYPE
  5
1F8
100
AcDbSymbolTableRecord
100
AcDbLinetypeTableRecord
  2
DOT
 70
64
  3
. . . . . . . . . . . . . . . . . . . .
 72
65
 73
2
 40
0.2
 49
0.1
 74
0
 49
-0.1
 74
0
  0
LTYPE
  5
1F9
100
AcDbSymbolTableRecord
100
AcDbLinetypeTableRecord
  2
DASHED
 70
64
  3
- - - - - - - - - - - - - - - - - - - -
 72
65
 73
2
 40
0.2
 49
0.1
 74
0
 49
-0.1
 74
0
  0
ENDTAB
  0
TABLE
  2
LAYER
  5
2
100
AcDbSymbolTable
 70
36
  0
LAYER
  5
10
100
AcDbSymbolTableRecord
100
AcDbLayerTableRecord
  2
0
 70
0
 62
7
  6
CONTINUOUS
370
-3
390
F
  0
LAYER
  5
1FA
100
AcDbSymbolTableRecord
100
AcDbLayerTableRecord
  2
DEFAULT_1
 70
0
 62
7
  6
CENTER
370
-3
390
F
  0
LAYER
  5
1FB
100
AcDbSymbolTableRecord
100
AcDbLayerTableRecord
  2
DEFAULT_2
 70
0
 62
8
  6
HIDDEN
370
-3
390
F
  0
LAYER
  5
1FC
100
AcDbSymbolTableRecord
100
AcDbLayerTableRecord
  2
DEFAULT_3
 70
0
 62
7
  6
PHANTOM
370
-3
390
F
  0
LAYER
  5
1FD
100
AcDbSymbolTableRecord
100
AcDbLayerTableRecord
  2
01_ALL_DTM_PLN
 70
0
 62
7
  6
CONTINUOUS
370
-3
390
F
  0
LAYER
  5
1FE
100
AcDbSymbolTableRecord
100
AcDbLayerTableRecord
  2
01__ASM_ALL_DTM_PLN
 70
0
 62
7
  6
CONTINUOUS
370
-3
390
F
  0
LAYER
  5
1FF
100
AcDbSymbolTableRecord
100
AcDbLayerTableRecord
  2
01__ASM_DEF_DTM_PLN
 70
0
 62
7
  6
CONTINUOUS
370
-3
390
F
  0
LAYER
  5
200
100
AcDbSymbolTableRecord
100
AcDbLayerTableRecord
  2
01___PRT_ALL_DTM_PLN
 70
0
 62
7
  6
CONTINUOUS
370
-3
390
F
  0
LAYER
  5
201
100
AcDbSymbolTableRecord
100
AcDbLayerTableRecord
  2
01___PRT_DEF_DTM_PLN
 70
0
 62
7
  6
CONTINUOUS
370
-3
390
F
  0
LAYER
  5
202
100
AcDbSymbolTableRecord
100
AcDbLayerTableRecord
  2
02_ALL_AXES
 70
0
 62
7
  6
CONTINUOUS
370
-3
390
F
  0
LAYER
  5
203
100
AcDbSymbolTableRecord
100
AcDbLayerTableRecord
  2
02__ASM_ALL_AXES
 70
0
 62
7
  6
CONTINUOUS
370
-3
390
F
  0
LAYER
  5
204
100
AcDbSymbolTableRecord
100
AcDbLayerTableRecord
  2
02___PRT_ALL_AXES
 70
0
 62
7
  6
CONTINUOUS
370
-3
390
F
  0
LAYER
  5
205
100
AcDbSymbolTableRecord
100
AcDbLayerTableRecord
  2
03_ALL_CURVES
 70
0
 62
7
  6
CONTINUOUS
370
-3
390
F
  0
LAYER
  5
206
100
AcDbSymbolTableRecord
100
AcDbLayerTableRecord
  2
03__ASM_ALL_CURVES
 70
0
 62
7
  6
CONTINUOUS
370
-3
390
F
  0
LAYER
  5
207
100
AcDbSymbolTableRecord
100
AcDbLayerTableRecord
  2
03___PRT_ALL_CURVES
 70
0
 62
7
  6
CONTINUOUS
370
-3
390
F
  0
LAYER
  5
208
100
AcDbSymbolTableRecord
100
AcDbLayerTableRecord
  2
04_ALL_DTM_PNT
 70
0
 62
7
  6
CONTINUOUS
370
-3
390
F
  0
LAYER
  5
209
100
AcDbSymbolTableRecord
100
AcDbLayerTableRecord
  2
04__ASM_ALL_DTM_PNT
 70
0
 62
7
  6
CONTINUOUS
370
-3
390
F
  0
LAYER
  5
20A
100
AcDbSymbolTableRecord
100
AcDbLayerTableRecord
  2
04___PRT_ALL_DTM_PNT
 70
0
 62
7
  6
CONTINUOUS
370
-3
390
F
  0
LAYER
  5
20B
100
AcDbSymbolTableRecord
100
AcDbLayerTableRecord
  2
05_ALL_DTM_CSYS
 70
0
 62
7
  6
CONTINUOUS
370
-3
390
F
  0
LAYER
  5
20C
100
AcDbSymbolTableRecord
100
AcDbLayerTableRecord
  2
05__ASM_ALL_DTM_CSYS
 70
0
 62
7
  6
CONTINUOUS
370
-3
390
F
  0
LAYER
  5
20D
100
AcDbSymbolTableRecord
100
AcDbLayerTableRecord
  2
05__ASM_DEF_DTM_CSYS
 70
0
 62
7
  6
CONTINUOUS
370
-3
390
F
  0
LAYER
  5
20E
100
AcDbSymbolTableRecord
100
AcDbLayerTableRecord
  2
05___PRT_ALL_DTM_CSYS
 70
0
 62
7
  6
CONTINUOUS
370
-3
390
F
  0
LAYER
  5
20F
100
AcDbSymbolTableRecord
100
AcDbLayerTableRecord
  2
05___PRT_DEF_DTM_CSYS
 70
0
 62
7
  6
CONTINUOUS
370
-3
390
F
  0
LAYER
  5
210
100
AcDbSymbolTableRecord
100
AcDbLayerTableRecord
  2
06_ALL_SURFS
 70
0
 62
7
  6
CONTINUOUS
370
-3
390
F
  0
LAYER
  5
211
100
AcDbSymbolTableRecord
100
AcDbLayerTableRecord
  2
06__ASM_ALL_SURFS
 70
0
 62
7
  6
CONTINUOUS
370
-3
390
F
  0
LAYER
  5
212
100
AcDbSymbolTableRecord
100
AcDbLayerTableRecord
  2
06___PRT_ALL_SURFS
 70
0
 62
7
  6
CONTINUOUS
370
-3
390
F
  0
LAYER
  5
213
100
AcDbSymbolTableRecord
100
AcDbLayerTableRecord
  2
07__ASM_ALL_SKELETONS
 70
0
 62
7
  6
CONTINUOUS
370
-3
390
F
  0
ENDTAB
  0
TABLE
  2
STYLE
  5
3
100
AcDbSymbolTable
 70
1
  0
STYLE
  5
11
100
AcDbSymbolTableRecord
100
AcDbTextStyleTableRecord
  2
STANDARD
 70
0
 40
0.0
 41
0.8
 50
0.0
 71
0
 42
0.2
  3
txt
  4

  0
STYLE
  5
214
100
AcDbSymbolTableRecord
100
AcDbTextStyleTableRecord
  2
TEXTSTYLE_1
 70
0
 40
0.0
 41
0.8
 50
0.0
 71
0
 42
0.2
  3
gdt
  4

  0
ENDTAB
  0
TABLE
  2
VIEW
  5
6
100
AcDbSymbolTable
 70
0
  0
ENDTAB
  0
TABLE
  2
UCS
  5
7
100
AcDbSymbolTable
 70
0
  0
ENDTAB
  0
TABLE
  2
APPID
  5
9
100
AcDbSymbolTable
 70
1
  0
APPID
  5
215
100
AcDbSymbolTableRecord
100
AcDbRegAppTableRecord
  2
ACAD
 70
0
  0
ENDTAB
  0
TABLE
  2
BLOCK_RECORD
  5
1
100
AcDbSymbolTable
 70
0
  0
BLOCK_RECORD
  5
216
100
AcDbSymbolTableRecord
100
AcDbBlockTableRecord
  2
*Model_Space
  0
BLOCK_RECORD
  5
217
100
AcDbSymbolTableRecord
100
AcDbBlockTableRecord
  2
*Paper_Space
  0
ENDTAB
  0
TABLE
  2
DIMSTYLE
  5
A
100
AcDbSymbolTable
 70
1
100
AcDbDimStyleTable
 71
0
  0
DIMSTYLE
105
218
100
AcDbSymbolTableRecord
100
AcDbDimStyleTableRecord
  2
STANDARD
 70
0
  3

  4

 40
1.0
 41
0.1875
 42
0.0625
 43
0.38
 44
0.125
 45
0.0
 46
0.0
 47
0.0001
 48
0.0001
140
0.15625
141
0.09
142
0.0
143
25.4
144
1.0
145
0.0
146
1.0
147
0.09
 71
0.0
 72
0.0
 73
1
 74
1
 75
0
 76
0
 77
0
 78
4
 79
1
170
0
171
3
172
0
173
0
174
0
175
0
176
0
177
0
178
0
270
2
179
4
271
4
272
4
273
2
274
2
275
0
280
0
281
0
282
0
283
1
284
4
285
0
286
0
287
3
288
0
340
11
278
46
  0
ENDTAB
  0
ENDSEC
  0
SECTION
  2
BLOCKS
  0
BLOCK
  5
20
100
AcDbEntity
  8
0
100
AcDbBlockBegin
  2
*Model_Space
 70
0
 10
0.0
 20
0.0
 30
0.0
  3
*Model_Space
  1

  0
ENDBLK
  5
21
100
AcDbEntity
  8
0
100
AcDbBlockEnd
  0
BLOCK
  5
1C
100
AcDbEntity
  8
0
100
AcDbBlockBegin
  2
*Paper_Space
 70
0
 10
0.0
 20
0.0
 30
0.0
  3
*Paper_Space
  1

  0
ENDBLK
  5
1D
100
AcDbEntity
  8
0
100
AcDbBlockEnd
  0
ENDSEC
  0
SECTION
  2
ENTITIES
  0
MTEXT
  5
219
100
AcDbEntity
  8
0
100
AcDbMText
 62
7
  6
CONTINUOUS
  7
STANDARD
 71
1
 72
1
 10
15.9560215477
 20
0.9479130325
 30
0.0
 11
1.0
 21
0.0
 31
0.0
 44
0.9
  1
SCALE: 1:1.000
 40
0.3
 41
3.36
  0
LINE
  5
21A
100
AcDbEntity
  8
0
100
AcDbLine
 62
7
  6
CONTINUOUS
 10
0.0
 20
0.0
 11
0.0
 21
17.0
  0
LINE
  5
21B
100
AcDbEntity
  8
0
100
AcDbLine
 62
7
  6
CONTINUOUS
 10
0.0
 20
0.0
 11
22.0
 21
0.0
  0
LINE
  5
21C
100
AcDbEntity
  8
0
100
AcDbLine
 62
7
  6
CONTINUOUS
 10
0.0
 20
17.0
 11
22.0
 21
17.0
  0
LINE
  5
21D
100
AcDbEntity
  8
0
100
AcDbLine
 62
7
  6
CONTINUOUS
 10
22.0
 20
0.0
 11
22.0
 21
17.0
  0
LINE
  5
21E
100
AcDbEntity
  8
0
100
AcDbLine
 62
7
  6
CONTINUOUS
 10
5.9335168825
 20
5.6271446631
 11
5.9335168825
 21
5.6190272997
  0
LINE
  5
21F
100
AcDbEntity
  8
0
100
AcDbLine
 62
7
  6
CONTINUOUS
 10
6.0097203377
 20
5.4020096605
 11
6.2510142147
 21
5.4020096605
  0
LINE
  5
220
100
AcDbEntity
  8
0
100
AcDbLine
 62
7
  6
CONTINUOUS
 10
5.984812102
 20
5.480749818
 11
6.2759224503
 21
5.480749818
  0
LINE
  5
221
100
AcDbEntity
  8
0
100
AcDbLine
 62
7
  6
CONTINUOUS
 10
6.3272176699
 20
5.6190272997
 11
6.3272176699
 21
5.6271446631
  0
LINE
  5
222
100
AcDbEntity
  8
0
100
AcDbLine
 62
7
  6
CONTINUOUS
 10
6.2677224776
 20
10.6315438444
 11
5.8740216902
 21
10.6315438444
  0
LINE
  5
223
100
AcDbEntity
  8
0
100
AcDbLine
 62
7
  6
CONTINUOUS
 10
5.8740216902
 20
10.6315438444
 11
5.8740216902
 21
14.5685517184
  0
LINE
  5
224
100
AcDbEntity
  8
0
100
AcDbLine
 62
7
  6
CONTINUOUS
 10
6.2677224776
 20
10.6315438444
 11
6.2677224776
 21
14.5685517184
  0
LINE
  5
225
100
AcDbEntity
  8
0
100
AcDbLine
 62
7
  6
CONTINUOUS
 10
5.8740216902
 20
14.5685517184
 11
6.2677224776
 21
14.5685517184
  0
LINE
  5
226
100
AcDbEntity
  8
0
100
AcDbLine
 62
7
  6
CONTINUOUS
 10
13.5918513199
 20
5.4212546257
 11
13.5918513199
 21
5.5787349407
  0
LINE
  5
227
100
AcDbEntity
  8
0
100
AcDbLine
 62
7
  6
CONTINUOUS
 10
13.667600879
 20
5.4090491305
 11
13.6801437556
 21
5.3547199634
  0
LINE
  5
228
100
AcDbEntity
  8
0
100
AcDbLine
 62
7
  6
CONTINUOUS
 10
13.8316428738
 20
5.3547199634
 11
13.8441857503
 21
5.4090491305
  0
LINE
  5
229
100
AcDbEntity
  8
0
100
AcDbLine
 62
7
  6
CONTINUOUS
 10
13.9956848685
 20
5.4090491305
 11
14.0082277451
 21
5.3547199634
  0
LINE
  5
22A
100
AcDbEntity
  8
0
100
AcDbLine
 62
7
  6
CONTINUOUS
 10
14.1597268633
 20
5.3547199634
 11
14.1722697398
 21
5.4090491305
  0
LINE
  5
22B
100
AcDbEntity
  8
0
100
AcDbLine
 62
7
  6
CONTINUOUS
 10
14.323768858
 20
5.4090491305
 11
14.3363117346
 21
5.3547199634
  0
LINE
  5
22C
100
AcDbEntity
  8
0
100
AcDbLine
 62
7
  6
CONTINUOUS
 10
14.4878108528
 20
5.3547199634
 11
14.5003537293
 21
5.4090491305
  0
LINE
  5
22D
100
AcDbEntity
  8
0
100
AcDbLine
 62
7
  6
CONTINUOUS
 10
14.6518528475
 20
5.4090491305
 11
14.6643957241
 21
5.3547199634
  0
LINE
  5
22E
100
AcDbEntity
  8
0
100
AcDbLine
 62
7
  6
CONTINUOUS
 10
14.8158948423
 20
5.3547199634
 11
14.8284377188
 21
5.4090491305
  0
LINE
  5
22F
100
AcDbEntity
  8
0
100
AcDbLine
 62
7
  6
CONTINUOUS
 10
14.979936837
 20
5.4090491305
 11
14.9924797136
 21
5.3547199634
  0
LINE
  5
230
100
AcDbEntity
  8
0
100
AcDbLine
 62
7
  6
CONTINUOUS
 10
15.1439788318
 20
5.3547199634
 11
15.1565217083
 21
5.4090491305
  0
LINE
  5
231
100
AcDbEntity
  8
0
100
AcDbLine
 62
7
  6
CONTINUOUS
 10
15.3080208265
 20
5.4090491305
 11
15.3205637031
 21
5.3547199634
  0
LINE
  5
232
100
AcDbEntity
  8
0
100
AcDbLine
 62
7
  6
CONTINUOUS
 10
13.695488166
 20
5.3425144682
 11
13.8162984633
 21
5.3425144682
  0
LINE
  5
233
100
AcDbEntity
  8
0
100
AcDbLine
 62
7
  6
CONTINUOUS
 10
14.0235721555
 20
5.3425144682
 11
14.1443824528
 21
5.3425144682
  0
LINE
  5
234
100
AcDbEntity
  8
0
100
AcDbLine
 62
7
  6
CONTINUOUS
 10
14.351656145
 20
5.3425144682
 11
14.4724664423
 21
5.3425144682
  0
LINE
  5
235
100
AcDbEntity
  8
0
100
AcDbLine
 62
7
  6
CONTINUOUS
 10
14.6797401345
 20
5.3425144682
 11
14.8005504318
 21
5.3425144682
  0
LINE
  5
236
100
AcDbEntity
  8
0
100
AcDbLine
 62
7
  6
CONTINUOUS
 10
15.007824124
 20
5.3425144682
 11
15.1286344213
 21
5.3425144682
  0
LINE
  5
237
100
AcDbEntity
  8
0
100
AcDbLine
 62
7
  6
CONTINUOUS
 10
15.3359081135
 20
5.3425144682
 11
15.4567184108
 21
5.3425144682
  0
LINE
  5
238
100
AcDbEntity
  8
0
100
AcDbLine
 62
7
  6
CONTINUOUS
 10
15.663992103
 20
5.3425144682
 11
15.7848024003
 21
5.3425144682
  0
LINE
  5
239
100
AcDbEntity
  8
0
100
AcDbLine
 62
7
  6
CONTINUOUS
 10
15.9920760925
 20
5.3425144682
 11
16.1128863898
 21
5.3425144682
  0
LINE
  5
23A
100
AcDbEntity
  8
0
100
AcDbLine
 62
7
  6
CONTINUOUS
 10
16.320160082
 20
5.3425144682
 11
16.4409703793
 21
5.3425144682
  0
LINE
  5
23B
100
AcDbEntity
  8
0
100
AcDbLine
 62
7
  6
CONTINUOUS
 10
16.6482440715
 20
5.3425144682
 11
16.7690543688
 21
5.3425144682
  0
LINE
  5
23C
100
AcDbEntity
  8
0
100
AcDbLine
 62
7
  6
CONTINUOUS
 10
16.976328061
 20
5.3425144682
 11
17.0971383583
 21
5.3425144682
  0
LINE
  5
23D
100
AcDbEntity
  8
0
100
AcDbLine
 62
7
  6
CONTINUOUS
 10
17.3044120505
 20
5.3425144682
 11
17.4252223478
 21
5.3425144682
  0
LINE
  5
23E
100
AcDbEntity
  8
0
100
AcDbLine
 62
7
  6
CONTINUOUS
 10
15.4720628213
 20
5.3547199634
 11
15.4846056978
 21
5.4090491305
  0
LINE
  5
23F
100
AcDbEntity
  8
0
100
AcDbLine
 62
7
  6
CONTINUOUS
 10
13.5918513199
 20
5.4212546257
 11
13.6522564686
 21
5.4212546257
  0
LINE
  5
240
100
AcDbEntity
  8
0
100
AcDbLine
 62
7
  6
CONTINUOUS
 10
13.8595301608
 20
5.4212546257
 11
13.9803404581
 21
5.4212546257
  0
LINE
  5
241
100
AcDbEntity
  8
0
100
AcDbLine
 62
7
  6
CONTINUOUS
 10
14.1876141503
 20
5.4212546257
 11
14.3084244476
 21
5.4212546257
  0
LINE
  5
242
100
AcDbEntity
  8
0
100
AcDbLine
 62
7
  6
CONTINUOUS
 10
14.5156981398
 20
5.4212546257
 11
14.6365084371
 21
5.4212546257
  0
LINE
  5
243
100
AcDbEntity
  8
0
100
AcDbLine
 62
7
  6
CONTINUOUS
 10
14.8437821293
 20
5.4212546257
 11
14.9645924266
 21
5.4212546257
  0
LINE
  5
244
100
AcDbEntity
  8
0
100
AcDbLine
 62
7
  6
CONTINUOUS
 10
15.1718661188
 20
5.4212546257
 11
15.2926764161
 21
5.4212546257
  0
LINE
  5
245
100
AcDbEntity
  8
0
100
AcDbLine
 62
7
  6
CONTINUOUS
 10
15.4999501083
 20
5.4212546257
 11
15.6207604056
 21
5.4212546257
  0
LINE
  5
246
100
AcDbEntity
  8
0
100
AcDbLine
 62
7
  6
CONTINUOUS
 10
15.8280340978
 20
5.4212546257
 11
15.9488443951
 21
5.4212546257
  0
LINE
  5
247
100
AcDbEntity
  8
0
100
AcDbLine
 62
7
  6
CONTINUOUS
 10
16.1561180873
 20
5.4212546257
 11
16.2769283846
 21
5.4212546257
  0
LINE
  5
248
100
AcDbEntity
  8
0
100
AcDbLine
 62
7
  6
CONTINUOUS
 10
16.4842020768
 20
5.4212546257
 11
16.6050123741
 21
5.4212546257
  0
LINE
  5
249
100
AcDbEntity
  8
0
100
AcDbLine
 62
7
  6
CONTINUOUS
 10
16.8122860663
 20
5.4212546257
 11
16.9330963636
 21
5.4212546257
  0
LINE
  5
24A
100
AcDbEntity
  8
0
100
AcDbLine
 62
7
  6
CONTINUOUS
 10
17.1403700558
 20
5.4212546257
 11
17.2611803531
 21
5.4212546257
  0
LINE
  5
24B
100
AcDbEntity
  8
0
100
AcDbLine
 62
7
  6
CONTINUOUS
 10
17.4684540453
 20
5.4212546257
 11
17.5288591939
 21
5.4212546257
  0
LINE
  5
24C
100
AcDbEntity
  8
0
100
AcDbLine
 62
7
  6
CONTINUOUS
 10
17.5288591939
 20
5.5787349407
 11
13.5918513199
 21
5.5787349407
  0
LINE
  5
24D
100
AcDbEntity
  8
0
100
AcDbLine
 62
7
  6
CONTINUOUS
 10
15.636104816
 20
5.4090491305
 11
15.6486476926
 21
5.3547199634
  0
LINE
  5
24E
100
AcDbEntity
  8
0
100
AcDbLine
 62
7
  6
CONTINUOUS
 10
15.8001468108
 20
5.3547199634
 11
15.8126896873
 21
5.4090491305
  0
LINE
  5
24F
100
AcDbEntity
  8
0
100
AcDbLine
 62
7
  6
CONTINUOUS
 10
15.9641888055
 20
5.4090491305
 11
15.9767316821
 21
5.3547199634
  0
LINE
  5
250
100
AcDbEntity
  8
0
100
AcDbLine
 62
7
  6
CONTINUOUS
 10
16.1282308003
 20
5.3547199634
 11
16.1407736768
 21
5.4090491305
  0
LINE
  5
251
100
AcDbEntity
  8
0
100
AcDbLine
 62
7
  6
CONTINUOUS
 10
16.2922727951
 20
5.4090491305
 11
16.3048156716
 21
5.3547199634
  0
LINE
  5
252
100
AcDbEntity
  8
0
100
AcDbLine
 62
7
  6
CONTINUOUS
 10
16.4563147898
 20
5.3547199634
 11
16.4688576663
 21
5.4090491305
  0
LINE
  5
253
100
AcDbEntity
  8
0
100
AcDbLine
 62
7
  6
CONTINUOUS
 10
16.6203567846
 20
5.4090491305
 11
16.6328996611
 21
5.3547199634
  0
LINE
  5
254
100
AcDbEntity
  8
0
100
AcDbLine
 62
7
  6
CONTINUOUS
 10
16.7843987793
 20
5.3547199634
 11
16.7969416558
 21
5.4090491305
  0
LINE
  5
255
100
AcDbEntity
  8
0
100
AcDbLine
 62
7
  6
CONTINUOUS
 10
16.9484407741
 20
5.4090491305
 11
16.9609836506
 21
5.3547199634
  0
LINE
  5
256
100
AcDbEntity
  8
0
100
AcDbLine
 62
7
  6
CONTINUOUS
 10
17.1124827688
 20
5.3547199634
 11
17.1250256453
 21
5.4090491305
  0
LINE
  5
257
100
AcDbEntity
  8
0
100
AcDbLine
 62
7
  6
CONTINUOUS
 10
17.2765247636
 20
5.4090491305
 11
17.2890676401
 21
5.3547199634
  0
LINE
  5
258
100
AcDbEntity
  8
0
100
AcDbLine
 62
7
  6
CONTINUOUS
 10
17.5288591939
 20
5.4212546257
 11
17.5288591939
 21
5.5787349407
  0
LINE
  5
259
100
AcDbEntity
  8
0
100
AcDbLine
 62
7
  6
CONTINUOUS
 10
17.4405667583
 20
5.3547199634
 11
17.4531096348
 21
5.4090491305
  0
LINE
  5
25A
100
AcDbEntity
  8
0
100
AcDbLine
 62
7
  6
CONTINUOUS
 10
15.1926654271
 20
10.9461543806
 11
15.1945732024
 21
10.9463373697
  0
LINE
  5
25B
100
AcDbEntity
  8
0
100
AcDbLine
 62
7
  6
CONTINUOUS
 10
14.9025505734
 20
10.9198772205
 11
15.1706809602
 21
10.9198772205
  0
LINE
  5
25C
100
AcDbEntity
  8
0
100
AcDbLine
 62
7
  6
CONTINUOUS
 10
15.1842098703
 20
10.946154186
 11
15.1926668325
 21
10.946154186
  0
LINE
  5
25D
100
AcDbEntity
  8
0
100
AcDbLine
 62
7
  6
CONTINUOUS
 10
15.2720835122
 20
11.2031513982
 11
15.2739912875
 21
11.2033343873
  0
LINE
  5
25E
100
AcDbEntity
  8
0
100
AcDbLine
 62
7
  6
CONTINUOUS
 10
15.2636279554
 20
11.2031512036
 11
15.2720849176
 21
11.2031512036
  0
LINE
  5
25F
100
AcDbEntity
  8
0
100
AcDbLine
 62
7
  6
CONTINUOUS
 10
14.8106479907
 20
11.0108777156
 11
14.8131241264
 21
11.0058318816
  0
LINE
  5
260
100
AcDbEntity
  8
0
100
AcDbLine
 62
7
  6
CONTINUOUS
 10
15.3515015973
 20
11.4601484158
 11
15.3534093726
 21
11.4603314049
  0
LINE
  5
261
100
AcDbEntity
  8
0
100
AcDbLine
 62
7
  6
CONTINUOUS
 10
15.3430460405
 20
11.4601482212
 11
15.3515030027
 21
11.4601482212
  0
LINE
  5
262
100
AcDbEntity
  8
0
100
AcDbLine
 62
7
  6
CONTINUOUS
 10
16.0681721386
 20
13.7733045632
 11
16.0719694885
 21
13.7748954759
  0
LINE
  5
263
100
AcDbEntity
  8
0
100
AcDbLine
 62
7
  6
CONTINUOUS
 10
15.1757465649
 20
11.0058318816
 11
15.1732704292
 21
11.0108777156
  0
LINE
  5
264
100
AcDbEntity
  8
0
100
AcDbLine
 62
7
  6
CONTINUOUS
 10
15.4224641256
 20
11.7171452388
 11
15.4309210878
 21
11.7171452388
  0
LINE
  5
265
100
AcDbEntity
  8
0
100
AcDbLine
 62
7
  6
CONTINUOUS
 10
15.9887540535
 20
13.5163075456
 11
15.9925514034
 21
13.5178984583
  0
LINE
  5
266
100
AcDbEntity
  8
0
100
AcDbLine
 62
7
  6
CONTINUOUS
 10
15.4309196825
 20
11.7171454334
 11
15.4328274577
 21
11.7173284225
  0
LWPOLYLINE
  5
267
100
AcDbEntity
  8
0
100
AcDbPolyline
 62
7
  6
CONTINUOUS
 90
3
 70
0
 10
16.0719694885
 20
13.7748954759
 10
16.0744843656
 20
13.7773247313
 10
16.0759637514
 20
13.7798986261
  0
LINE
  5
268
100
AcDbEntity
  8
0
100
AcDbLine
 62
7
  6
CONTINUOUS
 10
15.9093359684
 20
13.259310528
 11
15.9131333183
 21
13.2609014407
  0
LINE
  5
269
100
AcDbEntity
  8
0
100
AcDbLine
 62
7
  6
CONTINUOUS
 10
15.5103377676
 20
11.974142451
 11
15.5122455428
 21
11.9743254401
  0
LINE
  5
26A
100
AcDbEntity
  8
0
100
AcDbLine
 62
7
  6
CONTINUOUS
 10
15.5018822108
 20
11.9741422564
 11
15.5103391729
 21
11.9741422564
  0
LWPOLYLINE
  5
26B
100
AcDbEntity
  8
0
100
AcDbPolyline
 62
7
  6
CONTINUOUS
 90
3
 70
0
 10
15.9925514034
 20
13.5178984583
 10
15.9950662805
 20
13.5203277137
 10
15.9965456663
 20
13.5229016085
  0
LWPOLYLINE
  5
26C
100
AcDbEntity
  8
0
100
AcDbPolyline
 62
7
  6
CONTINUOUS
 90
3
 70
0
 10
15.9131333183
 20
13.2609014407
 10
15.9156481954
 20
13.2633306961
 10
15.9171275812
 20
13.2659045909
  0
LINE
  5
26D
100
AcDbEntity
  8
0
100
AcDbLine
 62
7
  6
CONTINUOUS
 10
15.8299178832
 20
13.0023135104
 11
15.8337152332
 21
13.0039044231
  0
LINE
  5
26E
100
AcDbEntity
  8
0
100
AcDbLine
 62
7
  6
CONTINUOUS
 10
15.5897558527
 20
12.2311394686
 11
15.5916636279
 21
12.2313224576
  0
LINE
  5
26F
100
AcDbEntity
  8
0
100
AcDbLine
 62
7
  6
CONTINUOUS
 10
15.5813002959
 20
12.231139274
 11
15.589757258
 21
12.231139274
  0
LWPOLYLINE
  5
270
100
AcDbEntity
  8
0
100
AcDbPolyline
 62
7
  6
CONTINUOUS
 90
3
 70
0
 10
15.2342007536
 20
11.0598172735
 10
15.2347454723
 20
11.0725985436
 10
15.235614929
 20
11.0901096872
  0
LWPOLYLINE
  5
271
100
AcDbEntity
  8
0
100
AcDbPolyline
 62
7
  6
CONTINUOUS
 90
3
 70
0
 10
15.3136188387
 20
11.3168142911
 10
15.3141635574
 20
11.3295955612
 10
15.3150330141
 20
11.3471067048
  0
LINE
  5
272
100
AcDbEntity
  8
0
100
AcDbLine
 62
7
  6
CONTINUOUS
 10
15.235614929
 20
11.0901096872
 11
15.2363599454
 21
11.1032262699
  0
LINE
  5
273
100
AcDbEntity
  8
0
100
AcDbLine
 62
7
  6
CONTINUOUS
 10
15.2338981921
 20
11.0565145384
 11
15.2342007397
 21
11.0598172733
  0
LINE
  5
274
100
AcDbEntity
  8
0
100
AcDbLine
 62
7
  6
CONTINUOUS
 10
14.8104281688
 20
11.0127666013
 11
15.7634451901
 21
14.0967308125
  0
LWPOLYLINE
  5
275
100
AcDbEntity
  8
0
100
AcDbPolyline
 62
7
  6
CONTINUOUS
 90
3
 70
0
 10
15.8337152332
 20
13.0039044231
 10
15.8362301103
 20
13.0063336785
 10
15.8377094961
 20
13.0089075733
  0
LINE
  5
276
100
AcDbEntity
  8
0
100
AcDbLine
 62
7
  6
CONTINUOUS
 10
15.7504997981
 20
12.7453164928
 11
15.7542971481
 21
12.7469074055
  0
LWPOLYLINE
  5
277
100
AcDbEntity
  8
0
100
AcDbPolyline
 62
7
  6
CONTINUOUS
 90
3
 70
0
 10
15.3930369238
 20
11.5738113087
 10
15.3935816425
 20
11.5865925788
 10
15.3944510992
 20
11.6041037224
  0
LINE
  5
278
100
AcDbEntity
  8
0
100
AcDbLine
 62
7
  6
CONTINUOUS
 10
15.3150330141
 20
11.3471067048
 11
15.3157780305
 21
11.3602232874
  0
LINE
  5
279
100
AcDbEntity
  8
0
100
AcDbLine
 62
7
  6
CONTINUOUS
 10
15.3944510992
 20
11.6041037224
 11
15.3951961156
 21
11.617220305
  0
LINE
  5
27A
100
AcDbEntity
  8
0
100
AcDbLine
 62
7
  6
CONTINUOUS
 10
15.3133162772
 20
11.313511556
 11
15.3136188248
 21
11.3168142909
  0
LINE
  5
27B
100
AcDbEntity
  8
0
100
AcDbLine
 62
7
  6
CONTINUOUS
 10
15.3927343623
 20
11.5705085735
 11
15.3930369099
 21
11.5738113085
  0
LINE
  5
27C
100
AcDbEntity
  8
0
100
AcDbLine
 62
7
  6
CONTINUOUS
 10
15.2363604338
 20
11.1032261327
 11
15.2370194785
 21
11.1098821947
  0
LINE
  5
27D
100
AcDbEntity
  8
0
100
AcDbLine
 62
7
  6
CONTINUOUS
 10
15.3157785189
 20
11.3602231503
 11
15.3164375636
 21
11.3668792123
  0
LINE
  5
27E
100
AcDbEntity
  8
0
100
AcDbLine
 62
7
  6
CONTINUOUS
 10
15.395196604
 20
11.6172201679
 11
15.3958556487
 21
11.6238762299
  0
LINE
  5
27F
100
AcDbEntity
  8
0
100
AcDbLine
 62
7
  6
CONTINUOUS
 10
15.1770824107
 20
10.9230894254
 11
15.177228364
 21
10.924082486
  0
LWPOLYLINE
  5
280
100
AcDbEntity
  8
0
100
AcDbPolyline
 62
7
  6
CONTINUOUS
 90
3
 70
0
 10
15.2370194785
 20
11.1098821947
 10
15.2383089649
 20
11.1179350315
 10
15.2400134541
 20
11.1259118905
  0
LINE
  5
281
100
AcDbEntity
  8
0
100
AcDbLine
 62
7
  6
CONTINUOUS
 10
16.066930859
 20
13.8019791732
 11
16.0673465327
 21
13.8029010367
  0
LINE
  5
282
100
AcDbEntity
  8
0
100
AcDbLine
 62
7
  6
CONTINUOUS
 10
15.6691739378
 20
12.4881364861
 11
15.671081713
 21
12.4883194752
  0
LINE
  5
283
100
AcDbEntity
  8
0
100
AcDbLine
 62
7
  6
CONTINUOUS
 10
15.660718381
 20
12.4881362916
 11
15.6691753431
 21
12.4881362916
  0
LWPOLYLINE
  5
284
100
AcDbEntity
  8
0
100
AcDbPolyline
 62
7
  6
CONTINUOUS
 90
3
 70
0
 10
15.4724550089
 20
11.8308083263
 10
15.4729997276
 20
11.8435895964
 10
15.4738691843
 20
11.86110074
  0
LWPOLYLINE
  5
285
100
AcDbEntity
  8
0
100
AcDbPolyline
 62
7
  6
CONTINUOUS
 90
3
 70
0
 10
15.551873094
 20
12.0878053439
 10
15.5524178127
 20
12.100586614
 10
15.5532872694
 20
12.1180977576
  0
LINE
  5
286
100
AcDbEntity
  8
0
100
AcDbLine
 62
7
  6
CONTINUOUS
 10
15.4738691843
 20
11.86110074
 11
15.4746142007
 21
11.8742173226
  0
LINE
  5
287
100
AcDbEntity
  8
0
100
AcDbLine
 62
7
  6
CONTINUOUS
 10
15.5532872694
 20
12.1180977576
 11
15.5540322858
 21
12.1312143402
  0
LINE
  5
288
100
AcDbEntity
  8
0
100
AcDbLine
 62
7
  6
CONTINUOUS
 10
15.4721524474
 20
11.8275055911
 11
15.472454995
 21
11.8308083261
  0
LINE
  5
289
100
AcDbEntity
  8
0
100
AcDbLine
 62
7
  6
CONTINUOUS
 10
15.5515705325
 20
12.0845026087
 11
15.5518730801
 21
12.0878053437
  0
LINE
  5
28A
100
AcDbEntity
  8
0
100
AcDbLine
 62
7
  6
CONTINUOUS
 10
15.4746146891
 20
11.8742171855
 11
15.4752737338
 21
11.8808732475
  0
LINE
  5
28B
100
AcDbEntity
  8
0
100
AcDbLine
 62
7
  6
CONTINUOUS
 10
15.5540327742
 20
12.1312142031
 11
15.5546918189
 21
12.1378702651
  0
LWPOLYLINE
  5
28C
100
AcDbEntity
  8
0
100
AcDbPolyline
 62
7
  6
CONTINUOUS
 90
3
 70
0
 10
15.3164375636
 20
11.3668792123
 10
15.31772705
 20
11.3749320491
 10
15.3194315393
 20
11.3829089081
  0
LWPOLYLINE
  5
28D
100
AcDbEntity
  8
0
100
AcDbPolyline
 62
7
  6
CONTINUOUS
 90
3
 70
0
 10
15.3958556487
 20
11.6238762299
 10
15.3971451351
 20
11.6319290667
 10
15.3988496244
 20
11.6399059257
  0
LWPOLYLINE
  5
28E
100
AcDbEntity
  8
0
100
AcDbPolyline
 62
7
  6
CONTINUOUS
 90
3
 70
0
 10
15.4752737338
 20
11.8808732475
 10
15.4765632202
 20
11.8889260842
 10
15.4782677095
 20
11.8969029433
  0
LINE
  5
28F
100
AcDbEntity
  8
0
100
AcDbLine
 62
7
  6
CONTINUOUS
 10
15.2332017477
 20
11.0526514514
 11
15.2338981921
 21
11.0565145384
  0
LINE
  5
290
100
AcDbEntity
  8
0
100
AcDbLine
 62
7
  6
CONTINUOUS
 10
15.3126198329
 20
11.309648469
 11
15.3133162772
 21
11.313511556
  0
LINE
  5
291
100
AcDbEntity
  8
0
100
AcDbLine
 62
7
  6
CONTINUOUS
 10
15.392037918
 20
11.5666454866
 11
15.3927343623
 21
11.5705085735
  0
LINE
  5
292
100
AcDbEntity
  8
0
100
AcDbLine
 62
7
  6
CONTINUOUS
 10
15.4714560031
 20
11.8236425042
 11
15.4721524474
 21
11.8275055911
  0
LINE
  5
293
100
AcDbEntity
  8
0
100
AcDbLine
 62
7
  6
CONTINUOUS
 10
16.0759637514
 20
13.7798986261
 11
16.0768447626
 21
13.7822909014
  0
LINE
  5
294
100
AcDbEntity
  8
0
100
AcDbLine
 62
7
  6
CONTINUOUS
 10
15.9875127739
 20
13.5449821556
 11
15.9879284476
 21
13.5459040191
  0
LINE
  5
295
100
AcDbEntity
  8
0
100
AcDbLine
 62
7
  6
CONTINUOUS
 10
15.9080946888
 20
13.287985138
 11
15.9085103625
 21
13.2889070015
  0
LINE
  5
296
100
AcDbEntity
  8
0
100
AcDbLine
 62
7
  6
CONTINUOUS
 10
15.8286766037
 20
13.0309881204
 11
15.8290922774
 21
13.031909984
  0
LWPOLYLINE
  5
297
100
AcDbEntity
  8
0
100
AcDbPolyline
 62
7
  6
CONTINUOUS
 90
3
 70
0
 10
15.7542971481
 20
12.7469074055
 10
15.7568120252
 20
12.7493366609
 10
15.758291411
 20
12.7519105557
  0
LINE
  5
298
100
AcDbEntity
  8
0
100
AcDbLine
 62
7
  6
CONTINUOUS
 10
15.671081713
 20
12.4883194752
 11
15.674879063
 21
12.4899103879
  0
LWPOLYLINE
  5
299
100
AcDbEntity
  8
0
100
AcDbPolyline
 62
7
  6
CONTINUOUS
 90
3
 70
0
 10
15.6312911791
 20
12.3448023615
 10
15.6318358978
 20
12.3575836316
 10
15.6327053545
 20
12.3750947752
  0
LWPOLYLINE
  5
29A
100
AcDbEntity
  8
0
100
AcDbPolyline
 62
7
  6
CONTINUOUS
 90
3
 70
0
 10
15.7107092642
 20
12.6017993791
 10
15.7112539829
 20
12.6145806492
 10
15.7121234397
 20
12.6320917928
  0
LINE
  5
29B
100
AcDbEntity
  8
0
100
AcDbLine
 62
7
  6
CONTINUOUS
 10
15.6327053545
 20
12.3750947752
 11
15.6334503709
 21
12.3882113578
  0
LINE
  5
29C
100
AcDbEntity
  8
0
100
AcDbLine
 62
7
  6
CONTINUOUS
 10
15.7121234397
 20
12.6320917928
 11
15.712868456
 21
12.6452083754
  0
LINE
  5
29D
100
AcDbEntity
  8
0
100
AcDbLine
 62
7
  6
CONTINUOUS
 10
15.6309886176
 20
12.3414996263
 11
15.6312911652
 21
12.3448023613
  0
LINE
  5
29E
100
AcDbEntity
  8
0
100
AcDbLine
 62
7
  6
CONTINUOUS
 10
15.7104067027
 20
12.5984966439
 11
15.7107092503
 21
12.6017993789
  0
LINE
  5
29F
100
AcDbEntity
  8
0
100
AcDbLine
 62
7
  6
CONTINUOUS
 10
15.6334508593
 20
12.3882112207
 11
15.634109904
 21
12.3948672827
  0
LINE
  5
2A0
100
AcDbEntity
  8
0
100
AcDbLine
 62
7
  6
CONTINUOUS
 10
15.7128689445
 20
12.6452082383
 11
15.7135279891
 21
12.6518643003
  0
LWPOLYLINE
  5
2A1
100
AcDbEntity
  8
0
100
AcDbPolyline
 62
7
  6
CONTINUOUS
 90
3
 70
0
 10
15.5546918189
 20
12.1378702651
 10
15.5559813053
 20
12.1459231018
 10
15.5576857946
 20
12.1538999609
  0
LWPOLYLINE
  5
2A2
100
AcDbEntity
  8
0
100
AcDbPolyline
 62
7
  6
CONTINUOUS
 90
3
 70
0
 10
15.634109904
 20
12.3948672827
 10
15.6353993904
 20
12.4029201194
 10
15.6371038797
 20
12.4108969784
  0
LWPOLYLINE
  5
2A3
100
AcDbEntity
  8
0
100
AcDbPolyline
 62
7
  6
CONTINUOUS
 90
3
 70
0
 10
15.7135279891
 20
12.6518643003
 10
15.7148174756
 20
12.659917137
 10
15.7165219648
 20
12.667893996
  0
LINE
  5
2A4
100
AcDbEntity
  8
0
100
AcDbLine
 62
7
  6
CONTINUOUS
 10
15.5508740882
 20
12.0806395218
 11
15.5515705325
 21
12.0845026087
  0
LINE
  5
2A5
100
AcDbEntity
  8
0
100
AcDbLine
 62
7
  6
CONTINUOUS
 10
15.6302921733
 20
12.3376365394
 11
15.6309886176
 21
12.3414996263
  0
LINE
  5
2A6
100
AcDbEntity
  8
0
100
AcDbLine
 62
7
  6
CONTINUOUS
 10
15.7097102584
 20
12.594633557
 11
15.7104067027
 21
12.5984966439
  0
LINE
  5
2A7
100
AcDbEntity
  8
0
100
AcDbLine
 62
7
  6
CONTINUOUS
 10
15.2324936165
 20
11.0499695553
 11
15.2332017477
 21
11.0526514514
  0
LINE
  5
2A8
100
AcDbEntity
  8
0
100
AcDbLine
 62
7
  6
CONTINUOUS
 10
15.3119117016
 20
11.3069665729
 11
15.3126198329
 21
11.309648469
  0
LINE
  5
2A9
100
AcDbEntity
  8
0
100
AcDbLine
 62
7
  6
CONTINUOUS
 10
15.3913297867
 20
11.5639635905
 11
15.392037918
 21
11.5666454866
  0
LINE
  5
2AA
100
AcDbEntity
  8
0
100
AcDbLine
 62
7
  6
CONTINUOUS
 10
15.4707478718
 20
11.8209606081
 11
15.4714560031
 21
11.8236425042
  0
LINE
  5
2AB
100
AcDbEntity
  8
0
100
AcDbLine
 62
7
  6
CONTINUOUS
 10
15.5501659569
 20
12.0779576257
 11
15.5508740882
 21
12.0806395218
  0
LINE
  5
2AC
100
AcDbEntity
  8
0
100
AcDbLine
 62
7
  6
CONTINUOUS
 10
15.629584042
 20
12.3349546433
 11
15.6302921733
 21
12.3376365394
  0
LINE
  5
2AD
100
AcDbEntity
  8
0
100
AcDbLine
 62
7
  6
CONTINUOUS
 10
15.7090021271
 20
12.5919516609
 11
15.7097102584
 21
12.594633557
  0
LINE
  5
2AE
100
AcDbEntity
  8
0
100
AcDbLine
 62
7
  6
CONTINUOUS
 10
15.7884202122
 20
12.8489486785
 11
15.7891283435
 21
12.8516305746
  0
LINE
  5
2AF
100
AcDbEntity
  8
0
100
AcDbLine
 62
7
  6
CONTINUOUS
 10
15.8678382973
 20
13.1059456961
 11
15.8685464286
 21
13.1086275922
  0
LINE
  5
2B0
100
AcDbEntity
  8
0
100
AcDbLine
 62
7
  6
CONTINUOUS
 10
15.9472563824
 20
13.3629427137
 11
15.9479645137
 21
13.3656246098
  0
LINE
  5
2B1
100
AcDbEntity
  8
0
100
AcDbLine
 62
7
  6
CONTINUOUS
 10
15.2400134541
 20
11.1259118905
 11
15.2418780505
 21
11.1327684902
  0
LINE
  5
2B2
100
AcDbEntity
  8
0
100
AcDbLine
 62
7
  6
CONTINUOUS
 10
15.3194315393
 20
11.3829089081
 11
15.3212961356
 21
11.3897655078
  0
LINE
  5
2B3
100
AcDbEntity
  8
0
100
AcDbLine
 62
7
  6
CONTINUOUS
 10
15.3988496244
 20
11.6399059257
 11
15.4007142207
 21
11.6467625254
  0
LINE
  5
2B4
100
AcDbEntity
  8
0
100
AcDbLine
 62
7
  6
CONTINUOUS
 10
15.4782677095
 20
11.8969029433
 11
15.4801323058
 21
11.903759543
  0
LINE
  5
2B5
100
AcDbEntity
  8
0
100
AcDbLine
 62
7
  6
CONTINUOUS
 10
15.5576857946
 20
12.1538999609
 11
15.5595503909
 21
12.1607565606
  0
LINE
  5
2B6
100
AcDbEntity
  8
0
100
AcDbLine
 62
7
  6
CONTINUOUS
 10
15.6371038797
 20
12.4108969784
 11
15.638968476
 21
12.4177535782
  0
LINE
  5
2B7
100
AcDbEntity
  8
0
100
AcDbLine
 62
7
  6
CONTINUOUS
 10
15.7165219648
 20
12.667893996
 11
15.7183865611
 21
12.6747505958
  0
LINE
  5
2B8
100
AcDbEntity
  8
0
100
AcDbLine
 62
7
  6
CONTINUOUS
 10
15.7959400499
 20
12.9248910136
 11
15.7978046463
 21
12.9317476134
  0
LINE
  5
2B9
100
AcDbEntity
  8
0
100
AcDbLine
 62
7
  6
CONTINUOUS
 10
15.875358135
 20
13.1818880312
 11
15.8772227314
 21
13.188744631
  0
LINE
  5
2BA
100
AcDbEntity
  8
0
100
AcDbLine
 62
7
  6
CONTINUOUS
 10
15.9547762201
 20
13.4388850488
 11
15.9566408165
 21
13.4457416486
  0
LINE
  5
2BB
100
AcDbEntity
  8
0
100
AcDbLine
 62
7
  6
CONTINUOUS
 10
16.0341943052
 20
13.6958820664
 11
16.0360589016
 21
13.7027386662
  0
LINE
  5
2BC
100
AcDbEntity
  8
0
100
AcDbLine
 62
7
  6
CONTINUOUS
 10
16.1136123903
 20
13.952879084
 11
16.1154769867
 21
13.9597356838
  0
LINE
  5
2BD
100
AcDbEntity
  8
0
100
AcDbLine
 62
7
  6
CONTINUOUS
 10
15.1770823281
 20
10.9230894508
 11
15.19170438
 21
10.9704064281
  0
LINE
  5
2BE
100
AcDbEntity
  8
0
100
AcDbLine
 62
7
  6
CONTINUOUS
 10
15.2418783609
 20
11.13276949
 11
15.2711224651
 21
11.2274034457
  0
LINE
  5
2BF
100
AcDbEntity
  8
0
100
AcDbLine
 62
7
  6
CONTINUOUS
 10
15.321296446
 20
11.3897665076
 11
15.3505405502
 21
11.4844004633
  0
LINE
  5
2C0
100
AcDbEntity
  8
0
100
AcDbLine
 62
7
  6
CONTINUOUS
 10
15.4007145311
 20
11.6467635252
 11
15.4299586353
 21
11.7413974809
  0
LINE
  5
2C1
100
AcDbEntity
  8
0
100
AcDbLine
 62
7
  6
CONTINUOUS
 10
15.4801326163
 20
11.9037605428
 11
15.5093767204
 21
11.9983944984
  0
LINE
  5
2C2
100
AcDbEntity
  8
0
100
AcDbLine
 62
7
  6
CONTINUOUS
 10
15.5595507014
 20
12.1607575604
 11
15.5887948055
 21
12.255391516
  0
LINE
  5
2C3
100
AcDbEntity
  8
0
100
AcDbLine
 62
7
  6
CONTINUOUS
 10
15.6389687865
 20
12.417754578
 11
15.6682128906
 21
12.5123885336
  0
LINE
  5
2C4
100
AcDbEntity
  8
0
100
AcDbLine
 62
7
  6
CONTINUOUS
 10
15.7183868716
 20
12.6747515956
 11
15.7476309757
 21
12.7693855512
  0
LINE
  5
2C5
100
AcDbEntity
  8
0
100
AcDbLine
 62
7
  6
CONTINUOUS
 10
15.7978049567
 20
12.9317486132
 11
15.8270490608
 21
13.0263825688
  0
LINE
  5
2C6
100
AcDbEntity
  8
0
100
AcDbLine
 62
7
  6
CONTINUOUS
 10
15.8772230418
 20
13.1887456308
 11
15.9064671459
 21
13.2833795864
  0
LINE
  5
2C7
100
AcDbEntity
  8
0
100
AcDbLine
 62
7
  6
CONTINUOUS
 10
15.9566411269
 20
13.4457426484
 11
15.985885231
 21
13.540376604
  0
LINE
  5
2C8
100
AcDbEntity
  8
0
100
AcDbLine
 62
7
  6
CONTINUOUS
 10
16.036059212
 20
13.702739666
 11
16.0653033161
 21
13.7973736216
  0
LINE
  5
2C9
100
AcDbEntity
  8
0
100
AcDbLine
 62
7
  6
CONTINUOUS
 10
16.1154772971
 20
13.9597366836
 11
16.1300993494
 21
14.007053662
  0
LINE
  5
2CA
100
AcDbEntity
  8
0
100
AcDbLine
 62
7
  6
CONTINUOUS
 10
15.2032463587
 20
10.9553253144
 11
15.2324904643
 21
11.0499592748
  0
LINE
  5
2CB
100
AcDbEntity
  8
0
100
AcDbLine
 62
7
  6
CONTINUOUS
 10
15.2826644438
 20
11.212322332
 11
15.3119085494
 21
11.3069562924
  0
LINE
  5
2CC
100
AcDbEntity
  8
0
100
AcDbLine
 62
7
  6
CONTINUOUS
 10
15.3620825289
 20
11.4693193496
 11
15.3913266345
 21
11.56395331
  0
LINE
  5
2CD
100
AcDbEntity
  8
0
100
AcDbLine
 62
7
  6
CONTINUOUS
 10
15.441500614
 20
11.7263163672
 11
15.4707447196
 21
11.8209503276
  0
LINE
  5
2CE
100
AcDbEntity
  8
0
100
AcDbLine
 62
7
  6
CONTINUOUS
 10
15.5209186991
 20
11.9833133848
 11
15.5501628047
 21
12.0779473452
  0
LINE
  5
2CF
100
AcDbEntity
  8
0
100
AcDbLine
 62
7
  6
CONTINUOUS
 10
15.6003367842
 20
12.2403104024
 11
15.6295808898
 21
12.3349443628
  0
LINE
  5
2D0
100
AcDbEntity
  8
0
100
AcDbLine
 62
7
  6
CONTINUOUS
 10
15.6797548693
 20
12.49730742
 11
15.7089989749
 21
12.5919413804
  0
LINE
  5
2D1
100
AcDbEntity
  8
0
100
AcDbLine
 62
7
  6
CONTINUOUS
 10
15.7591729544
 20
12.7543044376
 11
15.78841706
 21
12.848938398
  0
LINE
  5
2D2
100
AcDbEntity
  8
0
100
AcDbLine
 62
7
  6
CONTINUOUS
 10
15.8385910395
 20
13.0113014552
 11
15.8678351451
 21
13.1059354155
  0
LINE
  5
2D3
100
AcDbEntity
  8
0
100
AcDbLine
 62
7
  6
CONTINUOUS
 10
15.9180091246
 20
13.2682984728
 11
15.9472532302
 21
13.3629324331
  0
LINE
  5
2D4
100
AcDbEntity
  8
0
100
AcDbLine
 62
7
  6
CONTINUOUS
 10
15.9974272098
 20
13.5252954904
 11
16.0266713153
 21
13.6199294507
  0
LINE
  5
2D5
100
AcDbEntity
  8
0
100
AcDbLine
 62
7
  6
CONTINUOUS
 10
16.0768452949
 20
13.782292508
 11
16.1060894004
 21
13.8769264683
  0
LWPOLYLINE
  5
2D6
100
AcDbEntity
  8
0
100
AcDbPolyline
 62
7
  6
CONTINUOUS
 90
3
 70
0
 10
16.0653032761
 20
13.7973737422
 10
16.0659721736
 20
13.7994349159
 10
16.066930859
 20
13.8019791732
  0
LWPOLYLINE
  5
2D7
100
AcDbEntity
  8
0
100
AcDbPolyline
 62
7
  6
CONTINUOUS
 90
3
 70
0
 10
15.985885191
 20
13.5403767246
 10
15.9865540885
 20
13.5424378983
 10
15.9875127739
 20
13.5449821556
  0
LWPOLYLINE
  5
2D8
100
AcDbEntity
  8
0
100
AcDbPolyline
 62
7
  6
CONTINUOUS
 90
3
 70
0
 10
15.9064671059
 20
13.283379707
 10
15.9071360034
 20
13.2854408807
 10
15.9080946888
 20
13.287985138
  0
LWPOLYLINE
  5
2D9
100
AcDbEntity
  8
0
100
AcDbPolyline
 62
7
  6
CONTINUOUS
 90
3
 70
0
 10
15.8270490208
 20
13.0263826894
 10
15.8277179183
 20
13.0284438631
 10
15.8286766037
 20
13.0309881204
  0
LWPOLYLINE
  5
2DA
100
AcDbEntity
  8
0
100
AcDbPolyline
 62
7
  6
CONTINUOUS
 90
3
 70
0
 10
15.7476309357
 20
12.7693856718
 10
15.7482998332
 20
12.7714468455
 10
15.7492585186
 20
12.7739911028
  0
LWPOLYLINE
  5
2DB
100
AcDbEntity
  8
0
100
AcDbPolyline
 62
7
  6
CONTINUOUS
 90
3
 70
0
 10
15.6682128506
 20
12.5123886542
 10
15.6688817481
 20
12.5144498279
 10
15.6698404335
 20
12.5169940852
  0
LWPOLYLINE
  5
2DC
100
AcDbEntity
  8
0
100
AcDbPolyline
 62
7
  6
CONTINUOUS
 90
3
 70
0
 10
15.5887947655
 20
12.2553916366
 10
15.5894636629
 20
12.2574528103
 10
15.5904223484
 20
12.2599970676
  0
LWPOLYLINE
  5
2DD
100
AcDbEntity
  8
0
100
AcDbPolyline
 62
7
  6
CONTINUOUS
 90
3
 70
0
 10
15.5093766804
 20
11.998394619
 10
15.5100455778
 20
12.0004557927
 10
15.5110042633
 20
12.00300005
  0
LWPOLYLINE
  5
2DE
100
AcDbEntity
  8
0
100
AcDbPolyline
 62
7
  6
CONTINUOUS
 90
3
 70
0
 10
15.4299585953
 20
11.7413976014
 10
15.4306274927
 20
11.7434587752
 10
15.4315861782
 20
11.7460030324
  0
LWPOLYLINE
  5
2DF
100
AcDbEntity
  8
0
100
AcDbPolyline
 62
7
  6
CONTINUOUS
 90
3
 70
0
 10
15.3505405102
 20
11.4844005838
 10
15.3512094076
 20
11.4864617576
 10
15.3521680931
 20
11.4890060148
  0
LWPOLYLINE
  5
2E0
100
AcDbEntity
  8
0
100
AcDbPolyline
 62
7
  6
CONTINUOUS
 90
3
 70
0
 10
15.2711224251
 20
11.2274035662
 10
15.2717913225
 20
11.22946474
 10
15.272750008
 20
11.2320089972
  0
LWPOLYLINE
  5
2E1
100
AcDbEntity
  8
0
100
AcDbPolyline
 62
7
  6
CONTINUOUS
 90
3
 70
0
 10
15.1917043399
 20
10.9704065487
 10
15.1923732374
 20
10.9724677224
 10
15.1933319229
 20
10.9750119796
  0
LINE
  5
2E2
100
AcDbEntity
  8
0
100
AcDbLine
 62
7
  6
CONTINUOUS
 10
15.9965456663
 20
13.5229016085
 11
15.9974266775
 21
13.5252938838
  0
LINE
  5
2E3
100
AcDbEntity
  8
0
100
AcDbLine
 62
7
  6
CONTINUOUS
 10
15.9171275812
 20
13.2659045909
 11
15.9180085924
 21
13.2682968662
  0
LINE
  5
2E4
100
AcDbEntity
  8
0
100
AcDbLine
 62
7
  6
CONTINUOUS
 10
15.8377094961
 20
13.0089075733
 11
15.8385905073
 21
13.0112998486
  0
LINE
  5
2E5
100
AcDbEntity
  8
0
100
AcDbLine
 62
7
  6
CONTINUOUS
 10
15.758291411
 20
12.7519105557
 11
15.7591724222
 21
12.754302831
  0
LINE
  5
2E6
100
AcDbEntity
  8
0
100
AcDbLine
 62
7
  6
CONTINUOUS
 10
15.6788733259
 20
12.4949135381
 11
15.679754337
 21
12.4973058134
  0
LINE
  5
2E7
100
AcDbEntity
  8
0
100
AcDbLine
 62
7
  6
CONTINUOUS
 10
15.5994552408
 20
12.2379165205
 11
15.6003362519
 21
12.2403087958
  0
LINE
  5
2E8
100
AcDbEntity
  8
0
100
AcDbLine
 62
7
  6
CONTINUOUS
 10
15.5200371557
 20
11.9809195029
 11
15.5209181668
 21
11.9833117782
  0
LINE
  5
2E9
100
AcDbEntity
  8
0
100
AcDbLine
 62
7
  6
CONTINUOUS
 10
15.4406190705
 20
11.7239224853
 11
15.4415000817
 21
11.7263147606
  0
LINE
  5
2EA
100
AcDbEntity
  8
0
100
AcDbLine
 62
7
  6
CONTINUOUS
 10
15.7492585186
 20
12.7739911028
 11
15.7496741923
 21
12.7749129664
  0
LINE
  5
2EB
100
AcDbEntity
  8
0
100
AcDbLine
 62
7
  6
CONTINUOUS
 10
15.6698404335
 20
12.5169940852
 11
15.6702561072
 21
12.5179159488
  0
LINE
  5
2EC
100
AcDbEntity
  8
0
100
AcDbLine
 62
7
  6
CONTINUOUS
 10
15.5904223484
 20
12.2599970676
 11
15.5908380221
 21
12.2609189312
  0
LINE
  5
2ED
100
AcDbEntity
  8
0
100
AcDbLine
 62
7
  6
CONTINUOUS
 10
15.5110042633
 20
12.00300005
 11
15.511419937
 21
12.0039219136
  0
LWPOLYLINE
  5
2EE
100
AcDbEntity
  8
0
100
AcDbPolyline
 62
7
  6
CONTINUOUS
 90
3
 70
0
 10
15.674879063
 20
12.4899103879
 10
15.6773939401
 20
12.4923396433
 10
15.6788733259
 20
12.4949135381
  0
LINE
  5
2EF
100
AcDbEntity
  8
0
100
AcDbLine
 62
7
  6
CONTINUOUS
 10
15.7485920229
 20
12.7451335037
 11
15.7504997981
 21
12.7453164928
  0
LINE
  5
2F0
100
AcDbEntity
  8
0
100
AcDbLine
 62
7
  6
CONTINUOUS
 10
15.7401364661
 20
12.7451333092
 11
15.7485934282
 21
12.7451333092
  0
LWPOLYLINE
  5
2F1
100
AcDbEntity
  8
0
100
AcDbPolyline
 62
7
  6
CONTINUOUS
 90
3
 70
0
 10
15.7901273493
 20
12.8587963967
 10
15.7906720681
 20
12.8715776668
 10
15.7915415248
 20
12.8890888104
  0
LINE
  5
2F2
100
AcDbEntity
  8
0
100
AcDbLine
 62
7
  6
CONTINUOUS
 10
15.7915415248
 20
12.8890888104
 11
15.7922865411
 21
12.902205393
  0
LINE
  5
2F3
100
AcDbEntity
  8
0
100
AcDbLine
 62
7
  6
CONTINUOUS
 10
15.7898247878
 20
12.8554936615
 11
15.7901273354
 21
12.8587963965
  0
LINE
  5
2F4
100
AcDbEntity
  8
0
100
AcDbLine
 62
7
  6
CONTINUOUS
 10
15.8692428729
 20
13.1124906791
 11
15.8695454205
 21
13.115793414
  0
LINE
  5
2F5
100
AcDbEntity
  8
0
100
AcDbLine
 62
7
  6
CONTINUOUS
 10
15.7922870296
 20
12.9022052559
 11
15.7929460743
 21
12.9088613179
  0
LINE
  5
2F6
100
AcDbEntity
  8
0
100
AcDbLine
 62
7
  6
CONTINUOUS
 10
15.8717051147
 20
13.1592022734
 11
15.8723641594
 21
13.1658583355
  0
LWPOLYLINE
  5
2F7
100
AcDbEntity
  8
0
100
AcDbPolyline
 62
7
  6
CONTINUOUS
 90
3
 70
0
 10
15.7929460743
 20
12.9088613179
 10
15.7942355607
 20
12.9169141546
 10
15.7959400499
 20
12.9248910136
  0
LWPOLYLINE
  5
2F8
100
AcDbEntity
  8
0
100
AcDbPolyline
 62
7
  6
CONTINUOUS
 90
3
 70
0
 10
15.8723641594
 20
13.1658583355
 10
15.8736536458
 20
13.1739111722
 10
15.875358135
 20
13.1818880312
  0
LWPOLYLINE
  5
2F9
100
AcDbEntity
  8
0
100
AcDbPolyline
 62
7
  6
CONTINUOUS
 90
3
 70
0
 10
15.9517822445
 20
13.4228553531
 10
15.9530717309
 20
13.4309081898
 10
15.9547762201
 20
13.4388850488
  0
LINE
  5
2FA
100
AcDbEntity
  8
0
100
AcDbLine
 62
7
  6
CONTINUOUS
 10
15.7891283435
 20
12.8516305746
 11
15.7898247878
 21
12.8554936615
  0
LINE
  5
2FB
100
AcDbEntity
  8
0
100
AcDbLine
 62
7
  6
CONTINUOUS
 10
15.8685464286
 20
13.1086275922
 11
15.8692428729
 21
13.1124906791
  0
LINE
  5
2FC
100
AcDbEntity
  8
0
100
AcDbLine
 62
7
  6
CONTINUOUS
 10
15.9479645137
 20
13.3656246098
 11
15.948660958
 21
13.3694876967
  0
LINE
  5
2FD
100
AcDbEntity
  8
0
100
AcDbLine
 62
7
  6
CONTINUOUS
 10
16.0273825988
 20
13.6226216274
 11
16.0280790431
 21
13.6264847143
  0
LINE
  5
2FE
100
AcDbEntity
  8
0
100
AcDbLine
 62
7
  6
CONTINUOUS
 10
16.0266744675
 20
13.6199397313
 11
16.0273825988
 21
13.6226216274
  0
LINE
  5
2FF
100
AcDbEntity
  8
0
100
AcDbLine
 62
7
  6
CONTINUOUS
 10
16.1060925526
 20
13.8769367489
 11
16.1068006839
 21
13.879618645
  0
LINE
  5
300
100
AcDbEntity
  8
0
100
AcDbLine
 62
7
  6
CONTINUOUS
 10
15.3612009854
 20
11.4669254677
 11
15.3620819966
 21
11.469317743
  0
LINE
  5
301
100
AcDbEntity
  8
0
100
AcDbLine
 62
7
  6
CONTINUOUS
 10
15.2817829003
 20
11.2099284501
 11
15.2826639115
 21
11.2123207254
  0
LINE
  5
302
100
AcDbEntity
  8
0
100
AcDbLine
 62
7
  6
CONTINUOUS
 10
15.2023648152
 20
10.9529314325
 11
15.2032458264
 21
10.9553237078
  0
LINE
  5
303
100
AcDbEntity
  8
0
100
AcDbLine
 62
7
  6
CONTINUOUS
 10
15.4315861782
 20
11.7460030324
 11
15.4320018519
 21
11.746924896
  0
LINE
  5
304
100
AcDbEntity
  8
0
100
AcDbLine
 62
7
  6
CONTINUOUS
 10
15.3521680931
 20
11.4890060148
 11
15.3525837668
 21
11.4899278784
  0
LINE
  5
305
100
AcDbEntity
  8
0
100
AcDbLine
 62
7
  6
CONTINUOUS
 10
15.272750008
 20
11.2320089972
 11
15.2731656817
 21
11.2329308608
  0
LWPOLYLINE
  5
306
100
AcDbEntity
  8
0
100
AcDbPolyline
 62
7
  6
CONTINUOUS
 90
3
 70
0
 10
15.5954609779
 20
12.2329133704
 10
15.597975855
 20
12.2353426257
 10
15.5994552408
 20
12.2379165205
  0
LINE
  5
307
100
AcDbEntity
  8
0
100
AcDbLine
 62
7
  6
CONTINUOUS
 10
15.5916636279
 20
12.2313224576
 11
15.5954609779
 21
12.2329133704
  0
LWPOLYLINE
  5
308
100
AcDbEntity
  8
0
100
AcDbPolyline
 62
7
  6
CONTINUOUS
 90
3
 70
0
 10
15.8695454344
 20
13.1157934143
 10
15.8700901532
 20
13.1285746844
 10
15.8709596099
 20
13.146085828
  0
LWPOLYLINE
  5
309
100
AcDbEntity
  8
0
100
AcDbPolyline
 62
7
  6
CONTINUOUS
 90
3
 70
0
 10
15.9489635196
 20
13.3727904319
 10
15.9495082383
 20
13.385571702
 10
15.950377695
 20
13.4030828456
  0
LINE
  5
30A
100
AcDbEntity
  8
0
100
AcDbLine
 62
7
  6
CONTINUOUS
 10
15.8709596099
 20
13.146085828
 11
15.8717046262
 21
13.1592024106
  0
LINE
  5
30B
100
AcDbEntity
  8
0
100
AcDbLine
 62
7
  6
CONTINUOUS
 10
15.950377695
 20
13.4030828456
 11
15.9511227114
 21
13.4161994282
  0
LINE
  5
30C
100
AcDbEntity
  8
0
100
AcDbLine
 62
7
  6
CONTINUOUS
 10
15.948660958
 20
13.3694876967
 11
15.9489635057
 21
13.3727904316
  0
LINE
  5
30D
100
AcDbEntity
  8
0
100
AcDbLine
 62
7
  6
CONTINUOUS
 10
16.0280790431
 20
13.6264847143
 11
16.0283815908
 21
13.6297874492
  0
LINE
  5
30E
100
AcDbEntity
  8
0
100
AcDbLine
 62
7
  6
CONTINUOUS
 10
15.9511231998
 20
13.416199291
 11
15.9517822445
 21
13.4228553531
  0
LINE
  5
30F
100
AcDbEntity
  8
0
100
AcDbLine
 62
7
  6
CONTINUOUS
 10
16.0305412849
 20
13.6731963086
 11
16.0312003296
 21
13.6798523707
  0
LINE
  5
310
100
AcDbEntity
  8
0
100
AcDbLine
 62
7
  6
CONTINUOUS
 10
16.1302453853
 20
14.0080466971
 11
16.1300994319
 21
14.0070536365
  0
LWPOLYLINE
  5
311
100
AcDbEntity
  8
0
100
AcDbPolyline
 62
7
  6
CONTINUOUS
 90
3
 70
0
 10
16.0312003296
 20
13.6798523707
 10
16.032489816
 20
13.6879052074
 10
16.0341943052
 20
13.6958820664
  0
LWPOLYLINE
  5
312
100
AcDbEntity
  8
0
100
AcDbPolyline
 62
7
  6
CONTINUOUS
 90
3
 70
0
 10
16.1106184147
 20
13.9368493883
 10
16.1119079011
 20
13.944902225
 10
16.1136123903
 20
13.952879084
  0
LINE
  5
313
100
AcDbEntity
  8
0
100
AcDbLine
 62
7
  6
CONTINUOUS
 10
16.1068006839
 20
13.879618645
 11
16.1074971282
 21
13.8834817319
  0
LINE
  5
314
100
AcDbEntity
  8
0
100
AcDbLine
 62
7
  6
CONTINUOUS
 10
15.1933319229
 20
10.9750119796
 11
15.1937475966
 21
10.9759338432
  0
LWPOLYLINE
  5
315
100
AcDbEntity
  8
0
100
AcDbPolyline
 62
7
  6
CONTINUOUS
 90
3
 70
0
 10
15.5160428928
 20
11.9759163528
 10
15.5185577699
 20
11.9783456081
 10
15.5200371557
 20
11.9809195029
  0
LINE
  5
316
100
AcDbEntity
  8
0
100
AcDbLine
 62
7
  6
CONTINUOUS
 10
15.828010108
 20
13.0021305213
 11
15.8299178832
 21
13.0023135104
  0
LWPOLYLINE
  5
317
100
AcDbEntity
  8
0
100
AcDbPolyline
 62
7
  6
CONTINUOUS
 90
3
 70
0
 10
16.0283816047
 20
13.6297874495
 10
16.0289263234
 20
13.6425687196
 10
16.0297957801
 20
13.6600798632
  0
LWPOLYLINE
  5
318
100
AcDbEntity
  8
0
100
AcDbPolyline
 62
7
  6
CONTINUOUS
 90
3
 70
0
 10
16.1077996898
 20
13.8867844671
 10
16.1083444085
 20
13.8995657372
 10
16.1092138652
 20
13.9170768808
  0
LINE
  5
319
100
AcDbEntity
  8
0
100
AcDbLine
 62
7
  6
CONTINUOUS
 10
16.0297957801
 20
13.6600798632
 11
16.0305407965
 21
13.6731964458
  0
LINE
  5
31A
100
AcDbEntity
  8
0
100
AcDbLine
 62
7
  6
CONTINUOUS
 10
16.1092138652
 20
13.9170768808
 11
16.1099588816
 21
13.9301934634
  0
LINE
  5
31B
100
AcDbEntity
  8
0
100
AcDbLine
 62
7
  6
CONTINUOUS
 10
16.1074971282
 20
13.8834817319
 11
16.1077996759
 21
13.8867844668
  0
LINE
  5
31C
100
AcDbEntity
  8
0
100
AcDbLine
 62
7
  6
CONTINUOUS
 10
16.10995937
 20
13.9301933262
 11
16.1106184147
 21
13.9368493883
  0
LWPOLYLINE
  5
31D
100
AcDbEntity
  8
0
100
AcDbPolyline
 62
7
  6
CONTINUOUS
 90
3
 70
0
 10
15.4366248077
 20
11.7189193352
 10
15.4391396848
 20
11.7213485905
 10
15.4406190705
 20
11.7239224853
  0
LINE
  5
31E
100
AcDbEntity
  8
0
100
AcDbLine
 62
7
  6
CONTINUOUS
 10
15.5122455428
 20
11.9743254401
 11
15.5160428928
 21
11.9759163528
  0
LINE
  5
31F
100
AcDbEntity
  8
0
100
AcDbLine
 62
7
  6
CONTINUOUS
 10
15.8195545512
 20
13.0021303268
 11
15.8280115133
 21
13.0021303268
  0
LWPOLYLINE
  5
320
100
AcDbEntity
  8
0
100
AcDbPolyline
 62
7
  6
CONTINUOUS
 90
3
 70
0
 10
15.3572067226
 20
11.4619223176
 10
15.3597215996
 20
11.4643515729
 10
15.3612009854
 20
11.4669254677
  0
LINE
  5
321
100
AcDbEntity
  8
0
100
AcDbLine
 62
7
  6
CONTINUOUS
 10
15.9074281931
 20
13.2591275389
 11
15.9093359684
 21
13.259310528
  0
LWPOLYLINE
  5
322
100
AcDbEntity
  8
0
100
AcDbPolyline
 62
7
  6
CONTINUOUS
 90
3
 70
0
 10
15.2777886375
 20
11.2049253
 10
15.2803035145
 20
11.2073545553
 10
15.2817829003
 20
11.2099284501
  0
LINE
  5
323
100
AcDbEntity
  8
0
100
AcDbLine
 62
7
  6
CONTINUOUS
 10
15.4328274577
 20
11.7173284225
 11
15.4366248077
 21
11.7189193352
  0
LINE
  5
324
100
AcDbEntity
  8
0
100
AcDbLine
 62
7
  6
CONTINUOUS
 10
15.8989726363
 20
13.2591273444
 11
15.9074295985
 21
13.2591273444
  0
LINE
  5
325
100
AcDbEntity
  8
0
100
AcDbLine
 62
7
  6
CONTINUOUS
 10
15.3534093726
 20
11.4603314049
 11
15.3572067226
 21
11.4619223176
  0
LWPOLYLINE
  5
326
100
AcDbEntity
  8
0
100
AcDbPolyline
 62
7
  6
CONTINUOUS
 90
3
 70
0
 10
15.1983705523
 20
10.9479282824
 10
15.2008854294
 20
10.9503575377
 10
15.2023648152
 20
10.9529314325
  0
LINE
  5
327
100
AcDbEntity
  8
0
100
AcDbLine
 62
7
  6
CONTINUOUS
 10
15.9868462782
 20
13.5161245565
 11
15.9887540535
 21
13.5163075456
  0
LINE
  5
328
100
AcDbEntity
  8
0
100
AcDbLine
 62
7
  6
CONTINUOUS
 10
15.9783907214
 20
13.5161243619
 11
15.9868476836
 21
13.5161243619
  0
LINE
  5
329
100
AcDbEntity
  8
0
100
AcDbLine
 62
7
  6
CONTINUOUS
 10
15.2739912875
 20
11.2033343873
 11
15.2777886375
 21
11.2049253
  0
LINE
  5
32A
100
AcDbEntity
  8
0
100
AcDbLine
 62
7
  6
CONTINUOUS
 10
16.0662643633
 20
13.7731215741
 11
16.0681721386
 21
13.7733045632
  0
LINE
  5
32B
100
AcDbEntity
  8
0
100
AcDbLine
 62
7
  6
CONTINUOUS
 10
16.0578088065
 20
13.7731213795
 11
16.0662657687
 21
13.7731213795
  0
LINE
  5
32C
100
AcDbEntity
  8
0
100
AcDbLine
 62
7
  6
CONTINUOUS
 10
15.1945732024
 20
10.9463373697
 11
15.1983705523
 21
10.9479282824
  0
LINE
  5
32D
100
AcDbEntity
  8
0
100
AcDbLine
 62
7
  6
CONTINUOUS
 10
16.1287635862
 20
14.0897960927
 11
16.1262874505
 21
14.0948419267
  0
ARC
  5
32E
100
AcDbEntity
  8
0
100
AcDbCircle
 62
7
  6
CONTINUOUS
 10
2.6098038279
 20
4.3796507214
 40
3.5433070866
100
AcDbArc
 50
18.2198430833
 51
20.0949031118
  0
ARC
  5
32F
100
AcDbEntity
  8
0
100
AcDbCircle
 62
7
  6
CONTINUOUS
 10
2.6098038279
 20
4.3796507214
 40
3.5433070866
100
AcDbArc
 50
16.888086428
 51
18.1987928024
  0
ARC
  5
330
100
AcDbEntity
  8
0
100
AcDbCircle
 62
7
  6
CONTINUOUS
 10
5.9399145203
 20
5.6271446631
 40
0.0063976378
100
AcDbArc
 50
92.8200040086
 51
180.0
  0
ARC
  5
331
100
AcDbEntity
  8
0
100
AcDbCircle
 62
7
  6
CONTINUOUS
 10
5.984812102
 20
5.4905923377
 40
0.0098425197
100
AcDbArc
 50
198.2198430833
 51
270.0
  0
ARC
  5
332
100
AcDbEntity
  8
0
100
AcDbCircle
 62
7
  6
CONTINUOUS
 10
6.0097203077
 20
5.4118522805
 40
0.0098425197
100
AcDbArc
 50
196.8886956181
 51
270.0001743776
  0
ARC
  5
333
100
AcDbEntity
  8
0
100
AcDbCircle
 62
7
  6
CONTINUOUS
 10
5.9974932604
 20
5.6190272997
 40
0.063976378
100
AcDbArc
 50
180.0
 51
200.0949031118
  0
ARC
  5
334
100
AcDbEntity
  8
0
100
AcDbCircle
 62
7
  6
CONTINUOUS
 10
6.1303672762
 20
1.760722383
 40
3.87750775
100
AcDbArc
 50
87.1799959914
 51
92.8200040086
  0
ARC
  5
335
100
AcDbEntity
  8
0
100
AcDbCircle
 62
7
  6
CONTINUOUS
 10
6.2759224503
 20
5.4905923377
 40
0.0098425197
100
AcDbArc
 50
270.0
 51
341.7801569167
  0
ARC
  5
336
100
AcDbEntity
  8
0
100
AcDbCircle
 62
7
  6
CONTINUOUS
 10
6.2510142189
 20
5.4118521946
 40
0.0098425197
100
AcDbArc
 50
269.9999753465
 51
343.1118261727
  0
ARC
  5
337
100
AcDbEntity
  8
0
100
AcDbCircle
 62
7
  6
CONTINUOUS
 10
6.2632412919
 20
5.6190272997
 40
0.063976378
100
AcDbArc
 50
339.9050968882
 51
360.0
  0
ARC
  5
338
100
AcDbEntity
  8
0
100
AcDbCircle
 62
7
  6
CONTINUOUS
 10
6.3208200321
 20
5.6271446631
 40
0.0063976378
100
AcDbArc
 50
0.0
 51
87.1799959914
  0
ARC
  5
339
100
AcDbEntity
  8
0
100
AcDbCircle
 62
7
  6
CONTINUOUS
 10
9.6509307244
 20
4.3796507214
 40
3.5433070866
100
AcDbArc
 50
159.9050968882
 51
161.7801569167
  0
ARC
  5
33A
100
AcDbEntity
  8
0
100
AcDbCircle
 62
7
  6
CONTINUOUS
 10
9.6509307244
 20
4.3796507214
 40
3.5433070866
100
AcDbArc
 50
161.804493123
 51
163.111913572
  0
ARC
  5
33B
100
AcDbEntity
  8
0
100
AcDbCircle
 62
7
  6
CONTINUOUS
 10
13.695488166
 20
5.3582624997
 40
0.0157480315
100
AcDbArc
 50
193.0
 51
270.0
  0
ARC
  5
33C
100
AcDbEntity
  8
0
100
AcDbCircle
 62
7
  6
CONTINUOUS
 10
13.8162984633
 20
5.3582624997
 40
0.0157480315
100
AcDbArc
 50
270.0
 51
347.0
  0
ARC
  5
33D
100
AcDbEntity
  8
0
100
AcDbCircle
 62
7
  6
CONTINUOUS
 10
14.0235721555
 20
5.3582624997
 40
0.0157480315
100
AcDbArc
 50
193.0
 51
270.0
  0
ARC
  5
33E
100
AcDbEntity
  8
0
100
AcDbCircle
 62
7
  6
CONTINUOUS
 10
14.1443824528
 20
5.3582624997
 40
0.0157480315
100
AcDbArc
 50
270.0
 51
347.0
  0
ARC
  5
33F
100
AcDbEntity
  8
0
100
AcDbCircle
 62
7
  6
CONTINUOUS
 10
14.351656145
 20
5.3582624997
 40
0.0157480315
100
AcDbArc
 50
193.0
 51
270.0
  0
ARC
  5
340
100
AcDbEntity
  8
0
100
AcDbCircle
 62
7
  6
CONTINUOUS
 10
14.4724664423
 20
5.3582624997
 40
0.0157480315
100
AcDbArc
 50
270.0
 51
347.0
  0
ARC
  5
341
100
AcDbEntity
  8
0
100
AcDbCircle
 62
7
  6
CONTINUOUS
 10
14.6797401345
 20
5.3582624997
 40
0.0157480315
100
AcDbArc
 50
193.0
 51
270.0
  0
ARC
  5
342
100
AcDbEntity
  8
0
100
AcDbCircle
 62
7
  6
CONTINUOUS
 10
14.8005504318
 20
5.3582624997
 40
0.0157480315
100
AcDbArc
 50
270.0
 51
347.0
  0
ARC
  5
343
100
AcDbEntity
  8
0
100
AcDbCircle
 62
7
  6
CONTINUOUS
 10
15.007824124
 20
5.3582624997
 40
0.0157480315
100
AcDbArc
 50
193.0
 51
270.0
  0
ARC
  5
344
100
AcDbEntity
  8
0
100
AcDbCircle
 62
7
  6
CONTINUOUS
 10
15.1286344213
 20
5.3582624997
 40
0.0157480315
100
AcDbArc
 50
270.0
 51
347.0
  0
ARC
  5
345
100
AcDbEntity
  8
0
100
AcDbCircle
 62
7
  6
CONTINUOUS
 10
15.3359081135
 20
5.3582624997
 40
0.0157480315
100
AcDbArc
 50
193.0
 51
270.0
  0
ARC
  5
346
100
AcDbEntity
  8
0
100
AcDbCircle
 62
7
  6
CONTINUOUS
 10
15.4567184108
 20
5.3582624997
 40
0.0157480315
100
AcDbArc
 50
270.0
 51
347.0
  0
ARC
  5
347
100
AcDbEntity
  8
0
100
AcDbCircle
 62
7
  6
CONTINUOUS
 10
13.6522564686
 20
5.4055065942
 40
0.0157480315
100
AcDbArc
 50
13.0
 51
90.0
  0
ARC
  5
348
100
AcDbEntity
  8
0
100
AcDbCircle
 62
7
  6
CONTINUOUS
 10
13.9803404581
 20
5.4055065942
 40
0.0157480315
100
AcDbArc
 50
13.0
 51
90.0
  0
ARC
  5
349
100
AcDbEntity
  8
0
100
AcDbCircle
 62
7
  6
CONTINUOUS
 10
13.8595301608
 20
5.4055065942
 40
0.0157480315
100
AcDbArc
 50
90.0
 51
167.0
  0
ARC
  5
34A
100
AcDbEntity
  8
0
100
AcDbCircle
 62
7
  6
CONTINUOUS
 10
14.3084244476
 20
5.4055065942
 40
0.0157480315
100
AcDbArc
 50
13.0
 51
90.0
  0
ARC
  5
34B
100
AcDbEntity
  8
0
100
AcDbCircle
 62
7
  6
CONTINUOUS
 10
14.1876141503
 20
5.4055065942
 40
0.0157480315
100
AcDbArc
 50
90.0
 51
167.0
  0
ARC
  5
34C
100
AcDbEntity
  8
0
100
AcDbCircle
 62
7
  6
CONTINUOUS
 10
14.6365084371
 20
5.4055065942
 40
0.0157480315
100
AcDbArc
 50
13.0
 51
90.0
  0
ARC
  5
34D
100
AcDbEntity
  8
0
100
AcDbCircle
 62
7
  6
CONTINUOUS
 10
14.5156981398
 20
5.4055065942
 40
0.0157480315
100
AcDbArc
 50
90.0
 51
167.0
  0
ARC
  5
34E
100
AcDbEntity
  8
0
100
AcDbCircle
 62
7
  6
CONTINUOUS
 10
14.9645924266
 20
5.4055065942
 40
0.0157480315
100
AcDbArc
 50
13.0
 51
90.0
  0
ARC
  5
34F
100
AcDbEntity
  8
0
100
AcDbCircle
 62
7
  6
CONTINUOUS
 10
14.8437821293
 20
5.4055065942
 40
0.0157480315
100
AcDbArc
 50
90.0
 51
167.0
  0
ARC
  5
350
100
AcDbEntity
  8
0
100
AcDbCircle
 62
7
  6
CONTINUOUS
 10
15.2926764161
 20
5.4055065942
 40
0.0157480315
100
AcDbArc
 50
13.0
 51
90.0
  0
ARC
  5
351
100
AcDbEntity
  8
0
100
AcDbCircle
 62
7
  6
CONTINUOUS
 10
15.1718661188
 20
5.4055065942
 40
0.0157480315
100
AcDbArc
 50
90.0
 51
167.0
  0
ARC
  5
352
100
AcDbEntity
  8
0
100
AcDbCircle
 62
7
  6
CONTINUOUS
 10
15.4999501083
 20
5.4055065942
 40
0.0157480315
100
AcDbArc
 50
90.0
 51
167.0
  0
ARC
  5
353
100
AcDbEntity
  8
0
100
AcDbCircle
 62
7
  6
CONTINUOUS
 10
17.4252223478
 20
5.3582624997
 40
0.0157480315
100
AcDbArc
 50
270.0
 51
347.0
  0
ARC
  5
354
100
AcDbEntity
  8
0
100
AcDbCircle
 62
7
  6
CONTINUOUS
 10
17.3044120505
 20
5.3582624997
 40
0.0157480315
100
AcDbArc
 50
193.0
 51
270.0
  0
ARC
  5
355
100
AcDbEntity
  8
0
100
AcDbCircle
 62
7
  6
CONTINUOUS
 10
17.0971383583
 20
5.3582624997
 40
0.0157480315
100
AcDbArc
 50
270.0
 51
347.0
  0
ARC
  5
356
100
AcDbEntity
  8
0
100
AcDbCircle
 62
7
  6
CONTINUOUS
 10
16.976328061
 20
5.3582624997
 40
0.0157480315
100
AcDbArc
 50
193.0
 51
270.0
  0
ARC
  5
357
100
AcDbEntity
  8
0
100
AcDbCircle
 62
7
  6
CONTINUOUS
 10
16.7690543688
 20
5.3582624997
 40
0.0157480315
100
AcDbArc
 50
270.0
 51
347.0
  0
ARC
  5
358
100
AcDbEntity
  8
0
100
AcDbCircle
 62
7
  6
CONTINUOUS
 10
16.6482440715
 20
5.3582624997
 40
0.0157480315
100
AcDbArc
 50
193.0
 51
270.0
  0
ARC
  5
359
100
AcDbEntity
  8
0
100
AcDbCircle
 62
7
  6
CONTINUOUS
 10
16.4409703793
 20
5.3582624997
 40
0.0157480315
100
AcDbArc
 50
270.0
 51
347.0
  0
ARC
  5
35A
100
AcDbEntity
  8
0
100
AcDbCircle
 62
7
  6
CONTINUOUS
 10
16.320160082
 20
5.3582624997
 40
0.0157480315
100
AcDbArc
 50
193.0
 51
270.0
  0
ARC
  5
35B
100
AcDbEntity
  8
0
100
AcDbCircle
 62
7
  6
CONTINUOUS
 10
16.1128863898
 20
5.3582624997
 40
0.0157480315
100
AcDbArc
 50
270.0
 51
347.0
  0
ARC
  5
35C
100
AcDbEntity
  8
0
100
AcDbCircle
 62
7
  6
CONTINUOUS
 10
15.9920760925
 20
5.3582624997
 40
0.0157480315
100
AcDbArc
 50
193.0
 51
270.0
  0
ARC
  5
35D
100
AcDbEntity
  8
0
100
AcDbCircle
 62
7
  6
CONTINUOUS
 10
15.663992103
 20
5.3582624997
 40
0.0157480315
100
AcDbArc
 50
193.0
 51
270.0
  0
ARC
  5
35E
100
AcDbEntity
  8
0
100
AcDbCircle
 62
7
  6
CONTINUOUS
 10
15.7848024003
 20
5.3582624997
 40
0.0157480315
100
AcDbArc
 50
270.0
 51
347.0
  0
ARC
  5
35F
100
AcDbEntity
  8
0
100
AcDbCircle
 62
7
  6
CONTINUOUS
 10
17.4684540453
 20
5.4055065942
 40
0.0157480315
100
AcDbArc
 50
90.0
 51
167.0
  0
ARC
  5
360
100
AcDbEntity
  8
0
100
AcDbCircle
 62
7
  6
CONTINUOUS
 10
17.1403700558
 20
5.4055065942
 40
0.0157480315
100
AcDbArc
 50
90.0
 51
167.0
  0
ARC
  5
361
100
AcDbEntity
  8
0
100
AcDbCircle
 62
7
  6
CONTINUOUS
 10
17.2611803531
 20
5.4055065942
 40
0.0157480315
100
AcDbArc
 50
13.0
 51
90.0
  0
ARC
  5
362
100
AcDbEntity
  8
0
100
AcDbCircle
 62
7
  6
CONTINUOUS
 10
16.8122860663
 20
5.4055065942
 40
0.0157480315
100
AcDbArc
 50
90.0
 51
167.0
  0
ARC
  5
363
100
AcDbEntity
  8
0
100
AcDbCircle
 62
7
  6
CONTINUOUS
 10
16.9330963636
 20
5.4055065942
 40
0.0157480315
100
AcDbArc
 50
13.0
 51
90.0
  0
ARC
  5
364
100
AcDbEntity
  8
0
100
AcDbCircle
 62
7
  6
CONTINUOUS
 10
16.4842020768
 20
5.4055065942
 40
0.0157480315
100
AcDbArc
 50
90.0
 51
167.0
  0
ARC
  5
365
100
AcDbEntity
  8
0
100
AcDbCircle
 62
7
  6
CONTINUOUS
 10
16.6050123741
 20
5.4055065942
 40
0.0157480315
100
AcDbArc
 50
13.0
 51
90.0
  0
ARC
  5
366
100
AcDbEntity
  8
0
100
AcDbCircle
 62
7
  6
CONTINUOUS
 10
16.1561180873
 20
5.4055065942
 40
0.0157480315
100
AcDbArc
 50
90.0
 51
167.0
  0
ARC
  5
367
100
AcDbEntity
  8
0
100
AcDbCircle
 62
7
  6
CONTINUOUS
 10
16.2769283846
 20
5.4055065942
 40
0.0157480315
100
AcDbArc
 50
13.0
 51
90.0
  0
ARC
  5
368
100
AcDbEntity
  8
0
100
AcDbCircle
 62
7
  6
CONTINUOUS
 10
15.8280340978
 20
5.4055065942
 40
0.0157480315
100
AcDbArc
 50
90.0
 51
167.0
  0
ARC
  5
369
100
AcDbEntity
  8
0
100
AcDbCircle
 62
7
  6
CONTINUOUS
 10
15.9488443951
 20
5.4055065942
 40
0.0157480315
100
AcDbArc
 50
13.0
 51
90.0
  0
ARC
  5
36A
100
AcDbEntity
  8
0
100
AcDbCircle
 62
7
  6
CONTINUOUS
 10
15.6207604056
 20
5.4055065942
 40
0.0157480315
100
AcDbArc
 50
13.0
 51
90.0
  0
ARC
  5
36B
100
AcDbEntity
  8
0
100
AcDbCircle
 62
7
  6
CONTINUOUS
 10
15.9430270471
 20
8.769153455
 40
5.3325560882
100
AcDbArc
 50
88.1117537975
 51
91.8882462025
  0
ARC
  5
36C
100
AcDbEntity
  8
0
100
AcDbCircle
 62
7
  6
CONTINUOUS
 10
14.9900100259
 20
5.6851892439
 40
5.3325560882
100
AcDbArc
 50
88.1117537975
 51
91.8882462025
  0
ARC
  5
36D
100
AcDbEntity
  8
0
100
AcDbCircle
 62
7
  6
CONTINUOUS
 10
12.3283511174
 20
8.414950821
 40
3.5871159618
100
AcDbArc
 50
44.3856521611
 51
45.9279006298
  0
ARC
  5
36E
100
AcDbEntity
  8
0
100
AcDbCircle
 62
7
  6
CONTINUOUS
 10
17.3875962534
 20
14.0118950448
 40
1.2573567574
100
AcDbArc
 50
177.0715186856
 51
180.1753634552
  0
ARC
  5
36F
100
AcDbEntity
  8
0
100
AcDbCircle
 62
7
  6
CONTINUOUS
 10
16.4345792321
 20
10.9279308337
 40
1.2573567574
100
AcDbArc
 50
177.0715186856
 51
180.1753634552
  0
ARC
  5
370
100
AcDbEntity
  8
0
100
AcDbCircle
 62
7
  6
CONTINUOUS
 10
14.8124524065
 20
11.0121414524
 40
0.0021185115
100
AcDbArc
 50
162.837786755
 51
174.5593157889
  0
SPLINE
  5
371
100
AcDbEntity
  8
0
100
AcDbSpline
 62
7
  6
CONTINUOUS
 70
0
 71
3
 72
9
 73
5
 74
0
 42
0.0000001
 43
0.0000001
 44
0.0000000001
 40
0.0
 40
0.0
 40
0.0
 40
0.0
 40
0.2683712571
 40
1.0
 40
1.0
 40
1.0
 40
1.0
 10
16.1287635862
 20
14.0897960927
 30
0.0
 10
16.129319118
 20
14.0886640379
 30
0.0
 10
16.1311754425
 20
14.0843516623
 30
0.0
 10
16.1320578277
 20
14.0795658703
 30
0.0
 10
16.1318814978
 20
14.0761326345
 30
0.0
  0
SPLINE
  5
372
100
AcDbEntity
  8
0
100
AcDbSpline
 62
7
  6
CONTINUOUS
 70
0
 71
3
 72
9
 73
5
 74
0
 42
0.0000001
 43
0.0000001
 44
0.0000000001
 40
0.0
 40
0.0
 40
0.0
 40
0.0
 40
0.5399049784
 40
1.0
 40
1.0
 40
1.0
 40
1.0
 10
16.1187355595
 20
14.0988139463
 30
0.0
 10
16.1203159661
 20
14.0987622513
 30
0.0
 10
16.1232013405
 20
14.0979810535
 30
0.0
 10
16.1256938159
 20
14.096051627
 30
0.0
 10
16.1262874505
 20
14.0948419267
 30
0.0
  0
SPLINE
  5
373
100
AcDbEntity
  8
0
100
AcDbSpline
 62
7
  6
CONTINUOUS
 70
0
 71
3
 72
9
 73
5
 74
0
 42
0.0000001
 43
0.0000001
 44
0.0000000001
 40
0.0
 40
0.0
 40
0.0
 40
0.0
 40
0.5734379225
 40
1.0
 40
1.0
 40
1.0
 40
1.0
 10
15.1706809602
 20
10.9198772205
 30
0.0
 10
15.1721169519
 20
10.9198772205
 30
0.0
 10
15.1746832924
 20
10.9201700871
 30
0.0
 10
15.1767666528
 20
10.9220689729
 30
0.0
 10
15.1770818427
 20
10.9230896009
 30
0.0
  0
SPLINE
  5
374
100
AcDbEntity
  8
0
100
AcDbSpline
 62
7
  6
CONTINUOUS
 70
0
 71
3
 72
9
 73
5
 74
0
 42
0.0000001
 43
0.0000001
 44
0.0000000001
 40
0.0
 40
0.0
 40
0.0
 40
0.0
 40
0.4861638062
 40
1.0
 40
1.0
 40
1.0
 40
1.0
 10
14.8918758804
 20
10.924082486
 30
0.0
 10
14.8931989016
 20
10.9227303492
 30
0.0
 10
14.8966600505
 20
10.9206945085
 30
0.0
 10
14.9005511617
 20
10.9198772205
 30
0.0
 10
14.9025505734
 20
10.9198772205
 30
0.0
  0
SPLINE
  5
375
100
AcDbEntity
  8
0
100
AcDbSpline
 62
7
  6
CONTINUOUS
 70
0
 71
3
 72
9
 73
5
 74
0
 42
0.0000001
 43
0.0000001
 44
0.0000000001
 40
0.0
 40
0.0
 40
0.0
 40
0.0
 40
0.2321237102
 40
1.0
 40
1.0
 40
1.0
 40
1.0
 10
14.8131241264
 20
11.0058318816
 30
0.0
 10
14.8137089062
 20
11.0046402256
 30
0.0
 10
14.8165046491
 20
10.9996422276
 30
0.0
 10
14.8202616061
 20
10.9952228958
 30
0.0
 10
14.8234163176
 20
10.9921684233
 30
0.0
  0
SPLINE
  5
376
100
AcDbEntity
  8
0
100
AcDbSpline
 62
7
  6
CONTINUOUS
 70
0
 71
3
 72
9
 73
5
 74
0
 42
0.0000001
 43
0.0000001
 44
0.0000000001
 40
0.0
 40
0.0
 40
0.0
 40
0.0
 40
0.4296348474
 40
1.0
 40
1.0
 40
1.0
 40
1.0
 10
15.7634452468
 20
14.0967307896
 30
0.0
 10
15.7636402832
 20
14.0973607072
 30
0.0
 10
15.7648766856
 20
14.0985485334
 30
0.0
 10
15.7664436154
 20
14.0987843785
 30
0.0
 10
15.7673185348
 20
14.0988139463
 30
0.0
  0
SPLINE
  5
377
100
AcDbEntity
  8
0
100
AcDbSpline
 62
7
  6
CONTINUOUS
 70
0
 71
3
 72
9
 73
5
 74
0
 42
0.0000001
 43
0.0000001
 44
0.0000000001
 40
0.0
 40
0.0
 40
0.0
 40
0.0
 40
0.7313454104
 40
1.0
 40
1.0
 40
1.0
 40
1.0
 10
14.8103434391
 20
11.0123423195
 30
0.0
 10
14.8103085577
 20
11.0119768072
 30
0.0
 10
14.810392369
 20
11.0114603668
 30
0.0
 10
14.810588571
 20
11.0109988002
 30
0.0
 10
14.8106479907
 20
11.0108777156
 30
0.0
  0
SPLINE
  5
378
100
AcDbEntity
  8
0
100
AcDbSpline
 62
7
  6
CONTINUOUS
 70
0
 71
3
 72
9
 73
5
 74
0
 42
0.0000001
 43
0.0000001
 44
0.0000000001
 40
0.0
 40
0.0
 40
0.0
 40
0.0
 40
0.5703651526
 40
1.0
 40
1.0
 40
1.0
 40
1.0
 10
14.8143015135
 20
11.0148497351
 30
0.0
 10
14.8134265942
 20
11.0148201674
 30
0.0
 10
14.8118596643
 20
11.0145843223
 30
0.0
 10
14.8106232619
 20
11.013396496
 30
0.0
 10
14.8104282256
 20
11.0127665785
 30
0.0
  0
SPLINE
  5
379
100
AcDbEntity
  8
0
100
AcDbSpline
 62
7
  6
CONTINUOUS
 70
0
 71
3
 72
9
 73
5
 74
0
 42
0.0000001
 43
0.0000001
 44
0.0000000001
 40
0.0
 40
0.0
 40
0.0
 40
0.0
 40
0.4600950216
 40
1.0
 40
1.0
 40
1.0
 40
1.0
 10
15.1732704292
 20
11.0108777156
 30
0.0
 10
15.1726767946
 20
11.0120874159
 30
0.0
 10
15.1701843192
 20
11.0140168424
 30
0.0
 10
15.1672989448
 20
11.0147980401
 30
0.0
 10
15.1657185382
 20
11.0148497351
 30
0.0
  0
SPLINE
  5
37A
100
AcDbEntity
  8
0
100
AcDbSpline
 62
7
  6
CONTINUOUS
 70
0
 71
3
 72
9
 73
5
 74
0
 42
0.0000001
 43
0.0000001
 44
0.0000000001
 40
0.0
 40
0.0
 40
0.0
 40
0.0
 40
0.2355474937
 40
1.0
 40
1.0
 40
1.0
 40
1.0
 10
15.1788644766
 20
10.9921684233
 30
0.0
 10
15.1789212762
 20
10.9932743413
 30
0.0
 10
15.1788130995
 20
10.9979885967
 30
0.0
 10
15.177329835
 20
11.0026055165
 30
0.0
 10
15.1757465649
 20
11.0058318816
 30
0.0
  0
ENDSEC
  0
SECTION
  2
OBJECTS
  0
DICTIONARY
  5
C
100
AcDbDictionary
280
0
281
1
  3
ACAD_GROUP
350
D
  3
ACAD_MLINESTYLE
350
17
  3
ACAD_LAYOUT
350
1A
  3
ACAD_PLOTSETTINGS
350
19
  3
ACAD_PLOTSTYLENAME
350
E
  0
DICTIONARY
  5
D
102
{ACAD_REACTORS
330
C
102
}
100
AcDbDictionary
280
0
281
1
  0
ACDBDICTIONARYWDFLT
  5
E
102
{ACAD_REACTORS
330
C
102
}
100
AcDbDictionary
281
1
  3
Normal
350
F
100
AcDbDictionaryWithDefault
340
F
  0
DICTIONARY
  5
17
102
{ACAD_REACTORS
330
C
102
}
100
AcDbDictionary
280
0
281
1
  3
Standard
350
18
  0
DICTIONARY
  5
19
102
{ACAD_REACTORS
330
C
102
}
100
AcDbDictionary
281
1
  0
DICTIONARY
  5
1A
102
{ACAD_REACTORS
330
C
102
}
100
AcDbDictionary
281
1
  3
Model
350
37B
  3
Layout1
350
37C
  0
ACDBPLACEHOLDER
  5
F
102
{ACAD_REACTORS
330
E
102
}
  0
MLINESTYLE
  5
18
102
{ACAD_REACTORS
330
17
102
}
100
AcDbMlineStyle
  2
STANDARD
 70
0
  3

 62
256
 51
90.0
 52
90.0
 71
2
 49
0.5
 62
256
  6
BYLAYER
 49
-0.5
 62
256
  6
BYLAYER
  0
LAYOUT
  5
37B
102
{ACAD_REACTORS
330
1A
102
}
100
AcDbPlotSettings
  1

  2
none_device
  4
ANSI_C_(22.00_x_17.00_Inches)
  6

 40
0.0
 41
0.0
 42
0.0
 43
0.0
 44
558.8
 45
431.8
 46
0.0
 47
0.0
 48
0.0
 49
0.0
140
0.0
141
0.0
142
1.0
143
1.0
 70
1024
 72
0
 73
0
 74
0
  7

 75
0
147
1.0
148
0.0
149
0.0
100
AcDbLayout
  1
Model
 70
0
 71
0
 10
0.0
 20
0.0
 11
22.0
 21
17.0
 12
0.0
 22
0.0
 32
0.0
 14
0.0
 24
0.0
 34
0.0
 15
0.0
 25
0.0
 35
0.0
146
0.0
 13
0.0
 23
0.0
 33
0.0
 16
1.0
 26
0.0
 36
0.0
 17
0.0
 27
1.0
 37
0.0
 76
0
330
216
345
0
346
0
  0
LAYOUT
  5
37C
102
{ACAD_REACTORS
330
1A
102
}
100
AcDbPlotSettings
  1

  2
none_device
  4
ANSI_C_(22.00_x_17.00_Inches)
  6

 40
0.0
 41
0.0
 42
0.0
 43
0.0
 44
558.8
 45
431.8
 46
0.0
 47
0.0
 48
0.0
 49
0.0
140
0.0
141
0.0
142
1.0
143
1.0
 70
0
 72
0
 73
0
 74
0
  7

 75
0
147
1.0
148
0.0
149
0.0
100
AcDbLayout
  1
Layout1
 70
0
 71
1
 10
0.0
 20
0.0
 11
22.0
 21
17.0
 12
0.0
 22
0.0
 32
0.0
 14
0.0
 24
0.0
 34
0.0
 15
0.0
 25
0.0
 35
0.0
146
0.0
 13
0.0
 23
0.0
 33
0.0
 16
1.0
 26
0.0
 36
0.0
 17
0.0
 27
1.0
 37
0.0
 76
0
330
217
345
0
346
0
  0
ENDSEC
  0
EOF