999
DXF file: _cgs_temp_output.dxf
999
Pro/ENGINEER 2015110 by Parametric Technology Corporation
  0
SECTION
  2
HEADER
  9
$ACADVER
  1
AC1021
  9
$DWGCODEPAGE
  3
ANSI_1252
  9
$EXTMAX
 10
22.0
 20
17.0
 30
0.0
  9
$EXTMIN
 10
0.0
 20
0.0
 30
0.0
  9
$LIMMIN
 10
0.0
 20
0.0
  9
$LIMMAX
 10
22.0
 20
17.0
  9
$VIEWCTR
 10
11.0
 20
8.5
  9
$VIEWSIZE
 40
17.0
  9
$CLAYER
  8
0
  9
$LTSCALE
 40
1.21
  9
$CELTYPE
  6
BYLAYER
  9
$DIMSCALE
 40
1.0
  9
$DIMASZ
 40
0.1875
  9
$DIMEXO
 40
0.0625
  9
$DIMDLI
 40
0.836
  9
$DIMEXE
 40
0.125
  9
$DIMCEN
 40
0.198
  9
$DIMLFAC
 40
1.0
  9
$DIMBLK
  1
_CLOSED
  9
$DIMALT
 70
0
  9
$DIMALTF
 40
25.4
  9
$DIMTXT
 40
0.15625
  9
$DIMTOL
 70
0
  9
$DIMLIM
 70
0
  9
$DIMTFAC
 40
1.0
  9
$DIMGAP
 40
0.09
  9
$DIMDSEP
 70
46
  9
$AUNITS
 70
0
  9
$PDMODE
 70
3
  9
$PDSIZE
 40
0.3125
  9
$HANDSEED
  5
30E
  9
$TILEMODE
 70
1
  9
$MEASUREMENT
 70
0
  9
$INSUNITS
 70
1
  0
ENDSEC
  0
SECTION
  2
CLASSES
  0
CLASS
  1
ACDBDICTIONARYWDFLT
  2
AcDbDictionaryWithDefault
  3
AutoCAD 2000
 90
0
 91
1
280
0
281
0
  0
CLASS
  1
ACDBPLACEHOLDER
  2
AcDbPlaceHolder
  3
AutoCAD 2000
 90
0
 91
1
280
0
281
0
  0
CLASS
  1
LAYOUT
  2
AcDbLayout
  3
AutoCAD 2000
 90
0
 91
0
280
0
281
0
  0
ENDSEC
  0
SECTION
  2
TABLES
  0
TABLE
  2
VPORT
  5
8
100
AcDbSymbolTable
 70
2
  0
VPORT
  5
1F4
100
AcDbSymbolTableRecord
100
AcDbViewportTableRecord
  2
*ACTIVE
 70
0
 10
0.0
 20
0.0
 11
1.0
 21
1.0
 12
11.0
 22
8.5
 13
0.0
 23
0.0
 14
1.0
 24
1.0
 15
0.0
 25
0.0
 16
0.0
 26
0.0
 36
1.0
 17
0.0
 27
0.0
 37
0.0
 40
17.0
 41
1.2941176471
 42
50.0
 43
0.0
 44
0.0
 50
0.0
 51
0.0
 71
0
 72
100
 73
1
 74
1
 75
0
 76
0
 77
0
 78
0
  0
ENDTAB
  0
TABLE
  2
LTYPE
  5
5
100
AcDbSymbolTable
 70
6
  0
LTYPE
  5
14
100
AcDbSymbolTableRecord
100
AcDbLinetypeTableRecord
  2
BYBLOCK
 70
0
  3

 72
65
 73
0
 40
0.0
  0
LTYPE
  5
15
100
AcDbSymbolTableRecord
100
AcDbLinetypeTableRecord
  2
BYLAYER
 70
0
  3

 72
65
 73
0
 40
0.0
  0
LTYPE
  5
16
100
AcDbSymbolTableRecord
100
AcDbLinetypeTableRecord
  2
CONTINUOUS
 70
64
  3
Solid line
 72
65
 73
0
 40
0.0
  0
LTYPE
  5
1F5
100
AcDbSymbolTableRecord
100
AcDbLinetypeTableRecord
  2
CENTER
 70
64
  3
____ _ ____ _ ____ _ ____ _ ____ _ ____ _ ____
 72
65
 73
4
 40
0.6
 49
0.375
 74
0
 49
-0.075
 74
0
 49
0.075
 74
0
 49
-0.075
 74
0
  0
LTYPE
  5
1F6
100
AcDbSymbolTableRecord
100
AcDbLinetypeTableRecord
  2
HIDDEN
 70
64
  3
- - - - - - - - - - - - - - - - - - - -
 72
65
 73
2
 40
0.2
 49
0.1
 74
0
 49
-0.1
 74
0
  0
LTYPE
  5
1F7
100
AcDbSymbolTableRecord
100
AcDbLinetypeTableRecord
  2
PHANTOM
 70
64
  3
_____ _ _ _____ _ _ _____ _ _ _____
 72
65
 73
6
 40
0.8
 49
0.45
 74
0
 49
-0.05
 74
0
 49
0.1
 74
0
 49
-0.05
 74
0
 49
0.1
 74
0
 49
-0.05
 74
0
  0
LTYPE
  5
1F8
100
AcDbSymbolTableRecord
100
AcDbLinetypeTableRecord
  2
DOT
 70
64
  3
. . . . . . . . . . . . . . . . . . . .
 72
65
 73
2
 40
0.2
 49
0.1
 74
0
 49
-0.1
 74
0
  0
LTYPE
  5
1F9
100
AcDbSymbolTableRecord
100
AcDbLinetypeTableRecord
  2
DASHED
 70
64
  3
- - - - - - - - - - - - - - - - - - - -
 72
65
 73
2
 40
0.2
 49
0.1
 74
0
 49
-0.1
 74
0
  0
ENDTAB
  0
TABLE
  2
LAYER
  5
2
100
AcDbSymbolTable
 70
36
  0
LAYER
  5
10
100
AcDbSymbolTableRecord
100
AcDbLayerTableRecord
  2
0
 70
0
 62
7
  6
CONTINUOUS
370
-3
390
F
  0
LAYER
  5
1FA
100
AcDbSymbolTableRecord
100
AcDbLayerTableRecord
  2
DEFAULT_1
 70
0
 62
7
  6
CENTER
370
-3
390
F
  0
LAYER
  5
1FB
100
AcDbSymbolTableRecord
100
AcDbLayerTableRecord
  2
DEFAULT_2
 70
0
 62
8
  6
HIDDEN
370
-3
390
F
  0
LAYER
  5
1FC
100
AcDbSymbolTableRecord
100
AcDbLayerTableRecord
  2
DEFAULT_3
 70
0
 62
7
  6
PHANTOM
370
-3
390
F
  0
LAYER
  5
1FD
100
AcDbSymbolTableRecord
100
AcDbLayerTableRecord
  2
01_ALL_DTM_PLN
 70
0
 62
7
  6
CONTINUOUS
370
-3
390
F
  0
LAYER
  5
1FE
100
AcDbSymbolTableRecord
100
AcDbLayerTableRecord
  2
01__ASM_ALL_DTM_PLN
 70
0
 62
7
  6
CONTINUOUS
370
-3
390
F
  0
LAYER
  5
1FF
100
AcDbSymbolTableRecord
100
AcDbLayerTableRecord
  2
01__ASM_DEF_DTM_PLN
 70
0
 62
7
  6
CONTINUOUS
370
-3
390
F
  0
LAYER
  5
200
100
AcDbSymbolTableRecord
100
AcDbLayerTableRecord
  2
01___PRT_ALL_DTM_PLN
 70
0
 62
7
  6
CONTINUOUS
370
-3
390
F
  0
LAYER
  5
201
100
AcDbSymbolTableRecord
100
AcDbLayerTableRecord
  2
01___PRT_DEF_DTM_PLN
 70
0
 62
7
  6
CONTINUOUS
370
-3
390
F
  0
LAYER
  5
202
100
AcDbSymbolTableRecord
100
AcDbLayerTableRecord
  2
02_ALL_AXES
 70
0
 62
7
  6
CONTINUOUS
370
-3
390
F
  0
LAYER
  5
203
100
AcDbSymbolTableRecord
100
AcDbLayerTableRecord
  2
02__ASM_ALL_AXES
 70
0
 62
7
  6
CONTINUOUS
370
-3
390
F
  0
LAYER
  5
204
100
AcDbSymbolTableRecord
100
AcDbLayerTableRecord
  2
02___PRT_ALL_AXES
 70
0
 62
7
  6
CONTINUOUS
370
-3
390
F
  0
LAYER
  5
205
100
AcDbSymbolTableRecord
100
AcDbLayerTableRecord
  2
03_ALL_CURVES
 70
0
 62
7
  6
CONTINUOUS
370
-3
390
F
  0
LAYER
  5
206
100
AcDbSymbolTableRecord
100
AcDbLayerTableRecord
  2
03__ASM_ALL_CURVES
 70
0
 62
7
  6
CONTINUOUS
370
-3
390
F
  0
LAYER
  5
207
100
AcDbSymbolTableRecord
100
AcDbLayerTableRecord
  2
03___PRT_ALL_CURVES
 70
0
 62
7
  6
CONTINUOUS
370
-3
390
F
  0
LAYER
  5
208
100
AcDbSymbolTableRecord
100
AcDbLayerTableRecord
  2
04_ALL_DTM_PNT
 70
0
 62
7
  6
CONTINUOUS
370
-3
390
F
  0
LAYER
  5
209
100
AcDbSymbolTableRecord
100
AcDbLayerTableRecord
  2
04__ASM_ALL_DTM_PNT
 70
0
 62
7
  6
CONTINUOUS
370
-3
390
F
  0
LAYER
  5
20A
100
AcDbSymbolTableRecord
100
AcDbLayerTableRecord
  2
04___PRT_ALL_DTM_PNT
 70
0
 62
7
  6
CONTINUOUS
370
-3
390
F
  0
LAYER
  5
20B
100
AcDbSymbolTableRecord
100
AcDbLayerTableRecord
  2
05_ALL_DTM_CSYS
 70
0
 62
7
  6
CONTINUOUS
370
-3
390
F
  0
LAYER
  5
20C
100
AcDbSymbolTableRecord
100
AcDbLayerTableRecord
  2
05__ASM_ALL_DTM_CSYS
 70
0
 62
7
  6
CONTINUOUS
370
-3
390
F
  0
LAYER
  5
20D
100
AcDbSymbolTableRecord
100
AcDbLayerTableRecord
  2
05__ASM_DEF_DTM_CSYS
 70
0
 62
7
  6
CONTINUOUS
370
-3
390
F
  0
LAYER
  5
20E
100
AcDbSymbolTableRecord
100
AcDbLayerTableRecord
  2
05___PRT_ALL_DTM_CSYS
 70
0
 62
7
  6
CONTINUOUS
370
-3
390
F
  0
LAYER
  5
20F
100
AcDbSymbolTableRecord
100
AcDbLayerTableRecord
  2
05___PRT_DEF_DTM_CSYS
 70
0
 62
7
  6
CONTINUOUS
370
-3
390
F
  0
LAYER
  5
210
100
AcDbSymbolTableRecord
100
AcDbLayerTableRecord
  2
06_ALL_SURFS
 70
0
 62
7
  6
CONTINUOUS
370
-3
390
F
  0
LAYER
  5
211
100
AcDbSymbolTableRecord
100
AcDbLayerTableRecord
  2
06__ASM_ALL_SURFS
 70
0
 62
7
  6
CONTINUOUS
370
-3
390
F
  0
LAYER
  5
212
100
AcDbSymbolTableRecord
100
AcDbLayerTableRecord
  2
06___PRT_ALL_SURFS
 70
0
 62
7
  6
CONTINUOUS
370
-3
390
F
  0
LAYER
  5
213
100
AcDbSymbolTableRecord
100
AcDbLayerTableRecord
  2
07__ASM_ALL_SKELETONS
 70
0
 62
7
  6
CONTINUOUS
370
-3
390
F
  0
LAYER
  5
214
100
AcDbSymbolTableRecord
100
AcDbLayerTableRecord
  2
LAYER_DIM
 70
0
 62
7
  6
CONTINUOUS
370
-3
390
F
  0
LAYER
  5
215
100
AcDbSymbolTableRecord
100
AcDbLayerTableRecord
  2
LAYER_FEATURE
 70
0
 62
7
  6
CONTINUOUS
370
-3
390
F
  0
LAYER
  5
216
100
AcDbSymbolTableRecord
100
AcDbLayerTableRecord
  2
LAYER_GEOM_FEAT
 70
0
 62
7
  6
CONTINUOUS
370
-3
390
F
  0
LAYER
  5
217
100
AcDbSymbolTableRecord
100
AcDbLayerTableRecord
  2
LAYER_PARAMETER_DIM
 70
0
 62
7
  6
CONTINUOUS
370
-3
390
F
  0
LAYER
  5
218
100
AcDbSymbolTableRecord
100
AcDbLayerTableRecord
  2
LAYER_PROTRUSION_FEAT
 70
0
 62
7
  6
CONTINUOUS
370
-3
390
F
  0
LAYER
  5
219
100
AcDbSymbolTableRecord
100
AcDbLayerTableRecord
  2
LAYER_ROUND_FEAT
 70
0
 62
7
  6
CONTINUOUS
370
-3
390
F
  0
ENDTAB
  0
TABLE
  2
STYLE
  5
3
100
AcDbSymbolTable
 70
1
  0
STYLE
  5
11
100
AcDbSymbolTableRecord
100
AcDbTextStyleTableRecord
  2
STANDARD
 70
0
 40
0.0
 41
0.8
 50
0.0
 71
0
 42
0.2
  3
txt
  4

  0
STYLE
  5
21A
100
AcDbSymbolTableRecord
100
AcDbTextStyleTableRecord
  2
TEXTSTYLE_1
 70
0
 40
0.0
 41
0.8
 50
0.0
 71
0
 42
0.2
  3
gdt
  4

  0
ENDTAB
  0
TABLE
  2
VIEW
  5
6
100
AcDbSymbolTable
 70
0
  0
ENDTAB
  0
TABLE
  2
UCS
  5
7
100
AcDbSymbolTable
 70
0
  0
ENDTAB
  0
TABLE
  2
APPID
  5
9
100
AcDbSymbolTable
 70
1
  0
APPID
  5
21B
100
AcDbSymbolTableRecord
100
AcDbRegAppTableRecord
  2
ACAD
 70
0
  0
ENDTAB
  0
TABLE
  2
BLOCK_RECORD
  5
1
100
AcDbSymbolTable
 70
0
  0
BLOCK_RECORD
  5
21C
100
AcDbSymbolTableRecord
100
AcDbBlockTableRecord
  2
*Model_Space
  0
BLOCK_RECORD
  5
21D
100
AcDbSymbolTableRecord
100
AcDbBlockTableRecord
  2
*Paper_Space
  0
ENDTAB
  0
TABLE
  2
DIMSTYLE
  5
A
100
AcDbSymbolTable
 70
1
100
AcDbDimStyleTable
 71
0
  0
DIMSTYLE
105
21E
100
AcDbSymbolTableRecord
100
AcDbDimStyleTableRecord
  2
STANDARD
 70
0
  3

  4

 40
1.0
 41
0.1875
 42
0.0625
 43
0.38
 44
0.125
 45
0.0
 46
0.0
 47
0.0001
 48
0.0001
140
0.15625
141
0.09
142
0.0
143
25.4
144
1.0
145
0.0
146
1.0
147
0.09
 71
0.0
 72
0.0
 73
1
 74
1
 75
0
 76
0
 77
0
 78
4
170
0
171
2
172
0
173
0
174
0
175
0
176
0
177
0
178
0
270
2
271
4
272
4
273
2
274
2
275
0
280
0
281
0
282
0
283
1
284
4
285
0
286
0
287
3
288
0
340
11
278
46
  0
ENDTAB
  0
ENDSEC
  0
SECTION
  2
BLOCKS
  0
BLOCK
  5
20
100
AcDbEntity
  8
0
100
AcDbBlockBegin
  2
*Model_Space
 70
0
 10
0.0
 20
0.0
 30
0.0
  3
*Model_Space
  1

  0
ENDBLK
  5
21
100
AcDbEntity
  8
0
100
AcDbBlockEnd
  0
BLOCK
  5
1C
100
AcDbEntity
  8
0
100
AcDbBlockBegin
  2
*Paper_Space
 70
0
 10
0.0
 20
0.0
 30
0.0
  3
*Paper_Space
  1

  0
ENDBLK
  5
1D
100
AcDbEntity
  8
0
100
AcDbBlockEnd
  0
ENDSEC
  0
SECTION
  2
ENTITIES
  0
MTEXT
  5
21F
100
AcDbEntity
  8
0
100
AcDbMText
 62
7
  6
CONTINUOUS
  7
STANDARD
 71
1
 72
1
 10
15.9560215477
 20
0.9479130325
 30
0.0
 11
1.0
 21
0.0
 31
0.0
 44
0.9
  1
SCALE: 1:1.000
 40
0.3
 41
3.36
  0
LINE
  5
220
100
AcDbEntity
  8
0
100
AcDbLine
 62
7
  6
CONTINUOUS
 10
0.0
 20
0.0
 11
0.0
 21
17.0
  0
LINE
  5
221
100
AcDbEntity
  8
0
100
AcDbLine
 62
7
  6
CONTINUOUS
 10
0.0
 20
0.0
 11
22.0
 21
0.0
  0
LINE
  5
222
100
AcDbEntity
  8
0
100
AcDbLine
 62
7
  6
CONTINUOUS
 10
0.0
 20
17.0
 11
22.0
 21
17.0
  0
LINE
  5
223
100
AcDbEntity
  8
0
100
AcDbLine
 62
7
  6
CONTINUOUS
 10
22.0
 20
0.0
 11
22.0
 21
17.0
  0
LINE
  5
224
100
AcDbEntity
  8
0
100
AcDbLine
 62
7
  6
CONTINUOUS
 10
2.3803672762
 20
5.8151198968
 11
2.3803672762
 21
5.7401198968
  0
LINE
  5
225
100
AcDbEntity
  8
0
100
AcDbLine
 62
7
  6
CONTINUOUS
 10
2.3803672762
 20
5.7401198968
 11
2.4921649817
 21
5.2304185295
  0
LINE
  5
226
100
AcDbEntity
  8
0
100
AcDbLine
 62
7
  6
CONTINUOUS
 10
3.0003672762
 20
5.7401198968
 11
3.0003672762
 21
5.7851198968
  0
LINE
  5
227
100
AcDbEntity
  8
LAYER_FEATURE
100
AcDbLine
 62
7
  6
CONTINUOUS
 10
3.0683672762
 20
5.7851198968
 11
3.0683672762
 21
5.7401198968
  0
LINE
  5
228
100
AcDbEntity
  8
0
100
AcDbLine
 62
7
  6
CONTINUOUS
 10
2.8885695706
 20
5.2304185295
 11
3.0003672762
 21
5.7401198968
  0
LINE
  5
229
100
AcDbEntity
  8
LAYER_FEATURE
100
AcDbLine
 62
7
  6
CONTINUOUS
 10
3.0683672762
 20
5.7401198968
 11
3.1801649817
 21
5.2304185295
  0
LINE
  5
22A
100
AcDbEntity
  8
LAYER_FEATURE
100
AcDbLine
 62
7
  6
CONTINUOUS
 10
3.6883672762
 20
5.7401198968
 11
3.6883672762
 21
5.7851198968
  0
LINE
  5
22B
100
AcDbEntity
  8
LAYER_FEATURE
100
AcDbLine
 62
7
  6
CONTINUOUS
 10
3.7563672762
 20
5.7851198968
 11
3.7563672762
 21
5.7401198968
  0
LINE
  5
22C
100
AcDbEntity
  8
LAYER_FEATURE
100
AcDbLine
 62
7
  6
CONTINUOUS
 10
3.5765695706
 20
5.2304185295
 11
3.6883672762
 21
5.7401198968
  0
LINE
  5
22D
100
AcDbEntity
  8
LAYER_FEATURE
100
AcDbLine
 62
7
  6
CONTINUOUS
 10
3.7563672762
 20
5.7401198968
 11
3.8681649817
 21
5.2304185295
  0
LINE
  5
22E
100
AcDbEntity
  8
LAYER_FEATURE
100
AcDbLine
 62
7
  6
CONTINUOUS
 10
4.3763672762
 20
5.7401198968
 11
4.3763672762
 21
5.7851198968
  0
LINE
  5
22F
100
AcDbEntity
  8
LAYER_FEATURE
100
AcDbLine
 62
7
  6
CONTINUOUS
 10
4.2645695706
 20
5.2304185295
 11
4.3763672762
 21
5.7401198968
  0
LINE
  5
230
100
AcDbEntity
  8
LAYER_FEATURE
100
AcDbLine
 62
7
  6
CONTINUOUS
 10
4.4443672762
 20
5.7851198968
 11
4.4443672762
 21
5.7401198968
  0
LINE
  5
231
100
AcDbEntity
  8
LAYER_FEATURE
100
AcDbLine
 62
7
  6
CONTINUOUS
 10
4.4443672762
 20
5.7401198968
 11
4.5561649817
 21
5.2304185295
  0
LINE
  5
232
100
AcDbEntity
  8
LAYER_FEATURE
100
AcDbLine
 62
7
  6
CONTINUOUS
 10
5.0643672762
 20
5.7401198968
 11
5.0643672762
 21
5.7851198968
  0
LINE
  5
233
100
AcDbEntity
  8
LAYER_FEATURE
100
AcDbLine
 62
7
  6
CONTINUOUS
 10
5.1323672762
 20
5.7851198968
 11
5.1323672762
 21
5.7401198968
  0
LINE
  5
234
100
AcDbEntity
  8
LAYER_FEATURE
100
AcDbLine
 62
7
  6
CONTINUOUS
 10
4.9525695706
 20
5.2304185295
 11
5.0643672762
 21
5.7401198968
  0
LINE
  5
235
100
AcDbEntity
  8
LAYER_FEATURE
100
AcDbLine
 62
7
  6
CONTINUOUS
 10
5.1323672762
 20
5.7401198968
 11
5.2441649817
 21
5.2304185295
  0
LINE
  5
236
100
AcDbEntity
  8
LAYER_FEATURE
100
AcDbLine
 62
7
  6
CONTINUOUS
 10
5.7523672762
 20
5.7401198968
 11
5.7523672762
 21
5.7851198968
  0
LINE
  5
237
100
AcDbEntity
  8
LAYER_FEATURE
100
AcDbLine
 62
7
  6
CONTINUOUS
 10
5.8203672762
 20
5.7851198968
 11
5.8203672762
 21
5.7401198968
  0
LINE
  5
238
100
AcDbEntity
  8
LAYER_FEATURE
100
AcDbLine
 62
7
  6
CONTINUOUS
 10
5.6405695706
 20
5.2304185295
 11
5.7523672762
 21
5.7401198968
  0
LINE
  5
239
100
AcDbEntity
  8
0
100
AcDbLine
 62
7
  6
CONTINUOUS
 10
2.5173984555
 20
5.2101198968
 11
2.8633360968
 21
5.2101198968
  0
LINE
  5
23A
100
AcDbEntity
  8
LAYER_FEATURE
100
AcDbLine
 62
7
  6
CONTINUOUS
 10
3.2053984555
 20
5.2101198968
 11
3.5513360968
 21
5.2101198968
  0
LINE
  5
23B
100
AcDbEntity
  8
LAYER_FEATURE
100
AcDbLine
 62
7
  6
CONTINUOUS
 10
3.8933984555
 20
5.2101198968
 11
4.2393360968
 21
5.2101198968
  0
LINE
  5
23C
100
AcDbEntity
  8
LAYER_FEATURE
100
AcDbLine
 62
7
  6
CONTINUOUS
 10
4.5813984555
 20
5.2101198968
 11
4.9273360968
 21
5.2101198968
  0
LINE
  5
23D
100
AcDbEntity
  8
LAYER_FEATURE
100
AcDbLine
 62
7
  6
CONTINUOUS
 10
5.2693984555
 20
5.2101198968
 11
5.6153360968
 21
5.2101198968
  0
LINE
  5
23E
100
AcDbEntity
  8
LAYER_FEATURE
100
AcDbLine
 62
7
  6
CONTINUOUS
 10
5.9573984555
 20
5.2101198968
 11
6.3033360968
 21
5.2101198968
  0
LINE
  5
23F
100
AcDbEntity
  8
LAYER_FEATURE
100
AcDbLine
 62
7
  6
CONTINUOUS
 10
6.6453984555
 20
5.2101198968
 11
6.9913360968
 21
5.2101198968
  0
LINE
  5
240
100
AcDbEntity
  8
LAYER_FEATURE
100
AcDbLine
 62
7
  6
CONTINUOUS
 10
7.3333984555
 20
5.2101198968
 11
7.6793360968
 21
5.2101198968
  0
LINE
  5
241
100
AcDbEntity
  8
LAYER_FEATURE
100
AcDbLine
 62
7
  6
CONTINUOUS
 10
8.0213984555
 20
5.2101198968
 11
8.3673360968
 21
5.2101198968
  0
LINE
  5
242
100
AcDbEntity
  8
LAYER_FEATURE
100
AcDbLine
 62
7
  6
CONTINUOUS
 10
8.7093984555
 20
5.2101198968
 11
9.0553360968
 21
5.2101198968
  0
LINE
  5
243
100
AcDbEntity
  8
LAYER_FEATURE
100
AcDbLine
 62
7
  6
CONTINUOUS
 10
9.3973984555
 20
5.2101198968
 11
9.7433360968
 21
5.2101198968
  0
LINE
  5
244
100
AcDbEntity
  8
LAYER_FEATURE
100
AcDbLine
 62
7
  6
CONTINUOUS
 10
5.8203672762
 20
5.7401198968
 11
5.9321649817
 21
5.2304185295
  0
LINE
  5
245
100
AcDbEntity
  8
LAYER_FEATURE
100
AcDbLine
 62
7
  6
CONTINUOUS
 10
6.3285695706
 20
5.2304185295
 11
6.4403672762
 21
5.7401198968
  0
LINE
  5
246
100
AcDbEntity
  8
LAYER_FEATURE
100
AcDbLine
 62
7
  6
CONTINUOUS
 10
3.0003672762
 20
5.7851198968
 11
3.0683672762
 21
5.7851198968
  0
LINE
  5
247
100
AcDbEntity
  8
LAYER_FEATURE
100
AcDbLine
 62
7
  6
CONTINUOUS
 10
3.6883672762
 20
5.7851198968
 11
3.7563672762
 21
5.7851198968
  0
LINE
  5
248
100
AcDbEntity
  8
LAYER_FEATURE
100
AcDbLine
 62
7
  6
CONTINUOUS
 10
4.3763672762
 20
5.7851198968
 11
4.4443672762
 21
5.7851198968
  0
LINE
  5
249
100
AcDbEntity
  8
LAYER_FEATURE
100
AcDbLine
 62
7
  6
CONTINUOUS
 10
5.0643672762
 20
5.7851198968
 11
5.1323672762
 21
5.7851198968
  0
LINE
  5
24A
100
AcDbEntity
  8
LAYER_FEATURE
100
AcDbLine
 62
7
  6
CONTINUOUS
 10
5.7523672762
 20
5.7851198968
 11
5.8203672762
 21
5.7851198968
  0
LINE
  5
24B
100
AcDbEntity
  8
LAYER_FEATURE
100
AcDbLine
 62
7
  6
CONTINUOUS
 10
6.4403672762
 20
5.7851198968
 11
6.5083672762
 21
5.7851198968
  0
LINE
  5
24C
100
AcDbEntity
  8
LAYER_FEATURE
100
AcDbLine
 62
7
  6
CONTINUOUS
 10
7.1283672762
 20
5.7851198968
 11
7.1963672762
 21
5.7851198968
  0
LINE
  5
24D
100
AcDbEntity
  8
LAYER_FEATURE
100
AcDbLine
 62
7
  6
CONTINUOUS
 10
7.8163672762
 20
5.7851198968
 11
7.8843672762
 21
5.7851198968
  0
LINE
  5
24E
100
AcDbEntity
  8
LAYER_FEATURE
100
AcDbLine
 62
7
  6
CONTINUOUS
 10
8.5043672762
 20
5.7851198968
 11
8.5723672762
 21
5.7851198968
  0
LINE
  5
24F
100
AcDbEntity
  8
LAYER_FEATURE
100
AcDbLine
 62
7
  6
CONTINUOUS
 10
9.1923672762
 20
5.7851198968
 11
9.2603672762
 21
5.7851198968
  0
LINE
  5
250
100
AcDbEntity
  8
LAYER_FEATURE
100
AcDbLine
 62
7
  6
CONTINUOUS
 10
6.4403672762
 20
5.7401198968
 11
6.4403672762
 21
5.7851198968
  0
LINE
  5
251
100
AcDbEntity
  8
LAYER_FEATURE
100
AcDbLine
 62
7
  6
CONTINUOUS
 10
6.5083672762
 20
5.7851198968
 11
6.5083672762
 21
5.7401198968
  0
LINE
  5
252
100
AcDbEntity
  8
0
100
AcDbLine
 62
7
  6
CONTINUOUS
 10
9.8653672762
 20
5.8301198968
 11
2.3953672762
 21
5.8301198968
  0
LINE
  5
253
100
AcDbEntity
  8
LAYER_FEATURE
100
AcDbLine
 62
7
  6
CONTINUOUS
 10
6.5083672762
 20
5.7401198968
 11
6.6201649817
 21
5.2304185295
  0
LINE
  5
254
100
AcDbEntity
  8
LAYER_FEATURE
100
AcDbLine
 62
7
  6
CONTINUOUS
 10
7.1283672762
 20
5.7401198968
 11
7.1283672762
 21
5.7851198968
  0
LINE
  5
255
100
AcDbEntity
  8
LAYER_FEATURE
100
AcDbLine
 62
7
  6
CONTINUOUS
 10
7.0165695706
 20
5.2304185295
 11
7.1283672762
 21
5.7401198968
  0
LINE
  5
256
100
AcDbEntity
  8
LAYER_FEATURE
100
AcDbLine
 62
7
  6
CONTINUOUS
 10
7.1963672762
 20
5.7851198968
 11
7.1963672762
 21
5.7401198968
  0
LINE
  5
257
100
AcDbEntity
  8
LAYER_FEATURE
100
AcDbLine
 62
7
  6
CONTINUOUS
 10
7.1963672762
 20
5.7401198968
 11
7.3081649817
 21
5.2304185295
  0
LINE
  5
258
100
AcDbEntity
  8
LAYER_FEATURE
100
AcDbLine
 62
7
  6
CONTINUOUS
 10
7.8163672762
 20
5.7401198968
 11
7.8163672762
 21
5.7851198968
  0
LINE
  5
259
100
AcDbEntity
  8
LAYER_FEATURE
100
AcDbLine
 62
7
  6
CONTINUOUS
 10
7.8843672762
 20
5.7851198968
 11
7.8843672762
 21
5.7401198968
  0
LINE
  5
25A
100
AcDbEntity
  8
LAYER_FEATURE
100
AcDbLine
 62
7
  6
CONTINUOUS
 10
7.7045695706
 20
5.2304185295
 11
7.8163672762
 21
5.7401198968
  0
LINE
  5
25B
100
AcDbEntity
  8
LAYER_FEATURE
100
AcDbLine
 62
7
  6
CONTINUOUS
 10
7.8843672762
 20
5.7401198968
 11
7.9961649817
 21
5.2304185295
  0
LINE
  5
25C
100
AcDbEntity
  8
LAYER_FEATURE
100
AcDbLine
 62
7
  6
CONTINUOUS
 10
8.3925695706
 20
5.2304185295
 11
8.5043672762
 21
5.7401198968
  0
LINE
  5
25D
100
AcDbEntity
  8
LAYER_FEATURE
100
AcDbLine
 62
7
  6
CONTINUOUS
 10
8.5043672762
 20
5.7401198968
 11
8.5043672762
 21
5.7851198968
  0
LINE
  5
25E
100
AcDbEntity
  8
LAYER_FEATURE
100
AcDbLine
 62
7
  6
CONTINUOUS
 10
8.5723672762
 20
5.7851198968
 11
8.5723672762
 21
5.7401198968
  0
LINE
  5
25F
100
AcDbEntity
  8
LAYER_FEATURE
100
AcDbLine
 62
7
  6
CONTINUOUS
 10
8.5723672762
 20
5.7401198968
 11
8.6841649817
 21
5.2304185295
  0
LINE
  5
260
100
AcDbEntity
  8
LAYER_FEATURE
100
AcDbLine
 62
7
  6
CONTINUOUS
 10
9.0805695706
 20
5.2304185295
 11
9.1923672762
 21
5.7401198968
  0
LINE
  5
261
100
AcDbEntity
  8
LAYER_FEATURE
100
AcDbLine
 62
7
  6
CONTINUOUS
 10
9.1923672762
 20
5.7401198968
 11
9.1923672762
 21
5.7851198968
  0
LINE
  5
262
100
AcDbEntity
  8
LAYER_FEATURE
100
AcDbLine
 62
7
  6
CONTINUOUS
 10
9.2603672762
 20
5.7851198968
 11
9.2603672762
 21
5.7401198968
  0
LINE
  5
263
100
AcDbEntity
  8
LAYER_FEATURE
100
AcDbLine
 62
7
  6
CONTINUOUS
 10
9.2603672762
 20
5.7401198968
 11
9.3721649817
 21
5.2304185295
  0
LINE
  5
264
100
AcDbEntity
  8
0
100
AcDbLine
 62
7
  6
CONTINUOUS
 10
9.8803672762
 20
5.7401198968
 11
9.8803672762
 21
5.8151198968
  0
LINE
  5
265
100
AcDbEntity
  8
LAYER_FEATURE
100
AcDbLine
 62
7
  6
CONTINUOUS
 10
9.7685695706
 20
5.2304185295
 11
9.8803672762
 21
5.7401198968
  0
LINE
  5
266
100
AcDbEntity
  8
0
100
AcDbLine
 62
7
  6
CONTINUOUS
 10
2.3208720839
 20
14.6000477814
 11
2.3208720839
 21
10.6000477814
  0
LINE
  5
267
100
AcDbEntity
  8
0
100
AcDbLine
 62
7
  6
CONTINUOUS
 10
9.8208720839
 20
10.6000477814
 11
2.3208720839
 21
10.6000477814
  0
LINE
  5
268
100
AcDbEntity
  8
0
100
AcDbLine
 62
7
  6
CONTINUOUS
 10
2.3208720839
 20
14.6000477814
 11
9.8208720839
 21
14.6000477814
  0
LINE
  5
269
100
AcDbEntity
  8
0
100
AcDbLine
 62
7
  6
CONTINUOUS
 10
9.8208720839
 20
10.6000477814
 11
9.8208720839
 21
14.6000477814
  0
LINE
  5
26A
100
AcDbEntity
  8
LAYER_FEATURE
100
AcDbLine
 62
7
  6
CONTINUOUS
 10
13.5603552569
 20
5.1506247044
 11
13.5603552569
 21
5.6806247044
  0
LINE
  5
26B
100
AcDbEntity
  8
0
100
AcDbLine
 62
7
  6
CONTINUOUS
 10
13.5603552569
 20
5.6806247044
 11
13.5603552569
 21
5.7706247044
  0
LINE
  5
26C
100
AcDbEntity
  8
LAYER_FEATURE
100
AcDbLine
 62
7
  6
CONTINUOUS
 10
13.5603552569
 20
5.1506247044
 11
17.5603552569
 21
5.1506247044
  0
LINE
  5
26D
100
AcDbEntity
  8
LAYER_FEATURE
100
AcDbLine
 62
7
  6
CONTINUOUS
 10
17.5603552569
 20
5.6806247044
 11
13.5603552569
 21
5.6806247044
  0
LINE
  5
26E
100
AcDbEntity
  8
0
100
AcDbLine
 62
7
  6
CONTINUOUS
 10
13.5603552569
 20
5.7706247044
 11
17.5603552569
 21
5.7706247044
  0
LINE
  5
26F
100
AcDbEntity
  8
0
100
AcDbLine
 62
7
  6
CONTINUOUS
 10
17.5603552569
 20
5.7706247044
 11
17.5603552569
 21
5.6806247044
  0
LINE
  5
270
100
AcDbEntity
  8
LAYER_FEATURE
100
AcDbLine
 62
7
  6
CONTINUOUS
 10
17.5603552569
 20
5.1506247044
 11
17.5603552569
 21
5.6806247044
  0
LINE
  5
271
100
AcDbEntity
  8
0
100
AcDbLine
 62
7
  6
CONTINUOUS
 10
11.4956585511
 20
11.1275261143
 11
11.5185366911
 21
11.0809053667
  0
LINE
  5
272
100
AcDbEntity
  8
0
100
AcDbLine
 62
7
  6
CONTINUOUS
 10
11.5185366911
 20
11.0809053667
 11
11.7769894534
 21
10.7640699159
  0
LINE
  5
273
100
AcDbEntity
  8
LAYER_FEATURE
100
AcDbLine
 62
7
  6
CONTINUOUS
 10
12.152226655
 20
11.0809053667
 11
12.4106794173
 21
10.7640699159
  0
LINE
  5
274
100
AcDbEntity
  8
0
100
AcDbLine
 62
7
  6
CONTINUOUS
 10
12.0895945074
 20
11.0809053667
 11
12.0758676234
 21
11.1088778152
  0
LINE
  5
275
100
AcDbEntity
  8
LAYER_FEATURE
100
AcDbLine
 62
7
  6
CONTINUOUS
 10
12.138499771
 20
11.1088778152
 11
12.152226655
 21
11.0809053667
  0
LINE
  5
276
100
AcDbEntity
  8
0
100
AcDbLine
 62
7
  6
CONTINUOUS
 10
12.1421022581
 20
10.7640699159
 11
12.0895945074
 21
11.0809053667
  0
LINE
  5
277
100
AcDbEntity
  8
0
100
AcDbLine
 62
7
  6
CONTINUOUS
 10
12.1418549205
 20
10.7598828574
 11
12.1421022581
 21
10.7640699159
  0
LINE
  5
278
100
AcDbEntity
  8
0
100
AcDbLine
 62
7
  6
CONTINUOUS
 10
12.463408447
 20
14.2652624634
 11
11.4951431533
 21
11.1319548249
  0
LINE
  5
279
100
AcDbEntity
  8
LAYER_FEATURE
100
AcDbLine
 62
7
  6
CONTINUOUS
 10
12.7859166188
 20
11.0809053667
 11
13.0443693812
 21
10.7640699159
  0
LINE
  5
27A
100
AcDbEntity
  8
LAYER_FEATURE
100
AcDbLine
 62
7
  6
CONTINUOUS
 10
12.7232844713
 20
11.0809053667
 11
12.7095575873
 21
11.1088778152
  0
LINE
  5
27B
100
AcDbEntity
  8
LAYER_FEATURE
100
AcDbLine
 62
7
  6
CONTINUOUS
 10
12.7721897348
 20
11.1088778152
 11
12.7859166188
 21
11.0809053667
  0
LINE
  5
27C
100
AcDbEntity
  8
LAYER_FEATURE
100
AcDbLine
 62
7
  6
CONTINUOUS
 10
12.7757922219
 20
10.7640699159
 11
12.7232844713
 21
11.0809053667
  0
LINE
  5
27D
100
AcDbEntity
  8
LAYER_FEATURE
100
AcDbLine
 62
7
  6
CONTINUOUS
 10
12.7755448844
 20
10.7598828574
 11
12.7757922219
 21
10.7640699159
  0
LINE
  5
27E
100
AcDbEntity
  8
0
100
AcDbLine
 62
7
  6
CONTINUOUS
 10
12.0982386478
 20
11.1088778152
 11
12.0895945074
 21
11.0809053667
  0
LINE
  5
27F
100
AcDbEntity
  8
0
100
AcDbLine
 62
7
  6
CONTINUOUS
 10
12.1430567485
 20
10.7637749561
 11
12.2166514409
 21
11.0019274679
  0
LINE
  5
280
100
AcDbEntity
  8
LAYER_FEATURE
100
AcDbLine
 62
7
  6
CONTINUOUS
 10
13.4196065827
 20
11.0809053667
 11
13.678059345
 21
10.7640699159
  0
LINE
  5
281
100
AcDbEntity
  8
LAYER_FEATURE
100
AcDbLine
 62
7
  6
CONTINUOUS
 10
13.3569744351
 20
11.0809053667
 11
13.3432475511
 21
11.1088778152
  0
LINE
  5
282
100
AcDbEntity
  8
LAYER_FEATURE
100
AcDbLine
 62
7
  6
CONTINUOUS
 10
13.4058796987
 20
11.1088778152
 11
13.4196065827
 21
11.0809053667
  0
LINE
  5
283
100
AcDbEntity
  8
LAYER_FEATURE
100
AcDbLine
 62
7
  6
CONTINUOUS
 10
13.4094821858
 20
10.7640699159
 11
13.3569744351
 21
11.0809053667
  0
LINE
  5
284
100
AcDbEntity
  8
LAYER_FEATURE
100
AcDbLine
 62
7
  6
CONTINUOUS
 10
12.7319286116
 20
11.1088778152
 11
12.7232844713
 21
11.0809053667
  0
LINE
  5
285
100
AcDbEntity
  8
LAYER_FEATURE
100
AcDbLine
 62
7
  6
CONTINUOUS
 10
12.7767467124
 20
10.7637749561
 11
12.8503414048
 21
11.0019274679
  0
LINE
  5
286
100
AcDbEntity
  8
LAYER_FEATURE
100
AcDbLine
 62
7
  6
CONTINUOUS
 10
14.0532965466
 20
11.0809053667
 11
14.3117493089
 21
10.7640699159
  0
LINE
  5
287
100
AcDbEntity
  8
LAYER_FEATURE
100
AcDbLine
 62
7
  6
CONTINUOUS
 10
13.4092348482
 20
10.7598828574
 11
13.4094821858
 21
10.7640699159
  0
LINE
  5
288
100
AcDbEntity
  8
0
100
AcDbLine
 62
7
  6
CONTINUOUS
 10
11.8064229547
 20
10.7514520835
 11
12.1250526224
 21
10.7514520835
  0
LINE
  5
289
100
AcDbEntity
  8
LAYER_FEATURE
100
AcDbLine
 62
7
  6
CONTINUOUS
 10
12.4401129186
 20
10.7514520835
 11
12.7587425863
 21
10.7514520835
  0
LINE
  5
28A
100
AcDbEntity
  8
LAYER_FEATURE
100
AcDbLine
 62
7
  6
CONTINUOUS
 10
13.0738028824
 20
10.7514520835
 11
13.3924325502
 21
10.7514520835
  0
LINE
  5
28B
100
AcDbEntity
  8
LAYER_FEATURE
100
AcDbLine
 62
7
  6
CONTINUOUS
 10
13.7074928463
 20
10.7514520835
 11
14.026122514
 21
10.7514520835
  0
LINE
  5
28C
100
AcDbEntity
  8
LAYER_FEATURE
100
AcDbLine
 62
7
  6
CONTINUOUS
 10
14.3411828102
 20
10.7514520835
 11
14.6598124779
 21
10.7514520835
  0
LINE
  5
28D
100
AcDbEntity
  8
LAYER_FEATURE
100
AcDbLine
 62
7
  6
CONTINUOUS
 10
14.9748727741
 20
10.7514520835
 11
15.2935024418
 21
10.7514520835
  0
LINE
  5
28E
100
AcDbEntity
  8
LAYER_FEATURE
100
AcDbLine
 62
7
  6
CONTINUOUS
 10
15.6085627379
 20
10.7514520835
 11
15.9271924057
 21
10.7514520835
  0
LINE
  5
28F
100
AcDbEntity
  8
LAYER_FEATURE
100
AcDbLine
 62
7
  6
CONTINUOUS
 10
16.2422527018
 20
10.7514520835
 11
16.5608823695
 21
10.7514520835
  0
LINE
  5
290
100
AcDbEntity
  8
LAYER_FEATURE
100
AcDbLine
 62
7
  6
CONTINUOUS
 10
16.8759426657
 20
10.7514520835
 11
17.1945723334
 21
10.7514520835
  0
LINE
  5
291
100
AcDbEntity
  8
LAYER_FEATURE
100
AcDbLine
 62
7
  6
CONTINUOUS
 10
17.5096326296
 20
10.7514520835
 11
17.8282622973
 21
10.7514520835
  0
LINE
  5
292
100
AcDbEntity
  8
LAYER_FEATURE
100
AcDbLine
 62
7
  6
CONTINUOUS
 10
18.1433225934
 20
10.7514520835
 11
18.4619522612
 21
10.7514520835
  0
LINE
  5
293
100
AcDbEntity
  8
LAYER_FEATURE
100
AcDbLine
 62
7
  6
CONTINUOUS
 10
13.990664399
 20
11.0809053667
 11
13.976937515
 21
11.1088778152
  0
LINE
  5
294
100
AcDbEntity
  8
LAYER_FEATURE
100
AcDbLine
 62
7
  6
CONTINUOUS
 10
14.0395696626
 20
11.1088778152
 11
14.0532965466
 21
11.0809053667
  0
LINE
  5
295
100
AcDbEntity
  8
LAYER_FEATURE
100
AcDbLine
 62
7
  6
CONTINUOUS
 10
13.3656185755
 20
11.1088778152
 11
13.3569744351
 21
11.0809053667
  0
LINE
  5
296
100
AcDbEntity
  8
LAYER_FEATURE
100
AcDbLine
 62
7
  6
CONTINUOUS
 10
13.4104366763
 20
10.7637749561
 11
13.4840313686
 21
11.0019274679
  0
LINE
  5
297
100
AcDbEntity
  8
LAYER_FEATURE
100
AcDbLine
 62
7
  6
CONTINUOUS
 10
14.6869865105
 20
11.0809053667
 11
14.9454392728
 21
10.7640699159
  0
LINE
  5
298
100
AcDbEntity
  8
LAYER_FEATURE
100
AcDbLine
 62
7
  6
CONTINUOUS
 10
14.0431721497
 20
10.7640699159
 11
13.990664399
 21
11.0809053667
  0
LINE
  5
299
100
AcDbEntity
  8
LAYER_FEATURE
100
AcDbLine
 62
7
  6
CONTINUOUS
 10
14.0429248121
 20
10.7598828574
 11
14.0431721497
 21
10.7640699159
  0
LINE
  5
29A
100
AcDbEntity
  8
LAYER_FEATURE
100
AcDbLine
 62
7
  6
CONTINUOUS
 10
12.0758676234
 20
11.1088778152
 11
12.138499771
 21
11.1088778152
  0
LINE
  5
29B
100
AcDbEntity
  8
LAYER_FEATURE
100
AcDbLine
 62
7
  6
CONTINUOUS
 10
12.7095575873
 20
11.1088778152
 11
12.7721897348
 21
11.1088778152
  0
LINE
  5
29C
100
AcDbEntity
  8
LAYER_FEATURE
100
AcDbLine
 62
7
  6
CONTINUOUS
 10
13.3432475511
 20
11.1088778152
 11
13.4058796987
 21
11.1088778152
  0
LINE
  5
29D
100
AcDbEntity
  8
LAYER_FEATURE
100
AcDbLine
 62
7
  6
CONTINUOUS
 10
13.976937515
 20
11.1088778152
 11
14.0395696626
 21
11.1088778152
  0
LINE
  5
29E
100
AcDbEntity
  8
LAYER_FEATURE
100
AcDbLine
 62
7
  6
CONTINUOUS
 10
14.6106274789
 20
11.1088778152
 11
14.6732596265
 21
11.1088778152
  0
LINE
  5
29F
100
AcDbEntity
  8
LAYER_FEATURE
100
AcDbLine
 62
7
  6
CONTINUOUS
 10
15.2443174427
 20
11.1088778152
 11
15.3069495903
 21
11.1088778152
  0
LINE
  5
2A0
100
AcDbEntity
  8
LAYER_FEATURE
100
AcDbLine
 62
7
  6
CONTINUOUS
 10
15.8780074066
 20
11.1088778152
 11
15.9406395542
 21
11.1088778152
  0
LINE
  5
2A1
100
AcDbEntity
  8
LAYER_FEATURE
100
AcDbLine
 62
7
  6
CONTINUOUS
 10
16.5116973705
 20
11.1088778152
 11
16.5743295181
 21
11.1088778152
  0
LINE
  5
2A2
100
AcDbEntity
  8
LAYER_FEATURE
100
AcDbLine
 62
7
  6
CONTINUOUS
 10
17.1453873344
 20
11.1088778152
 11
17.208019482
 21
11.1088778152
  0
LINE
  5
2A3
100
AcDbEntity
  8
LAYER_FEATURE
100
AcDbLine
 62
7
  6
CONTINUOUS
 10
17.7790772982
 20
11.1088778152
 11
17.8417094458
 21
11.1088778152
  0
LINE
  5
2A4
100
AcDbEntity
  8
0
100
AcDbLine
 62
7
  6
CONTINUOUS
 10
18.3852244632
 20
11.1368502638
 11
11.504898838
 21
11.1368502638
  0
LINE
  5
2A5
100
AcDbEntity
  8
LAYER_FEATURE
100
AcDbLine
 62
7
  6
CONTINUOUS
 10
14.6243543629
 20
11.0809053667
 11
14.6106274789
 21
11.1088778152
  0
LINE
  5
2A6
100
AcDbEntity
  8
LAYER_FEATURE
100
AcDbLine
 62
7
  6
CONTINUOUS
 10
14.6732596265
 20
11.1088778152
 11
14.6869865105
 21
11.0809053667
  0
LINE
  5
2A7
100
AcDbEntity
  8
LAYER_FEATURE
100
AcDbLine
 62
7
  6
CONTINUOUS
 10
13.9993085394
 20
11.1088778152
 11
13.990664399
 21
11.0809053667
  0
LINE
  5
2A8
100
AcDbEntity
  8
LAYER_FEATURE
100
AcDbLine
 62
7
  6
CONTINUOUS
 10
14.0441266401
 20
10.7637749561
 11
14.1177213325
 21
11.0019274679
  0
LINE
  5
2A9
100
AcDbEntity
  8
LAYER_FEATURE
100
AcDbLine
 62
7
  6
CONTINUOUS
 10
15.3206764743
 20
11.0809053667
 11
15.5791292367
 21
10.7640699159
  0
LINE
  5
2AA
100
AcDbEntity
  8
LAYER_FEATURE
100
AcDbLine
 62
7
  6
CONTINUOUS
 10
14.6768621136
 20
10.7640699159
 11
14.6243543629
 21
11.0809053667
  0
LINE
  5
2AB
100
AcDbEntity
  8
LAYER_FEATURE
100
AcDbLine
 62
7
  6
CONTINUOUS
 10
14.676614776
 20
10.7598828574
 11
14.6768621136
 21
10.7640699159
  0
LINE
  5
2AC
100
AcDbEntity
  8
LAYER_FEATURE
100
AcDbLine
 62
7
  6
CONTINUOUS
 10
15.2580443267
 20
11.0809053667
 11
15.2443174427
 21
11.1088778152
  0
LINE
  5
2AD
100
AcDbEntity
  8
LAYER_FEATURE
100
AcDbLine
 62
7
  6
CONTINUOUS
 10
15.3069495903
 20
11.1088778152
 11
15.3206764743
 21
11.0809053667
  0
LINE
  5
2AE
100
AcDbEntity
  8
LAYER_FEATURE
100
AcDbLine
 62
7
  6
CONTINUOUS
 10
14.6329985033
 20
11.1088778152
 11
14.6243543629
 21
11.0809053667
  0
LINE
  5
2AF
100
AcDbEntity
  8
LAYER_FEATURE
100
AcDbLine
 62
7
  6
CONTINUOUS
 10
15.9543664382
 20
11.0809053667
 11
16.2128192005
 21
10.7640699159
  0
LINE
  5
2B0
100
AcDbEntity
  8
LAYER_FEATURE
100
AcDbLine
 62
7
  6
CONTINUOUS
 10
15.8917342906
 20
11.0809053667
 11
15.8780074066
 21
11.1088778152
  0
LINE
  5
2B1
100
AcDbEntity
  8
LAYER_FEATURE
100
AcDbLine
 62
7
  6
CONTINUOUS
 10
15.3105520774
 20
10.7640699159
 11
15.2580443267
 21
11.0809053667
  0
LINE
  5
2B2
100
AcDbEntity
  8
LAYER_FEATURE
100
AcDbLine
 62
7
  6
CONTINUOUS
 10
15.3103051152
 20
10.7598827413
 11
15.3105520774
 21
10.7640699159
  0
LINE
  5
2B3
100
AcDbEntity
  8
LAYER_FEATURE
100
AcDbLine
 62
7
  6
CONTINUOUS
 10
14.677816604
 20
10.7637749561
 11
14.7514112964
 21
11.0019274679
  0
LINE
  5
2B4
100
AcDbEntity
  8
LAYER_FEATURE
100
AcDbLine
 62
7
  6
CONTINUOUS
 10
16.5880564021
 20
11.0809053667
 11
16.8465091644
 21
10.7640699159
  0
LINE
  5
2B5
100
AcDbEntity
  8
LAYER_FEATURE
100
AcDbLine
 62
7
  6
CONTINUOUS
 10
15.9406395542
 20
11.1088778152
 11
15.9543664382
 21
11.0809053667
  0
LINE
  5
2B6
100
AcDbEntity
  8
LAYER_FEATURE
100
AcDbLine
 62
7
  6
CONTINUOUS
 10
15.2666884671
 20
11.1088778152
 11
15.2580443267
 21
11.0809053667
  0
LINE
  5
2B7
100
AcDbEntity
  8
LAYER_FEATURE
100
AcDbLine
 62
7
  6
CONTINUOUS
 10
16.5254242545
 20
11.0809053667
 11
16.5116973705
 21
11.1088778152
  0
LINE
  5
2B8
100
AcDbEntity
  8
LAYER_FEATURE
100
AcDbLine
 62
7
  6
CONTINUOUS
 10
15.9442420413
 20
10.7640699159
 11
15.8917342906
 21
11.0809053667
  0
LINE
  5
2B9
100
AcDbEntity
  8
LAYER_FEATURE
100
AcDbLine
 62
7
  6
CONTINUOUS
 10
15.9439947037
 20
10.7598828574
 11
15.9442420413
 21
10.7640699159
  0
LINE
  5
2BA
100
AcDbEntity
  8
LAYER_FEATURE
100
AcDbLine
 62
7
  6
CONTINUOUS
 10
15.3115065679
 20
10.7637749561
 11
15.3851012603
 21
11.0019274679
  0
LINE
  5
2BB
100
AcDbEntity
  8
LAYER_FEATURE
100
AcDbLine
 62
7
  6
CONTINUOUS
 10
17.221746366
 20
11.0809053667
 11
17.4801991283
 21
10.7640699159
  0
LINE
  5
2BC
100
AcDbEntity
  8
LAYER_FEATURE
100
AcDbLine
 62
7
  6
CONTINUOUS
 10
16.5743295181
 20
11.1088778152
 11
16.5880564021
 21
11.0809053667
  0
LINE
  5
2BD
100
AcDbEntity
  8
LAYER_FEATURE
100
AcDbLine
 62
7
  6
CONTINUOUS
 10
15.900378431
 20
11.1088778152
 11
15.8917342906
 21
11.0809053667
  0
LINE
  5
2BE
100
AcDbEntity
  8
LAYER_FEATURE
100
AcDbLine
 62
7
  6
CONTINUOUS
 10
17.1591142184
 20
11.0809053667
 11
17.1453873344
 21
11.1088778152
  0
LINE
  5
2BF
100
AcDbEntity
  8
LAYER_FEATURE
100
AcDbLine
 62
7
  6
CONTINUOUS
 10
16.5779320052
 20
10.7640699159
 11
16.5254242545
 21
11.0809053667
  0
LINE
  5
2C0
100
AcDbEntity
  8
LAYER_FEATURE
100
AcDbLine
 62
7
  6
CONTINUOUS
 10
15.9451965317
 20
10.7637749561
 11
16.0187912241
 21
11.0019274679
  0
LINE
  5
2C1
100
AcDbEntity
  8
LAYER_FEATURE
100
AcDbLine
 62
7
  6
CONTINUOUS
 10
17.8554363298
 20
11.0809053667
 11
18.1138890922
 21
10.7640699159
  0
LINE
  5
2C2
100
AcDbEntity
  8
LAYER_FEATURE
100
AcDbLine
 62
7
  6
CONTINUOUS
 10
17.208019482
 20
11.1088778152
 11
17.221746366
 21
11.0809053667
  0
LINE
  5
2C3
100
AcDbEntity
  8
LAYER_FEATURE
100
AcDbLine
 62
7
  6
CONTINUOUS
 10
16.5776846676
 20
10.7598828574
 11
16.5779320052
 21
10.7640699159
  0
LINE
  5
2C4
100
AcDbEntity
  8
LAYER_FEATURE
100
AcDbLine
 62
7
  6
CONTINUOUS
 10
16.5340683949
 20
11.1088778152
 11
16.5254242545
 21
11.0809053667
  0
LINE
  5
2C5
100
AcDbEntity
  8
LAYER_FEATURE
100
AcDbLine
 62
7
  6
CONTINUOUS
 10
17.7928041822
 20
11.0809053667
 11
17.7790772982
 21
11.1088778152
  0
LINE
  5
2C6
100
AcDbEntity
  8
LAYER_FEATURE
100
AcDbLine
 62
7
  6
CONTINUOUS
 10
17.2116219691
 20
10.7640699159
 11
17.1591142184
 21
11.0809053667
  0
LINE
  5
2C7
100
AcDbEntity
  8
LAYER_FEATURE
100
AcDbLine
 62
7
  6
CONTINUOUS
 10
16.5788864956
 20
10.7637749561
 11
16.652481188
 21
11.0019274679
  0
LINE
  5
2C8
100
AcDbEntity
  8
0
100
AcDbLine
 62
7
  6
CONTINUOUS
 10
12.4731641316
 20
14.2701579023
 11
19.3534897568
 21
14.2701579023
  0
LINE
  5
2C9
100
AcDbEntity
  8
LAYER_FEATURE
100
AcDbLine
 62
7
  6
CONTINUOUS
 10
17.8417094458
 20
11.1088778152
 11
17.8554363298
 21
11.0809053667
  0
LINE
  5
2CA
100
AcDbEntity
  8
LAYER_FEATURE
100
AcDbLine
 62
7
  6
CONTINUOUS
 10
17.2113746315
 20
10.7598828574
 11
17.2116219691
 21
10.7640699159
  0
LINE
  5
2CB
100
AcDbEntity
  8
LAYER_FEATURE
100
AcDbLine
 62
7
  6
CONTINUOUS
 10
17.1677583588
 20
11.1088778152
 11
17.1591142184
 21
11.0809053667
  0
LINE
  5
2CC
100
AcDbEntity
  8
0
100
AcDbLine
 62
7
  6
CONTINUOUS
 10
18.4264941461
 20
11.0809053667
 11
18.4036160061
 21
11.1275261143
  0
LINE
  5
2CD
100
AcDbEntity
  8
LAYER_FEATURE
100
AcDbLine
 62
7
  6
CONTINUOUS
 10
17.8453119329
 20
10.7640699159
 11
17.7928041822
 21
11.0809053667
  0
LINE
  5
2CE
100
AcDbEntity
  8
LAYER_FEATURE
100
AcDbLine
 62
7
  6
CONTINUOUS
 10
17.2125764595
 20
10.7637749561
 11
17.2861711519
 21
11.0019274679
  0
LINE
  5
2CF
100
AcDbEntity
  8
LAYER_FEATURE
100
AcDbLine
 62
7
  6
CONTINUOUS
 10
17.8450645954
 20
10.7598828574
 11
17.8453119329
 21
10.7640699159
  0
LINE
  5
2D0
100
AcDbEntity
  8
LAYER_FEATURE
100
AcDbLine
 62
7
  6
CONTINUOUS
 10
17.8014483226
 20
11.1088778152
 11
17.7928041822
 21
11.0809053667
  0
LINE
  5
2D1
100
AcDbEntity
  8
LAYER_FEATURE
100
AcDbLine
 62
7
  6
CONTINUOUS
 10
17.8462664234
 20
10.7637749561
 11
17.9198611158
 21
11.0019274679
  0
LINE
  5
2D2
100
AcDbEntity
  8
LAYER_FEATURE
100
AcDbLine
 62
7
  6
CONTINUOUS
 10
18.4790018968
 20
10.7640699159
 11
18.4264941461
 21
11.0809053667
  0
LINE
  5
2D3
100
AcDbEntity
  8
LAYER_FEATURE
100
AcDbLine
 62
7
  6
CONTINUOUS
 10
18.4787545592
 20
10.7598828574
 11
18.4790018968
 21
10.7640699159
  0
LINE
  5
2D4
100
AcDbEntity
  8
LAYER_FEATURE
100
AcDbLine
 62
7
  6
CONTINUOUS
 10
19.3947594397
 20
14.2142130052
 11
18.4264941461
 21
11.0809053667
  0
LINE
  5
2D5
100
AcDbEntity
  8
LAYER_FEATURE
100
AcDbLine
 62
7
  6
CONTINUOUS
 10
18.4799563872
 20
10.7637749561
 11
19.4470190117
 21
13.8931907557
  0
LINE
  5
2D6
100
AcDbEntity
  8
LAYER_FEATURE
100
AcDbLine
 62
7
  6
CONTINUOUS
 10
19.4472671904
 20
13.8973775544
 11
19.4470198529
 21
13.893190496
  0
LINE
  5
2D7
100
AcDbEntity
  8
0
100
AcDbLine
 62
7
  6
CONTINUOUS
 10
19.3718812997
 20
14.2608337528
 11
19.3947594397
 21
14.2142130052
  0
LINE
  5
2D8
100
AcDbEntity
  8
LAYER_FEATURE
100
AcDbLine
 62
7
  6
CONTINUOUS
 10
19.4472671904
 20
13.8973775544
 11
19.3947594397
 21
14.2142130052
  0
ARC
  5
2D9
100
AcDbEntity
  8
0
100
AcDbCircle
 62
7
  6
CONTINUOUS
 10
2.5173984555
 20
5.2359532301
 40
0.0258333333
100
AcDbArc
 50
192.3713234544
 51
270.0
  0
ARC
  5
2DA
100
AcDbEntity
  8
0
100
AcDbCircle
 62
7
  6
CONTINUOUS
 10
2.8633360968
 20
5.2359532301
 40
0.0258333333
100
AcDbArc
 50
270.0
 51
347.6286765456
  0
ARC
  5
2DB
100
AcDbEntity
  8
LAYER_FEATURE
100
AcDbCircle
 62
7
  6
CONTINUOUS
 10
3.2053984555
 20
5.2359532301
 40
0.0258333333
100
AcDbArc
 50
192.3713234544
 51
270.0
  0
ARC
  5
2DC
100
AcDbEntity
  8
LAYER_FEATURE
100
AcDbCircle
 62
7
  6
CONTINUOUS
 10
3.5513360968
 20
5.2359532301
 40
0.0258333333
100
AcDbArc
 50
270.0
 51
347.6286765456
  0
ARC
  5
2DD
100
AcDbEntity
  8
LAYER_FEATURE
100
AcDbCircle
 62
7
  6
CONTINUOUS
 10
3.8933984555
 20
5.2359532301
 40
0.0258333333
100
AcDbArc
 50
192.3713234544
 51
270.0
  0
ARC
  5
2DE
100
AcDbEntity
  8
LAYER_FEATURE
100
AcDbCircle
 62
7
  6
CONTINUOUS
 10
4.2393360968
 20
5.2359532301
 40
0.0258333333
100
AcDbArc
 50
270.0
 51
347.6286765456
  0
ARC
  5
2DF
100
AcDbEntity
  8
LAYER_FEATURE
100
AcDbCircle
 62
7
  6
CONTINUOUS
 10
4.5813984555
 20
5.2359532301
 40
0.0258333333
100
AcDbArc
 50
192.3713234544
 51
270.0
  0
ARC
  5
2E0
100
AcDbEntity
  8
LAYER_FEATURE
100
AcDbCircle
 62
7
  6
CONTINUOUS
 10
4.9273360968
 20
5.2359532301
 40
0.0258333333
100
AcDbArc
 50
270.0
 51
347.6286765456
  0
ARC
  5
2E1
100
AcDbEntity
  8
LAYER_FEATURE
100
AcDbCircle
 62
7
  6
CONTINUOUS
 10
5.2693984555
 20
5.2359532301
 40
0.0258333333
100
AcDbArc
 50
192.3713234544
 51
270.0
  0
ARC
  5
2E2
100
AcDbEntity
  8
LAYER_FEATURE
100
AcDbCircle
 62
7
  6
CONTINUOUS
 10
5.6153360968
 20
5.2359532301
 40
0.0258333333
100
AcDbArc
 50
270.0
 51
347.6286765456
  0
ARC
  5
2E3
100
AcDbEntity
  8
LAYER_FEATURE
100
AcDbCircle
 62
7
  6
CONTINUOUS
 10
5.9573984555
 20
5.2359532301
 40
0.0258333333
100
AcDbArc
 50
192.3713234544
 51
270.0
  0
ARC
  5
2E4
100
AcDbEntity
  8
LAYER_FEATURE
100
AcDbCircle
 62
7
  6
CONTINUOUS
 10
6.3033360968
 20
5.2359532301
 40
0.0258333333
100
AcDbArc
 50
270.0
 51
347.6286765456
  0
ARC
  5
2E5
100
AcDbEntity
  8
LAYER_FEATURE
100
AcDbCircle
 62
7
  6
CONTINUOUS
 10
6.6453984555
 20
5.2359532301
 40
0.0258333333
100
AcDbArc
 50
192.3713234544
 51
270.0
  0
ARC
  5
2E6
100
AcDbEntity
  8
LAYER_FEATURE
100
AcDbCircle
 62
7
  6
CONTINUOUS
 10
6.9913360968
 20
5.2359532301
 40
0.0258333333
100
AcDbArc
 50
270.0
 51
347.6286765456
  0
ARC
  5
2E7
100
AcDbEntity
  8
LAYER_FEATURE
100
AcDbCircle
 62
7
  6
CONTINUOUS
 10
7.3333984555
 20
5.2359532301
 40
0.0258333333
100
AcDbArc
 50
192.3713234544
 51
270.0
  0
ARC
  5
2E8
100
AcDbEntity
  8
LAYER_FEATURE
100
AcDbCircle
 62
7
  6
CONTINUOUS
 10
7.6793360968
 20
5.2359532301
 40
0.0258333333
100
AcDbArc
 50
270.0
 51
347.6286765456
  0
ARC
  5
2E9
100
AcDbEntity
  8
LAYER_FEATURE
100
AcDbCircle
 62
7
  6
CONTINUOUS
 10
8.0213984555
 20
5.2359532301
 40
0.0258333333
100
AcDbArc
 50
192.3713234544
 51
270.0
  0
ARC
  5
2EA
100
AcDbEntity
  8
LAYER_FEATURE
100
AcDbCircle
 62
7
  6
CONTINUOUS
 10
8.3673360968
 20
5.2359532301
 40
0.0258333333
100
AcDbArc
 50
270.0
 51
347.6286765456
  0
ARC
  5
2EB
100
AcDbEntity
  8
LAYER_FEATURE
100
AcDbCircle
 62
7
  6
CONTINUOUS
 10
9.7433360968
 20
5.2359532301
 40
0.0258333333
100
AcDbArc
 50
270.0
 51
347.6286765456
  0
ARC
  5
2EC
100
AcDbEntity
  8
LAYER_FEATURE
100
AcDbCircle
 62
7
  6
CONTINUOUS
 10
9.3973984555
 20
5.2359532301
 40
0.0258333333
100
AcDbArc
 50
192.3713234544
 51
270.0
  0
ARC
  5
2ED
100
AcDbEntity
  8
LAYER_FEATURE
100
AcDbCircle
 62
7
  6
CONTINUOUS
 10
9.0553360968
 20
5.2359532301
 40
0.0258333333
100
AcDbArc
 50
270.0
 51
347.6286765456
  0
ARC
  5
2EE
100
AcDbEntity
  8
LAYER_FEATURE
100
AcDbCircle
 62
7
  6
CONTINUOUS
 10
8.7093984555
 20
5.2359532301
 40
0.0258333333
100
AcDbArc
 50
192.3713234544
 51
270.0
  0
ARC
  5
2EF
100
AcDbEntity
  8
0
100
AcDbCircle
 62
7
  6
CONTINUOUS
 10
2.3953672762
 20
5.8151198968
 40
0.015
100
AcDbArc
 50
90.0
 51
180.0
  0
ARC
  5
2F0
100
AcDbEntity
  8
0
100
AcDbCircle
 62
7
  6
CONTINUOUS
 10
9.8653672762
 20
5.8151198968
 40
0.015
100
AcDbArc
 50
0.0
 51
90.0
  0
SPLINE
  5
2F1
100
AcDbEntity
  8
0
100
AcDbSpline
 62
7
  6
CONTINUOUS
 70
0
 71
3
 72
15
 73
11
 74
0
 42
0.0000001
 43
0.0000001
 44
0.0000000001
 40
0.0
 40
0.0
 40
0.0
 40
0.0
 40
0.1294165569
 40
0.2645180781
 40
0.4012970774
 40
0.5362628266
 40
0.6661560434
 40
0.78813941
 40
0.8999194788
 40
1.0
 40
1.0
 40
1.0
 40
1.0
 10
19.3534897568
 20
14.2701579023
 30
0.0
 10
19.3544176103
 20
14.2701579023
 30
0.0
 10
19.3563154146
 20
14.2700276941
 30
0.0
 10
19.3591494776
 20
14.2694992607
 30
0.0
 10
19.36194383
 20
14.2686412841
 30
0.0
 10
19.364591673
 20
14.2674938037
 30
0.0
 10
19.3669944201
 20
14.2660949803
 30
0.0
 10
19.3690673113
 20
14.2644988961
 30
0.0
 10
19.3707253312
 20
14.2627593611
 30
0.0
 10
19.3715651978
 20
14.2614779008
 30
0.0
 10
19.3718812997
 20
14.2608337528
 30
0.0
  0
SPLINE
  5
2F2
100
AcDbEntity
  8
0
100
AcDbSpline
 62
7
  6
CONTINUOUS
 70
0
 71
3
 72
10
 73
6
 74
0
 42
0.0000001
 43
0.0000001
 44
0.0000000001
 40
0.0
 40
0.0
 40
0.0
 40
0.0
 40
0.2343758129
 40
0.4761728829
 40
1.0
 40
1.0
 40
1.0
 40
1.0
 10
11.4951432396
 20
11.1319547729
 30
0.0
 10
11.4950380115
 20
11.1316150078
 30
0.0
 10
11.4949000604
 20
11.1308985286
 30
0.0
 10
11.4949369373
 20
11.1293728267
 30
0.0
 10
11.4953083389
 20
11.1282397718
 30
0.0
 10
11.4956585511
 20
11.1275261143
 30
0.0
  0
SPLINE
  5
2F3
100
AcDbEntity
  8
0
100
AcDbSpline
 62
7
  6
CONTINUOUS
 70
0
 71
3
 72
13
 73
9
 74
0
 42
0.0000001
 43
0.0000001
 44
0.0000000001
 40
0.0
 40
0.0
 40
0.0
 40
0.0
 40
0.0997942201
 40
0.2030647278
 40
0.3128498857
 40
0.4312452013
 40
0.6971835619
 40
1.0
 40
1.0
 40
1.0
 40
1.0
 10
12.4634085333
 20
14.2652624114
 30
0.0
 10
12.4635228964
 20
14.2656316719
 30
0.0
 10
12.4638467009
 20
14.2663577805
 30
0.0
 10
12.4645833936
 20
14.2673315627
 30
0.0
 10
12.4655583879
 20
14.2681793271
 30
0.0
 10
12.4672090753
 20
14.2691645587
 30
0.0
 10
12.4697817795
 20
14.2699704464
 30
0.0
 10
12.4719911366
 20
14.2701579023
 30
0.0
 10
12.4731641316
 20
14.2701579023
 30
0.0
  0
SPLINE
  5
2F4
100
AcDbEntity
  8
LAYER_FEATURE
100
AcDbSpline
 62
7
  6
CONTINUOUS
 70
0
 71
3
 72
13
 73
9
 74
0
 42
0.0000001
 43
0.0000001
 44
0.0000000001
 40
0.0
 40
0.0
 40
0.0
 40
0.0
 40
0.3029760778
 40
0.5686856548
 40
0.6870511211
 40
0.7968233017
 40
0.9001436501
 40
1.0
 40
1.0
 40
1.0
 40
1.0
 10
18.4619522612
 20
10.7514520835
 30
0.0
 10
18.4639735252
 20
10.7514520835
 30
0.0
 10
18.4677787417
 20
10.7517725821
 30
0.0
 10
18.4722074173
 20
10.7531638298
 30
0.0
 10
18.4750502262
 20
10.7548575326
 30
0.0
 10
18.4767279968
 20
10.7563191342
 30
0.0
 10
18.4779997622
 20
10.7579946737
 30
0.0
 10
18.4785569676
 20
10.7592466562
 30
0.0
 10
18.4787529361
 20
10.7598833584
 30
0.0
  0
SPLINE
  5
2F5
100
AcDbEntity
  8
LAYER_FEATURE
100
AcDbSpline
 62
7
  6
CONTINUOUS
 70
0
 71
3
 72
14
 73
10
 74
0
 42
0.0000001
 43
0.0000001
 44
0.0000000001
 40
0.0
 40
0.0
 40
0.0
 40
0.0
 40
0.1085260875
 40
0.2260103762
 40
0.3505418517
 40
0.4800465238
 40
0.744479722
 40
0.8747805906
 40
1.0
 40
1.0
 40
1.0
 40
1.0
 10
18.1138890922
 20
10.7640699159
 30
0.0
 10
18.1146421097
 20
10.763146797
 30
0.0
 10
18.1163704155
 20
10.7613525606
 30
0.0
 10
18.1193835893
 20
10.7589456264
 30
0.0
 10
18.1228514146
 20
10.7567825538
 30
0.0
 10
18.1279733293
 20
10.7542853308
 30
0.0
 10
18.1335009835
 20
10.7525323376
 30
0.0
 10
18.1391411401
 20
10.7516172195
 30
0.0
 10
18.1419480551
 20
10.7514520835
 30
0.0
 10
18.1433225934
 20
10.7514520835
 30
0.0
  0
SPLINE
  5
2F6
100
AcDbEntity
  8
LAYER_FEATURE
100
AcDbSpline
 62
7
  6
CONTINUOUS
 70
0
 71
3
 72
13
 73
9
 74
0
 42
0.0000001
 43
0.0000001
 44
0.0000000001
 40
0.0
 40
0.0
 40
0.0
 40
0.0
 40
0.3029760778
 40
0.5686856548
 40
0.6870511211
 40
0.7968233017
 40
0.9001436501
 40
1.0
 40
1.0
 40
1.0
 40
1.0
 10
17.8282622973
 20
10.7514520835
 30
0.0
 10
17.8302835613
 20
10.7514520835
 30
0.0
 10
17.8340887778
 20
10.7517725821
 30
0.0
 10
17.8385174534
 20
10.7531638298
 30
0.0
 10
17.8413602623
 20
10.7548575326
 30
0.0
 10
17.8430380329
 20
10.7563191342
 30
0.0
 10
17.8443097983
 20
10.7579946737
 30
0.0
 10
17.8448670037
 20
10.7592466562
 30
0.0
 10
17.8450629722
 20
10.7598833584
 30
0.0
  0
SPLINE
  5
2F7
100
AcDbEntity
  8
LAYER_FEATURE
100
AcDbSpline
 62
7
  6
CONTINUOUS
 70
0
 71
3
 72
14
 73
10
 74
0
 42
0.0000001
 43
0.0000001
 44
0.0000000001
 40
0.0
 40
0.0
 40
0.0
 40
0.0
 40
0.1085260875
 40
0.2260103762
 40
0.3505418517
 40
0.4800465238
 40
0.744479722
 40
0.8747805906
 40
1.0
 40
1.0
 40
1.0
 40
1.0
 10
17.4801991283
 20
10.7640699159
 30
0.0
 10
17.4809521458
 20
10.763146797
 30
0.0
 10
17.4826804516
 20
10.7613525606
 30
0.0
 10
17.4856936254
 20
10.7589456264
 30
0.0
 10
17.4891614508
 20
10.7567825538
 30
0.0
 10
17.4942833654
 20
10.7542853308
 30
0.0
 10
17.4998110196
 20
10.7525323376
 30
0.0
 10
17.5054511762
 20
10.7516172195
 30
0.0
 10
17.5082580912
 20
10.7514520835
 30
0.0
 10
17.5096326296
 20
10.7514520835
 30
0.0
  0
SPLINE
  5
2F8
100
AcDbEntity
  8
LAYER_FEATURE
100
AcDbSpline
 62
7
  6
CONTINUOUS
 70
0
 71
3
 72
13
 73
9
 74
0
 42
0.0000001
 43
0.0000001
 44
0.0000000001
 40
0.0
 40
0.0
 40
0.0
 40
0.0
 40
0.3029760778
 40
0.5686856548
 40
0.6870511211
 40
0.7968233017
 40
0.9001436501
 40
1.0
 40
1.0
 40
1.0
 40
1.0
 10
17.1945723334
 20
10.7514520835
 30
0.0
 10
17.1965935974
 20
10.7514520835
 30
0.0
 10
17.200398814
 20
10.7517725821
 30
0.0
 10
17.2048274895
 20
10.7531638298
 30
0.0
 10
17.2076702984
 20
10.7548575326
 30
0.0
 10
17.209348069
 20
10.7563191342
 30
0.0
 10
17.2106198344
 20
10.7579946737
 30
0.0
 10
17.2111770399
 20
10.7592466562
 30
0.0
 10
17.2113730083
 20
10.7598833584
 30
0.0
  0
SPLINE
  5
2F9
100
AcDbEntity
  8
LAYER_FEATURE
100
AcDbSpline
 62
7
  6
CONTINUOUS
 70
0
 71
3
 72
14
 73
10
 74
0
 42
0.0000001
 43
0.0000001
 44
0.0000000001
 40
0.0
 40
0.0
 40
0.0
 40
0.0
 40
0.1085260875
 40
0.2260103762
 40
0.3505418517
 40
0.4800465238
 40
0.744479722
 40
0.8747805906
 40
1.0
 40
1.0
 40
1.0
 40
1.0
 10
16.8465091644
 20
10.7640699159
 30
0.0
 10
16.8472621819
 20
10.763146797
 30
0.0
 10
16.8489904877
 20
10.7613525606
 30
0.0
 10
16.8520036615
 20
10.7589456264
 30
0.0
 10
16.8554714869
 20
10.7567825538
 30
0.0
 10
16.8605934015
 20
10.7542853308
 30
0.0
 10
16.8661210558
 20
10.7525323376
 30
0.0
 10
16.8717612123
 20
10.7516172195
 30
0.0
 10
16.8745681273
 20
10.7514520835
 30
0.0
 10
16.8759426657
 20
10.7514520835
 30
0.0
  0
SPLINE
  5
2FA
100
AcDbEntity
  8
LAYER_FEATURE
100
AcDbSpline
 62
7
  6
CONTINUOUS
 70
0
 71
3
 72
13
 73
9
 74
0
 42
0.0000001
 43
0.0000001
 44
0.0000000001
 40
0.0
 40
0.0
 40
0.0
 40
0.0
 40
0.3029760778
 40
0.5686856548
 40
0.6870511211
 40
0.7968233017
 40
0.9001436501
 40
1.0
 40
1.0
 40
1.0
 40
1.0
 10
16.5608823695
 20
10.7514520835
 30
0.0
 10
16.5629036335
 20
10.7514520835
 30
0.0
 10
16.5667088501
 20
10.7517725821
 30
0.0
 10
16.5711375256
 20
10.7531638298
 30
0.0
 10
16.5739803345
 20
10.7548575326
 30
0.0
 10
16.5756581051
 20
10.7563191342
 30
0.0
 10
16.5769298706
 20
10.7579946737
 30
0.0
 10
16.577487076
 20
10.7592466562
 30
0.0
 10
16.5776830444
 20
10.7598833584
 30
0.0
  0
SPLINE
  5
2FB
100
AcDbEntity
  8
LAYER_FEATURE
100
AcDbSpline
 62
7
  6
CONTINUOUS
 70
0
 71
3
 72
14
 73
10
 74
0
 42
0.0000001
 43
0.0000001
 44
0.0000000001
 40
0.0
 40
0.0
 40
0.0
 40
0.0
 40
0.1085260875
 40
0.2260103762
 40
0.3505418517
 40
0.4800465238
 40
0.744479722
 40
0.8747805906
 40
1.0
 40
1.0
 40
1.0
 40
1.0
 10
16.2128192005
 20
10.7640699159
 30
0.0
 10
16.2135722181
 20
10.763146797
 30
0.0
 10
16.2153005238
 20
10.7613525606
 30
0.0
 10
16.2183136976
 20
10.7589456264
 30
0.0
 10
16.221781523
 20
10.7567825538
 30
0.0
 10
16.2269034377
 20
10.7542853308
 30
0.0
 10
16.2324310919
 20
10.7525323376
 30
0.0
 10
16.2380712485
 20
10.7516172195
 30
0.0
 10
16.2408781634
 20
10.7514520835
 30
0.0
 10
16.2422527018
 20
10.7514520835
 30
0.0
  0
SPLINE
  5
2FC
100
AcDbEntity
  8
LAYER_FEATURE
100
AcDbSpline
 62
7
  6
CONTINUOUS
 70
0
 71
3
 72
13
 73
9
 74
0
 42
0.0000001
 43
0.0000001
 44
0.0000000001
 40
0.0
 40
0.0
 40
0.0
 40
0.0
 40
0.3029760778
 40
0.5686856548
 40
0.6870511211
 40
0.7968233017
 40
0.9001436501
 40
1.0
 40
1.0
 40
1.0
 40
1.0
 10
15.9271924057
 20
10.7514520835
 30
0.0
 10
15.9292136697
 20
10.7514520835
 30
0.0
 10
15.9330188862
 20
10.7517725821
 30
0.0
 10
15.9374475618
 20
10.7531638298
 30
0.0
 10
15.9402903707
 20
10.7548575326
 30
0.0
 10
15.9419681413
 20
10.7563191342
 30
0.0
 10
15.9432399067
 20
10.7579946737
 30
0.0
 10
15.9437971121
 20
10.7592466562
 30
0.0
 10
15.9439930806
 20
10.7598833584
 30
0.0
  0
SPLINE
  5
2FD
100
AcDbEntity
  8
LAYER_FEATURE
100
AcDbSpline
 62
7
  6
CONTINUOUS
 70
0
 71
3
 72
14
 73
10
 74
0
 42
0.0000001
 43
0.0000001
 44
0.0000000001
 40
0.0
 40
0.0
 40
0.0
 40
0.0
 40
0.1085260875
 40
0.2260103762
 40
0.3505418517
 40
0.4800465238
 40
0.744479722
 40
0.8747805906
 40
1.0
 40
1.0
 40
1.0
 40
1.0
 10
15.5791292367
 20
10.7640699159
 30
0.0
 10
15.5798822542
 20
10.763146797
 30
0.0
 10
15.58161056
 20
10.7613525606
 30
0.0
 10
15.5846237338
 20
10.7589456264
 30
0.0
 10
15.5880915592
 20
10.7567825538
 30
0.0
 10
15.5932134738
 20
10.7542853308
 30
0.0
 10
15.598741128
 20
10.7525323376
 30
0.0
 10
15.6043812846
 20
10.7516172195
 30
0.0
 10
15.6071881996
 20
10.7514520835
 30
0.0
 10
15.6085627379
 20
10.7514520835
 30
0.0
  0
SPLINE
  5
2FE
100
AcDbEntity
  8
LAYER_FEATURE
100
AcDbSpline
 62
7
  6
CONTINUOUS
 70
0
 71
3
 72
13
 73
9
 74
0
 42
0.0000001
 43
0.0000001
 44
0.0000000001
 40
0.0
 40
0.0
 40
0.0
 40
0.0
 40
0.3029761758
 40
0.5686860296
 40
0.6870514327
 40
0.7968238704
 40
0.9001444245
 40
1.0
 40
1.0
 40
1.0
 40
1.0
 10
15.2935024418
 20
10.7514520835
 30
0.0
 10
15.2955237062
 20
10.7514520835
 30
0.0
 10
15.2993289227
 20
10.7517725917
 30
0.0
 10
15.303757605
 20
10.7531638245
 30
0.0
 10
15.3066004133
 20
10.754857535
 30
0.0
 10
15.3082781782
 20
10.7563191482
 30
0.0
 10
15.3095499329
 20
10.7579946897
 30
0.0
 10
15.3101071572
 20
10.7592466586
 30
0.0
 10
15.3103031283
 20
10.7598833545
 30
0.0
  0
SPLINE
  5
2FF
100
AcDbEntity
  8
LAYER_FEATURE
100
AcDbSpline
 62
7
  6
CONTINUOUS
 70
0
 71
3
 72
14
 73
10
 74
0
 42
0.0000001
 43
0.0000001
 44
0.0000000001
 40
0.0
 40
0.0
 40
0.0
 40
0.0
 40
0.1085260875
 40
0.2260103762
 40
0.3505418517
 40
0.4800465238
 40
0.744479722
 40
0.8747805906
 40
1.0
 40
1.0
 40
1.0
 40
1.0
 10
14.9454392728
 20
10.7640699159
 30
0.0
 10
14.9461922903
 20
10.763146797
 30
0.0
 10
14.9479205961
 20
10.7613525606
 30
0.0
 10
14.9509337699
 20
10.7589456264
 30
0.0
 10
14.9544015953
 20
10.7567825538
 30
0.0
 10
14.9595235099
 20
10.7542853308
 30
0.0
 10
14.9650511641
 20
10.7525323376
 30
0.0
 10
14.9706913207
 20
10.7516172195
 30
0.0
 10
14.9734982357
 20
10.7514520835
 30
0.0
 10
14.9748727741
 20
10.7514520835
 30
0.0
  0
SPLINE
  5
300
100
AcDbEntity
  8
LAYER_FEATURE
100
AcDbSpline
 62
7
  6
CONTINUOUS
 70
0
 71
3
 72
13
 73
9
 74
0
 42
0.0000001
 43
0.0000001
 44
0.0000000001
 40
0.0
 40
0.0
 40
0.0
 40
0.0
 40
0.3029760778
 40
0.5686856548
 40
0.6870511211
 40
0.7968233017
 40
0.9001436501
 40
1.0
 40
1.0
 40
1.0
 40
1.0
 10
14.6598124779
 20
10.7514520835
 30
0.0
 10
14.6618337419
 20
10.7514520835
 30
0.0
 10
14.6656389585
 20
10.7517725821
 30
0.0
 10
14.670067634
 20
10.7531638298
 30
0.0
 10
14.6729104429
 20
10.7548575326
 30
0.0
 10
14.6745882135
 20
10.7563191342
 30
0.0
 10
14.6758599789
 20
10.7579946737
 30
0.0
 10
14.6764171844
 20
10.7592466562
 30
0.0
 10
14.6766131528
 20
10.7598833584
 30
0.0
  0
SPLINE
  5
301
100
AcDbEntity
  8
LAYER_FEATURE
100
AcDbSpline
 62
7
  6
CONTINUOUS
 70
0
 71
3
 72
14
 73
10
 74
0
 42
0.0000001
 43
0.0000001
 44
0.0000000001
 40
0.0
 40
0.0
 40
0.0
 40
0.0
 40
0.1085260875
 40
0.2260103762
 40
0.3505418517
 40
0.4800465238
 40
0.744479722
 40
0.8747805906
 40
1.0
 40
1.0
 40
1.0
 40
1.0
 10
14.3117493089
 20
10.7640699159
 30
0.0
 10
14.3125023264
 20
10.763146797
 30
0.0
 10
14.3142306322
 20
10.7613525606
 30
0.0
 10
14.317243806
 20
10.7589456264
 30
0.0
 10
14.3207116314
 20
10.7567825538
 30
0.0
 10
14.325833546
 20
10.7542853308
 30
0.0
 10
14.3313612003
 20
10.7525323376
 30
0.0
 10
14.3370013568
 20
10.7516172195
 30
0.0
 10
14.3398082718
 20
10.7514520835
 30
0.0
 10
14.3411828102
 20
10.7514520835
 30
0.0
  0
SPLINE
  5
302
100
AcDbEntity
  8
LAYER_FEATURE
100
AcDbSpline
 62
7
  6
CONTINUOUS
 70
0
 71
3
 72
13
 73
9
 74
0
 42
0.0000001
 43
0.0000001
 44
0.0000000001
 40
0.0
 40
0.0
 40
0.0
 40
0.0
 40
0.3029760778
 40
0.5686856548
 40
0.6870511211
 40
0.7968233017
 40
0.9001436501
 40
1.0
 40
1.0
 40
1.0
 40
1.0
 10
14.026122514
 20
10.7514520835
 30
0.0
 10
14.028143778
 20
10.7514520835
 30
0.0
 10
14.0319489946
 20
10.7517725821
 30
0.0
 10
14.0363776701
 20
10.7531638298
 30
0.0
 10
14.0392204791
 20
10.7548575326
 30
0.0
 10
14.0408982496
 20
10.7563191342
 30
0.0
 10
14.0421700151
 20
10.7579946737
 30
0.0
 10
14.0427272205
 20
10.7592466562
 30
0.0
 10
14.0429231889
 20
10.7598833584
 30
0.0
  0
SPLINE
  5
303
100
AcDbEntity
  8
LAYER_FEATURE
100
AcDbSpline
 62
7
  6
CONTINUOUS
 70
0
 71
3
 72
14
 73
10
 74
0
 42
0.0000001
 43
0.0000001
 44
0.0000000001
 40
0.0
 40
0.0
 40
0.0
 40
0.0
 40
0.1085260875
 40
0.2260103762
 40
0.3505418517
 40
0.4800465238
 40
0.744479722
 40
0.8747805906
 40
1.0
 40
1.0
 40
1.0
 40
1.0
 10
13.678059345
 20
10.7640699159
 30
0.0
 10
13.6788123626
 20
10.763146797
 30
0.0
 10
13.6805406683
 20
10.7613525606
 30
0.0
 10
13.6835538421
 20
10.7589456264
 30
0.0
 10
13.6870216675
 20
10.7567825538
 30
0.0
 10
13.6921435822
 20
10.7542853308
 30
0.0
 10
13.6976712364
 20
10.7525323376
 30
0.0
 10
13.703311393
 20
10.7516172195
 30
0.0
 10
13.706118308
 20
10.7514520835
 30
0.0
 10
13.7074928463
 20
10.7514520835
 30
0.0
  0
SPLINE
  5
304
100
AcDbEntity
  8
LAYER_FEATURE
100
AcDbSpline
 62
7
  6
CONTINUOUS
 70
0
 71
3
 72
13
 73
9
 74
0
 42
0.0000001
 43
0.0000001
 44
0.0000000001
 40
0.0
 40
0.0
 40
0.0
 40
0.0
 40
0.3029760778
 40
0.5686856548
 40
0.6870511211
 40
0.7968233017
 40
0.9001436501
 40
1.0
 40
1.0
 40
1.0
 40
1.0
 10
13.3924325502
 20
10.7514520835
 30
0.0
 10
13.3944538142
 20
10.7514520835
 30
0.0
 10
13.3982590307
 20
10.7517725821
 30
0.0
 10
13.4026877063
 20
10.7531638298
 30
0.0
 10
13.4055305152
 20
10.7548575326
 30
0.0
 10
13.4072082858
 20
10.7563191342
 30
0.0
 10
13.4084800512
 20
10.7579946737
 30
0.0
 10
13.4090372566
 20
10.7592466562
 30
0.0
 10
13.4092332251
 20
10.7598833584
 30
0.0
  0
SPLINE
  5
305
100
AcDbEntity
  8
LAYER_FEATURE
100
AcDbSpline
 62
7
  6
CONTINUOUS
 70
0
 71
3
 72
14
 73
10
 74
0
 42
0.0000001
 43
0.0000001
 44
0.0000000001
 40
0.0
 40
0.0
 40
0.0
 40
0.0
 40
0.1085260875
 40
0.2260103762
 40
0.3505418517
 40
0.4800465238
 40
0.744479722
 40
0.8747805906
 40
1.0
 40
1.0
 40
1.0
 40
1.0
 10
13.0443693812
 20
10.7640699159
 30
0.0
 10
13.0451223987
 20
10.763146797
 30
0.0
 10
13.0468507045
 20
10.7613525606
 30
0.0
 10
13.0498638783
 20
10.7589456264
 30
0.0
 10
13.0533317037
 20
10.7567825538
 30
0.0
 10
13.0584536183
 20
10.7542853308
 30
0.0
 10
13.0639812725
 20
10.7525323376
 30
0.0
 10
13.0696214291
 20
10.7516172195
 30
0.0
 10
13.0724283441
 20
10.7514520835
 30
0.0
 10
13.0738028824
 20
10.7514520835
 30
0.0
  0
SPLINE
  5
306
100
AcDbEntity
  8
LAYER_FEATURE
100
AcDbSpline
 62
7
  6
CONTINUOUS
 70
0
 71
3
 72
13
 73
9
 74
0
 42
0.0000001
 43
0.0000001
 44
0.0000000001
 40
0.0
 40
0.0
 40
0.0
 40
0.0
 40
0.3029760778
 40
0.5686856548
 40
0.6870511211
 40
0.7968233017
 40
0.9001436501
 40
1.0
 40
1.0
 40
1.0
 40
1.0
 10
12.7587425863
 20
10.7514520835
 30
0.0
 10
12.7607638503
 20
10.7514520835
 30
0.0
 10
12.7645690668
 20
10.7517725821
 30
0.0
 10
12.7689977424
 20
10.7531638298
 30
0.0
 10
12.7718405513
 20
10.7548575326
 30
0.0
 10
12.7735183219
 20
10.7563191342
 30
0.0
 10
12.7747900873
 20
10.7579946737
 30
0.0
 10
12.7753472928
 20
10.7592466562
 30
0.0
 10
12.7755432612
 20
10.7598833584
 30
0.0
  0
SPLINE
  5
307
100
AcDbEntity
  8
LAYER_FEATURE
100
AcDbSpline
 62
7
  6
CONTINUOUS
 70
0
 71
3
 72
14
 73
10
 74
0
 42
0.0000001
 43
0.0000001
 44
0.0000000001
 40
0.0
 40
0.0
 40
0.0
 40
0.0
 40
0.1085260875
 40
0.2260103762
 40
0.3505418517
 40
0.4800465238
 40
0.744479722
 40
0.8747805906
 40
1.0
 40
1.0
 40
1.0
 40
1.0
 10
12.4106794173
 20
10.7640699159
 30
0.0
 10
12.4114324348
 20
10.763146797
 30
0.0
 10
12.4131607406
 20
10.7613525606
 30
0.0
 10
12.4161739144
 20
10.7589456264
 30
0.0
 10
12.4196417398
 20
10.7567825538
 30
0.0
 10
12.4247636544
 20
10.7542853308
 30
0.0
 10
12.4302913086
 20
10.7525323376
 30
0.0
 10
12.4359314652
 20
10.7516172195
 30
0.0
 10
12.4387383802
 20
10.7514520835
 30
0.0
 10
12.4401129186
 20
10.7514520835
 30
0.0
  0
SPLINE
  5
308
100
AcDbEntity
  8
0
100
AcDbSpline
 62
7
  6
CONTINUOUS
 70
0
 71
3
 72
13
 73
9
 74
0
 42
0.0000001
 43
0.0000001
 44
0.0000000001
 40
0.0
 40
0.0
 40
0.0
 40
0.0
 40
0.3029760778
 40
0.5686856548
 40
0.6870511211
 40
0.7968233017
 40
0.9001436501
 40
1.0
 40
1.0
 40
1.0
 40
1.0
 10
12.1250526224
 20
10.7514520835
 30
0.0
 10
12.1270738864
 20
10.7514520835
 30
0.0
 10
12.130879103
 20
10.7517725821
 30
0.0
 10
12.1353077785
 20
10.7531638298
 30
0.0
 10
12.1381505874
 20
10.7548575326
 30
0.0
 10
12.139828358
 20
10.7563191342
 30
0.0
 10
12.1411001234
 20
10.7579946737
 30
0.0
 10
12.1416573289
 20
10.7592466562
 30
0.0
 10
12.1418532973
 20
10.7598833584
 30
0.0
  0
SPLINE
  5
309
100
AcDbEntity
  8
0
100
AcDbSpline
 62
7
  6
CONTINUOUS
 70
0
 71
3
 72
14
 73
10
 74
0
 42
0.0000001
 43
0.0000001
 44
0.0000000001
 40
0.0
 40
0.0
 40
0.0
 40
0.0
 40
0.1085260875
 40
0.2260103762
 40
0.3505418517
 40
0.4800465238
 40
0.744479722
 40
0.8747805906
 40
1.0
 40
1.0
 40
1.0
 40
1.0
 10
11.7769894534
 20
10.7640699159
 30
0.0
 10
11.7777424709
 20
10.763146797
 30
0.0
 10
11.7794707767
 20
10.7613525606
 30
0.0
 10
11.7824839505
 20
10.7589456264
 30
0.0
 10
11.7859517759
 20
10.7567825538
 30
0.0
 10
11.7910736905
 20
10.7542853308
 30
0.0
 10
11.7966013448
 20
10.7525323376
 30
0.0
 10
11.8022415013
 20
10.7516172195
 30
0.0
 10
11.8050484163
 20
10.7514520835
 30
0.0
 10
11.8064229547
 20
10.7514520835
 30
0.0
  0
SPLINE
  5
30A
100
AcDbEntity
  8
0
100
AcDbSpline
 62
7
  6
CONTINUOUS
 70
0
 71
3
 72
13
 73
9
 74
0
 42
0.0000001
 43
0.0000001
 44
0.0000000001
 40
0.0
 40
0.0
 40
0.0
 40
0.0
 40
0.3028164381
 40
0.5687547987
 40
0.6871501143
 40
0.7969352722
 40
0.9002057799
 40
1.0
 40
1.0
 40
1.0
 40
1.0
 10
11.504898838
 20
11.1368502638
 30
0.0
 10
11.503725843
 20
11.1368502638
 30
0.0
 10
11.5015164859
 20
11.1366628079
 30
0.0
 10
11.4989437816
 20
11.1358569202
 30
0.0
 10
11.4972930943
 20
11.1348716886
 30
0.0
 10
11.4963180999
 20
11.1340239242
 30
0.0
 10
11.4955814073
 20
11.133050142
 30
0.0
 10
11.4952576028
 20
11.1323240334
 30
0.0
 10
11.4951432396
 20
11.1319547729
 30
0.0
  0
SPLINE
  5
30B
100
AcDbEntity
  8
0
100
AcDbSpline
 62
7
  6
CONTINUOUS
 70
0
 71
3
 72
15
 73
11
 74
0
 42
0.0000001
 43
0.0000001
 44
0.0000000001
 40
0.0
 40
0.0
 40
0.0
 40
0.0
 40
0.1000805212
 40
0.21186059
 40
0.3338439566
 40
0.4637371734
 40
0.5987029226
 40
0.7354819219
 40
0.8705834431
 40
1.0
 40
1.0
 40
1.0
 40
1.0
 10
18.4036160061
 20
11.1275261143
 30
0.0
 10
18.4032999042
 20
11.1281702622
 30
0.0
 10
18.4024600375
 20
11.1294517226
 30
0.0
 10
18.4008020177
 20
11.1311912576
 30
0.0
 10
18.3987291265
 20
11.1327873418
 30
0.0
 10
18.3963263793
 20
11.1341861652
 30
0.0
 10
18.3936785363
 20
11.1353336456
 30
0.0
 10
18.3908841839
 20
11.1361916222
 30
0.0
 10
18.3880501209
 20
11.1367200556
 30
0.0
 10
18.3861523166
 20
11.1368502638
 30
0.0
 10
18.3852244632
 20
11.1368502638
 30
0.0
  0
ENDSEC
  0
SECTION
  2
OBJECTS
  0
DICTIONARY
  5
C
100
AcDbDictionary
280
0
281
1
  3
ACAD_GROUP
350
D
  3
ACAD_MLINESTYLE
350
17
  3
ACAD_LAYOUT
350
1A
  3
ACAD_PLOTSETTINGS
350
19
  3
ACAD_PLOTSTYLENAME
350
E
  0
DICTIONARY
  5
D
102
{ACAD_REACTORS
330
C
102
}
100
AcDbDictionary
280
0
281
1
  0
ACDBDICTIONARYWDFLT
  5
E
102
{ACAD_REACTORS
330
C
102
}
100
AcDbDictionary
281
1
  3
Normal
350
F
100
AcDbDictionaryWithDefault
340
F
  0
DICTIONARY
  5
17
102
{ACAD_REACTORS
330
C
102
}
100
AcDbDictionary
280
0
281
1
  3
Standard
350
18
  0
DICTIONARY
  5
19
102
{ACAD_REACTORS
330
C
102
}
100
AcDbDictionary
281
1
  0
DICTIONARY
  5
1A
102
{ACAD_REACTORS
330
C
102
}
100
AcDbDictionary
281
1
  3
Model
350
30C
  3
Layout1
350
30D
  0
ACDBPLACEHOLDER
  5
F
102
{ACAD_REACTORS
330
E
102
}
  0
MLINESTYLE
  5
18
102
{ACAD_REACTORS
330
17
102
}
100
AcDbMlineStyle
  2
STANDARD
 70
0
  3

 62
256
 51
90.0
 52
90.0
 71
2
 49
0.5
 62
256
  6
BYLAYER
 49
-0.5
 62
256
  6
BYLAYER
  0
LAYOUT
  5
30C
102
{ACAD_REACTORS
330
1A
102
}
100
AcDbPlotSettings
  1

  2
none_device
  4
ANSI_C_(22.00_x_17.00_Inches)
  6

 40
0.0
 41
0.0
 42
0.0
 43
0.0
 44
558.8
 45
431.8
 46
0.0
 47
0.0
 48
0.0
 49
0.0
140
0.0
141
0.0
142
1.0
143
1.0
 70
1024
 72
0
 73
0
 74
0
  7

 75
0
147
1.0
148
0.0
149
0.0
100
AcDbLayout
  1
Model
 70
0
 71
0
 10
0.0
 20
0.0
 11
22.0
 21
17.0
 12
0.0
 22
0.0
 32
0.0
 14
0.0
 24
0.0
 34
0.0
 15
0.0
 25
0.0
 35
0.0
146
0.0
 13
0.0
 23
0.0
 33
0.0
 16
1.0
 26
0.0
 36
0.0
 17
0.0
 27
1.0
 37
0.0
 76
0
330
21C
345
0
346
0
  0
LAYOUT
  5
30D
102
{ACAD_REACTORS
330
1A
102
}
100
AcDbPlotSettings
  1

  2
none_device
  4
ANSI_C_(22.00_x_17.00_Inches)
  6

 40
0.0
 41
0.0
 42
0.0
 43
0.0
 44
558.8
 45
431.8
 46
0.0
 47
0.0
 48
0.0
 49
0.0
140
0.0
141
0.0
142
1.0
143
1.0
 70
0
 72
0
 73
0
 74
0
  7

 75
0
147
1.0
148
0.0
149
0.0
100
AcDbLayout
  1
Layout1
 70
0
 71
1
 10
0.0
 20
0.0
 11
22.0
 21
17.0
 12
0.0
 22
0.0
 32
0.0
 14
0.0
 24
0.0
 34
0.0
 15
0.0
 25
0.0
 35
0.0
146
0.0
 13
0.0
 23
0.0
 33
0.0
 16
1.0
 26
0.0
 36
0.0
 17
0.0
 27
1.0
 37
0.0
 76
0
330
21D
345
0
346
0
  0
ENDSEC
  0
EOF