999
DXF file: _cgs_temp_output.dxf
999
Pro/ENGINEER 2016360 by Parametric Technology Corporation
  0
SECTION
  2
HEADER
  9
$ACADVER
  1
AC1021
  9
$DWGCODEPAGE
  3
ANSI_1252
  9
$EXTMAX
 10
22.0
 20
17.0
 30
0.0
  9
$EXTMIN
 10
0.0
 20
0.0
 30
0.0
  9
$LIMMIN
 10
0.0
 20
0.0
  9
$LIMMAX
 10
22.0
 20
17.0
  9
$VIEWCTR
 10
11.0
 20
8.5
  9
$VIEWSIZE
 40
17.0
  9
$CLAYER
  8
0
  9
$LTSCALE
 40
1.21
  9
$CELTYPE
  6
BYLAYER
  9
$DIMSCALE
 40
1.0
  9
$DIMASZ
 40
0.1875
  9
$DIMEXO
 40
0.0625
  9
$DIMDLI
 40
0.836
  9
$DIMEXE
 40
0.125
  9
$DIMCEN
 40
0.198
  9
$DIMLFAC
 40
1.0
  9
$DIMBLK
  1
_CLOSED
  9
$DIMALT
 70
0
  9
$DIMALTF
 40
25.4
  9
$DIMTXT
 40
0.15625
  9
$DIMTOL
 70
0
  9
$DIMLIM
 70
0
  9
$DIMTFAC
 40
1.0
  9
$DIMGAP
 40
0.09
  9
$DIMDSEP
 70
46
  9
$AUNITS
 70
0
  9
$PDMODE
 70
3
  9
$PDSIZE
 40
0.3125
  9
$HANDSEED
  5
30E
  9
$TILEMODE
 70
1
  9
$MEASUREMENT
 70
0
  9
$INSUNITS
 70
1
  0
ENDSEC
  0
SECTION
  2
CLASSES
  0
CLASS
  1
ACDBDICTIONARYWDFLT
  2
AcDbDictionaryWithDefault
  3
AutoCAD 2000
 90
0
 91
1
280
0
281
0
  0
CLASS
  1
ACDBPLACEHOLDER
  2
AcDbPlaceHolder
  3
AutoCAD 2000
 90
0
 91
1
280
0
281
0
  0
CLASS
  1
LAYOUT
  2
AcDbLayout
  3
AutoCAD 2000
 90
0
 91
0
280
0
281
0
  0
ENDSEC
  0
SECTION
  2
TABLES
  0
TABLE
  2
VPORT
  5
8
100
AcDbSymbolTable
 70
2
  0
VPORT
  5
1F4
100
AcDbSymbolTableRecord
100
AcDbViewportTableRecord
  2
*ACTIVE
 70
0
 10
0.0
 20
0.0
 11
1.0
 21
1.0
 12
11.0
 22
8.5
 13
0.0
 23
0.0
 14
1.0
 24
1.0
 15
0.0
 25
0.0
 16
0.0
 26
0.0
 36
1.0
 17
0.0
 27
0.0
 37
0.0
 40
17.0
 41
1.2941176471
 42
50.0
 43
0.0
 44
0.0
 50
0.0
 51
0.0
 71
0
 72
100
 73
1
 74
1
 75
0
 76
0
 77
0
 78
0
  0
ENDTAB
  0
TABLE
  2
LTYPE
  5
5
100
AcDbSymbolTable
 70
6
  0
LTYPE
  5
14
100
AcDbSymbolTableRecord
100
AcDbLinetypeTableRecord
  2
BYBLOCK
 70
0
  3

 72
65
 73
0
 40
0.0
  0
LTYPE
  5
15
100
AcDbSymbolTableRecord
100
AcDbLinetypeTableRecord
  2
BYLAYER
 70
0
  3

 72
65
 73
0
 40
0.0
  0
LTYPE
  5
16
100
AcDbSymbolTableRecord
100
AcDbLinetypeTableRecord
  2
CONTINUOUS
 70
64
  3
Solid line
 72
65
 73
0
 40
0.0
  0
LTYPE
  5
1F5
100
AcDbSymbolTableRecord
100
AcDbLinetypeTableRecord
  2
CENTER
 70
64
  3
____ _ ____ _ ____ _ ____ _ ____ _ ____ _ ____
 72
65
 73
4
 40
0.6
 49
0.375
 74
0
 49
-0.075
 74
0
 49
0.075
 74
0
 49
-0.075
 74
0
  0
LTYPE
  5
1F6
100
AcDbSymbolTableRecord
100
AcDbLinetypeTableRecord
  2
HIDDEN
 70
64
  3
- - - - - - - - - - - - - - - - - - - -
 72
65
 73
2
 40
0.2
 49
0.1
 74
0
 49
-0.1
 74
0
  0
LTYPE
  5
1F7
100
AcDbSymbolTableRecord
100
AcDbLinetypeTableRecord
  2
PHANTOM
 70
64
  3
_____ _ _ _____ _ _ _____ _ _ _____
 72
65
 73
6
 40
0.8
 49
0.45
 74
0
 49
-0.05
 74
0
 49
0.1
 74
0
 49
-0.05
 74
0
 49
0.1
 74
0
 49
-0.05
 74
0
  0
LTYPE
  5
1F8
100
AcDbSymbolTableRecord
100
AcDbLinetypeTableRecord
  2
DOT
 70
64
  3
. . . . . . . . . . . . . . . . . . . .
 72
65
 73
2
 40
0.2
 49
0.1
 74
0
 49
-0.1
 74
0
  0
LTYPE
  5
1F9
100
AcDbSymbolTableRecord
100
AcDbLinetypeTableRecord
  2
DASHED
 70
64
  3
- - - - - - - - - - - - - - - - - - - -
 72
65
 73
2
 40
0.2
 49
0.1
 74
0
 49
-0.1
 74
0
  0
ENDTAB
  0
TABLE
  2
LAYER
  5
2
100
AcDbSymbolTable
 70
36
  0
LAYER
  5
10
100
AcDbSymbolTableRecord
100
AcDbLayerTableRecord
  2
0
 70
0
 62
7
  6
CONTINUOUS
370
-3
390
F
  0
LAYER
  5
1FA
100
AcDbSymbolTableRecord
100
AcDbLayerTableRecord
  2
DEFAULT_1
 70
0
 62
7
  6
CENTER
370
-3
390
F
  0
LAYER
  5
1FB
100
AcDbSymbolTableRecord
100
AcDbLayerTableRecord
  2
DEFAULT_2
 70
0
 62
8
  6
HIDDEN
370
-3
390
F
  0
LAYER
  5
1FC
100
AcDbSymbolTableRecord
100
AcDbLayerTableRecord
  2
DEFAULT_3
 70
0
 62
7
  6
PHANTOM
370
-3
390
F
  0
LAYER
  5
1FD
100
AcDbSymbolTableRecord
100
AcDbLayerTableRecord
  2
01_ALL_DTM_PLN
 70
0
 62
7
  6
CONTINUOUS
370
-3
390
F
  0
LAYER
  5
1FE
100
AcDbSymbolTableRecord
100
AcDbLayerTableRecord
  2
01__ASM_ALL_DTM_PLN
 70
0
 62
7
  6
CONTINUOUS
370
-3
390
F
  0
LAYER
  5
1FF
100
AcDbSymbolTableRecord
100
AcDbLayerTableRecord
  2
01__ASM_DEF_DTM_PLN
 70
0
 62
7
  6
CONTINUOUS
370
-3
390
F
  0
LAYER
  5
200
100
AcDbSymbolTableRecord
100
AcDbLayerTableRecord
  2
01___PRT_ALL_DTM_PLN
 70
0
 62
7
  6
CONTINUOUS
370
-3
390
F
  0
LAYER
  5
201
100
AcDbSymbolTableRecord
100
AcDbLayerTableRecord
  2
01___PRT_DEF_DTM_PLN
 70
0
 62
7
  6
CONTINUOUS
370
-3
390
F
  0
LAYER
  5
202
100
AcDbSymbolTableRecord
100
AcDbLayerTableRecord
  2
02_ALL_AXES
 70
0
 62
7
  6
CONTINUOUS
370
-3
390
F
  0
LAYER
  5
203
100
AcDbSymbolTableRecord
100
AcDbLayerTableRecord
  2
02__ASM_ALL_AXES
 70
0
 62
7
  6
CONTINUOUS
370
-3
390
F
  0
LAYER
  5
204
100
AcDbSymbolTableRecord
100
AcDbLayerTableRecord
  2
02___PRT_ALL_AXES
 70
0
 62
7
  6
CONTINUOUS
370
-3
390
F
  0
LAYER
  5
205
100
AcDbSymbolTableRecord
100
AcDbLayerTableRecord
  2
03_ALL_CURVES
 70
0
 62
7
  6
CONTINUOUS
370
-3
390
F
  0
LAYER
  5
206
100
AcDbSymbolTableRecord
100
AcDbLayerTableRecord
  2
03__ASM_ALL_CURVES
 70
0
 62
7
  6
CONTINUOUS
370
-3
390
F
  0
LAYER
  5
207
100
AcDbSymbolTableRecord
100
AcDbLayerTableRecord
  2
03___PRT_ALL_CURVES
 70
0
 62
7
  6
CONTINUOUS
370
-3
390
F
  0
LAYER
  5
208
100
AcDbSymbolTableRecord
100
AcDbLayerTableRecord
  2
04_ALL_DTM_PNT
 70
0
 62
7
  6
CONTINUOUS
370
-3
390
F
  0
LAYER
  5
209
100
AcDbSymbolTableRecord
100
AcDbLayerTableRecord
  2
04__ASM_ALL_DTM_PNT
 70
0
 62
7
  6
CONTINUOUS
370
-3
390
F
  0
LAYER
  5
20A
100
AcDbSymbolTableRecord
100
AcDbLayerTableRecord
  2
04___PRT_ALL_DTM_PNT
 70
0
 62
7
  6
CONTINUOUS
370
-3
390
F
  0
LAYER
  5
20B
100
AcDbSymbolTableRecord
100
AcDbLayerTableRecord
  2
05_ALL_DTM_CSYS
 70
0
 62
7
  6
CONTINUOUS
370
-3
390
F
  0
LAYER
  5
20C
100
AcDbSymbolTableRecord
100
AcDbLayerTableRecord
  2
05__ASM_ALL_DTM_CSYS
 70
0
 62
7
  6
CONTINUOUS
370
-3
390
F
  0
LAYER
  5
20D
100
AcDbSymbolTableRecord
100
AcDbLayerTableRecord
  2
05__ASM_DEF_DTM_CSYS
 70
0
 62
7
  6
CONTINUOUS
370
-3
390
F
  0
LAYER
  5
20E
100
AcDbSymbolTableRecord
100
AcDbLayerTableRecord
  2
05___PRT_ALL_DTM_CSYS
 70
0
 62
7
  6
CONTINUOUS
370
-3
390
F
  0
LAYER
  5
20F
100
AcDbSymbolTableRecord
100
AcDbLayerTableRecord
  2
05___PRT_DEF_DTM_CSYS
 70
0
 62
7
  6
CONTINUOUS
370
-3
390
F
  0
LAYER
  5
210
100
AcDbSymbolTableRecord
100
AcDbLayerTableRecord
  2
06_ALL_SURFS
 70
0
 62
7
  6
CONTINUOUS
370
-3
390
F
  0
LAYER
  5
211
100
AcDbSymbolTableRecord
100
AcDbLayerTableRecord
  2
06__ASM_ALL_SURFS
 70
0
 62
7
  6
CONTINUOUS
370
-3
390
F
  0
LAYER
  5
212
100
AcDbSymbolTableRecord
100
AcDbLayerTableRecord
  2
06___PRT_ALL_SURFS
 70
0
 62
7
  6
CONTINUOUS
370
-3
390
F
  0
LAYER
  5
213
100
AcDbSymbolTableRecord
100
AcDbLayerTableRecord
  2
07__ASM_ALL_SKELETONS
 70
0
 62
7
  6
CONTINUOUS
370
-3
390
F
  0
LAYER
  5
214
100
AcDbSymbolTableRecord
100
AcDbLayerTableRecord
  2
LAYER_DIM
 70
0
 62
7
  6
CONTINUOUS
370
-3
390
F
  0
LAYER
  5
215
100
AcDbSymbolTableRecord
100
AcDbLayerTableRecord
  2
LAYER_FEATURE
 70
0
 62
7
  6
CONTINUOUS
370
-3
390
F
  0
LAYER
  5
216
100
AcDbSymbolTableRecord
100
AcDbLayerTableRecord
  2
LAYER_GEOM_FEAT
 70
0
 62
7
  6
CONTINUOUS
370
-3
390
F
  0
LAYER
  5
217
100
AcDbSymbolTableRecord
100
AcDbLayerTableRecord
  2
LAYER_PARAMETER_DIM
 70
0
 62
7
  6
CONTINUOUS
370
-3
390
F
  0
LAYER
  5
218
100
AcDbSymbolTableRecord
100
AcDbLayerTableRecord
  2
LAYER_PROTRUSION_FEAT
 70
0
 62
7
  6
CONTINUOUS
370
-3
390
F
  0
LAYER
  5
219
100
AcDbSymbolTableRecord
100
AcDbLayerTableRecord
  2
LAYER_ROUND_FEAT
 70
0
 62
7
  6
CONTINUOUS
370
-3
390
F
  0
ENDTAB
  0
TABLE
  2
STYLE
  5
3
100
AcDbSymbolTable
 70
1
  0
STYLE
  5
11
100
AcDbSymbolTableRecord
100
AcDbTextStyleTableRecord
  2
STANDARD
 70
0
 40
0.0
 41
0.8
 50
0.0
 71
0
 42
0.2
  3
txt
  4

  0
STYLE
  5
21A
100
AcDbSymbolTableRecord
100
AcDbTextStyleTableRecord
  2
TEXTSTYLE_1
 70
0
 40
0.0
 41
0.8
 50
0.0
 71
0
 42
0.2
  3
gdt
  4

  0
ENDTAB
  0
TABLE
  2
VIEW
  5
6
100
AcDbSymbolTable
 70
0
  0
ENDTAB
  0
TABLE
  2
UCS
  5
7
100
AcDbSymbolTable
 70
0
  0
ENDTAB
  0
TABLE
  2
APPID
  5
9
100
AcDbSymbolTable
 70
1
  0
APPID
  5
21B
100
AcDbSymbolTableRecord
100
AcDbRegAppTableRecord
  2
ACAD
 70
0
  0
ENDTAB
  0
TABLE
  2
BLOCK_RECORD
  5
1
100
AcDbSymbolTable
 70
0
  0
BLOCK_RECORD
  5
21C
100
AcDbSymbolTableRecord
100
AcDbBlockTableRecord
  2
*Model_Space
  0
BLOCK_RECORD
  5
21D
100
AcDbSymbolTableRecord
100
AcDbBlockTableRecord
  2
*Paper_Space
  0
ENDTAB
  0
TABLE
  2
DIMSTYLE
  5
A
100
AcDbSymbolTable
 70
1
100
AcDbDimStyleTable
 71
0
  0
DIMSTYLE
105
21E
100
AcDbSymbolTableRecord
100
AcDbDimStyleTableRecord
  2
STANDARD
 70
0
  3

  4

 40
1.0
 41
0.1875
 42
0.0625
 43
0.38
 44
0.125
 45
0.0
 46
0.0
 47
0.0001
 48
0.0001
140
0.15625
141
0.09
142
0.0
143
25.4
144
1.0
145
0.0
146
1.0
147
0.09
 71
0.0
 72
0.0
 73
1
 74
1
 75
0
 76
0
 77
0
 78
4
 79
1
170
0
171
3
172
0
173
0
174
0
175
0
176
0
177
0
178
0
270
2
179
4
271
4
272
4
273
2
274
2
275
0
280
0
281
0
282
0
283
1
284
4
285
0
286
0
287
3
288
0
340
11
278
46
  0
ENDTAB
  0
ENDSEC
  0
SECTION
  2
BLOCKS
  0
BLOCK
  5
20
100
AcDbEntity
  8
0
100
AcDbBlockBegin
  2
*Model_Space
 70
0
 10
0.0
 20
0.0
 30
0.0
  3
*Model_Space
  1

  0
ENDBLK
  5
21
100
AcDbEntity
  8
0
100
AcDbBlockEnd
  0
BLOCK
  5
1C
100
AcDbEntity
  8
0
100
AcDbBlockBegin
  2
*Paper_Space
 70
0
 10
0.0
 20
0.0
 30
0.0
  3
*Paper_Space
  1

  0
ENDBLK
  5
1D
100
AcDbEntity
  8
0
100
AcDbBlockEnd
  0
ENDSEC
  0
SECTION
  2
ENTITIES
  0
MTEXT
  5
21F
100
AcDbEntity
  8
0
100
AcDbMText
 62
7
  6
CONTINUOUS
  7
STANDARD
 71
1
 72
1
 10
15.9560215477
 20
0.9479130325
 30
0.0
 11
1.0
 21
0.0
 31
0.0
 44
0.9
  1
SCALE: 1:0.500
 40
0.3
 41
3.36
  0
LINE
  5
220
100
AcDbEntity
  8
0
100
AcDbLine
 62
7
  6
CONTINUOUS
 10
0.0
 20
0.0
 11
0.0
 21
17.0
  0
LINE
  5
221
100
AcDbEntity
  8
0
100
AcDbLine
 62
7
  6
CONTINUOUS
 10
0.0
 20
0.0
 11
22.0
 21
0.0
  0
LINE
  5
222
100
AcDbEntity
  8
0
100
AcDbLine
 62
7
  6
CONTINUOUS
 10
0.0
 20
17.0
 11
22.0
 21
17.0
  0
LINE
  5
223
100
AcDbEntity
  8
0
100
AcDbLine
 62
7
  6
CONTINUOUS
 10
22.0
 20
0.0
 11
22.0
 21
17.0
  0
LINE
  5
224
100
AcDbEntity
  8
0
100
AcDbLine
 62
7
  6
CONTINUOUS
 10
3.4103672762
 20
5.6776198968
 11
3.4103672762
 21
5.6201198968
  0
LINE
  5
225
100
AcDbEntity
  8
0
100
AcDbLine
 62
7
  6
CONTINUOUS
 10
3.4103672762
 20
5.6201198968
 11
3.488856292
 21
5.3680036642
  0
LINE
  5
226
100
AcDbEntity
  8
0
100
AcDbLine
 62
7
  6
CONTINUOUS
 10
3.8503672762
 20
5.6201198968
 11
3.8503672762
 21
5.6526198968
  0
LINE
  5
227
100
AcDbEntity
  8
LAYER_FEATURE
100
AcDbLine
 62
7
  6
CONTINUOUS
 10
3.9103672762
 20
5.6526198968
 11
3.9103672762
 21
5.6201198968
  0
LINE
  5
228
100
AcDbEntity
  8
0
100
AcDbLine
 62
7
  6
CONTINUOUS
 10
3.7718782604
 20
5.3680036642
 11
3.8503672762
 21
5.6201198968
  0
LINE
  5
229
100
AcDbEntity
  8
LAYER_FEATURE
100
AcDbLine
 62
7
  6
CONTINUOUS
 10
3.9103672762
 20
5.6201198968
 11
3.988856292
 21
5.3680036642
  0
LINE
  5
22A
100
AcDbEntity
  8
LAYER_FEATURE
100
AcDbLine
 62
7
  6
CONTINUOUS
 10
4.3503672762
 20
5.6201198968
 11
4.3503672762
 21
5.6526198968
  0
LINE
  5
22B
100
AcDbEntity
  8
LAYER_FEATURE
100
AcDbLine
 62
7
  6
CONTINUOUS
 10
4.4103672762
 20
5.6526198968
 11
4.4103672762
 21
5.6201198968
  0
LINE
  5
22C
100
AcDbEntity
  8
LAYER_FEATURE
100
AcDbLine
 62
7
  6
CONTINUOUS
 10
4.2718782604
 20
5.3680036642
 11
4.3503672762
 21
5.6201198968
  0
LINE
  5
22D
100
AcDbEntity
  8
LAYER_FEATURE
100
AcDbLine
 62
7
  6
CONTINUOUS
 10
4.4103672762
 20
5.6201198968
 11
4.488856292
 21
5.3680036642
  0
LINE
  5
22E
100
AcDbEntity
  8
LAYER_FEATURE
100
AcDbLine
 62
7
  6
CONTINUOUS
 10
4.8503672762
 20
5.6201198968
 11
4.8503672762
 21
5.6526198968
  0
LINE
  5
22F
100
AcDbEntity
  8
LAYER_FEATURE
100
AcDbLine
 62
7
  6
CONTINUOUS
 10
4.7718782604
 20
5.3680036642
 11
4.8503672762
 21
5.6201198968
  0
LINE
  5
230
100
AcDbEntity
  8
LAYER_FEATURE
100
AcDbLine
 62
7
  6
CONTINUOUS
 10
4.9103672762
 20
5.6526198968
 11
4.9103672762
 21
5.6201198968
  0
LINE
  5
231
100
AcDbEntity
  8
LAYER_FEATURE
100
AcDbLine
 62
7
  6
CONTINUOUS
 10
4.9103672762
 20
5.6201198968
 11
4.988856292
 21
5.3680036642
  0
LINE
  5
232
100
AcDbEntity
  8
LAYER_FEATURE
100
AcDbLine
 62
7
  6
CONTINUOUS
 10
5.3503672762
 20
5.6201198968
 11
5.3503672762
 21
5.6526198968
  0
LINE
  5
233
100
AcDbEntity
  8
LAYER_FEATURE
100
AcDbLine
 62
7
  6
CONTINUOUS
 10
5.4103672762
 20
5.6526198968
 11
5.4103672762
 21
5.6201198968
  0
LINE
  5
234
100
AcDbEntity
  8
LAYER_FEATURE
100
AcDbLine
 62
7
  6
CONTINUOUS
 10
5.2718782604
 20
5.3680036642
 11
5.3503672762
 21
5.6201198968
  0
LINE
  5
235
100
AcDbEntity
  8
LAYER_FEATURE
100
AcDbLine
 62
7
  6
CONTINUOUS
 10
5.4103672762
 20
5.6201198968
 11
5.488856292
 21
5.3680036642
  0
LINE
  5
236
100
AcDbEntity
  8
LAYER_FEATURE
100
AcDbLine
 62
7
  6
CONTINUOUS
 10
5.8503672762
 20
5.6201198968
 11
5.8503672762
 21
5.6526198968
  0
LINE
  5
237
100
AcDbEntity
  8
LAYER_FEATURE
100
AcDbLine
 62
7
  6
CONTINUOUS
 10
5.9103672762
 20
5.6526198968
 11
5.9103672762
 21
5.6201198968
  0
LINE
  5
238
100
AcDbEntity
  8
LAYER_FEATURE
100
AcDbLine
 62
7
  6
CONTINUOUS
 10
5.7718782604
 20
5.3680036642
 11
5.8503672762
 21
5.6201198968
  0
LINE
  5
239
100
AcDbEntity
  8
0
100
AcDbLine
 62
7
  6
CONTINUOUS
 10
3.5063609583
 20
5.3551198968
 11
3.7543735941
 21
5.3551198968
  0
LINE
  5
23A
100
AcDbEntity
  8
LAYER_FEATURE
100
AcDbLine
 62
7
  6
CONTINUOUS
 10
4.0063609583
 20
5.3551198968
 11
4.2543735941
 21
5.3551198968
  0
LINE
  5
23B
100
AcDbEntity
  8
LAYER_FEATURE
100
AcDbLine
 62
7
  6
CONTINUOUS
 10
4.5063609583
 20
5.3551198968
 11
4.7543735941
 21
5.3551198968
  0
LINE
  5
23C
100
AcDbEntity
  8
LAYER_FEATURE
100
AcDbLine
 62
7
  6
CONTINUOUS
 10
5.0063609583
 20
5.3551198968
 11
5.2543735941
 21
5.3551198968
  0
LINE
  5
23D
100
AcDbEntity
  8
LAYER_FEATURE
100
AcDbLine
 62
7
  6
CONTINUOUS
 10
5.5063609583
 20
5.3551198968
 11
5.7543735941
 21
5.3551198968
  0
LINE
  5
23E
100
AcDbEntity
  8
LAYER_FEATURE
100
AcDbLine
 62
7
  6
CONTINUOUS
 10
6.0063609583
 20
5.3551198968
 11
6.2543735941
 21
5.3551198968
  0
LINE
  5
23F
100
AcDbEntity
  8
LAYER_FEATURE
100
AcDbLine
 62
7
  6
CONTINUOUS
 10
6.5063609583
 20
5.3551198968
 11
6.7543735941
 21
5.3551198968
  0
LINE
  5
240
100
AcDbEntity
  8
LAYER_FEATURE
100
AcDbLine
 62
7
  6
CONTINUOUS
 10
7.0063609583
 20
5.3551198968
 11
7.2543735941
 21
5.3551198968
  0
LINE
  5
241
100
AcDbEntity
  8
LAYER_FEATURE
100
AcDbLine
 62
7
  6
CONTINUOUS
 10
7.5063609583
 20
5.3551198968
 11
7.7543735941
 21
5.3551198968
  0
LINE
  5
242
100
AcDbEntity
  8
LAYER_FEATURE
100
AcDbLine
 62
7
  6
CONTINUOUS
 10
8.0063609583
 20
5.3551198968
 11
8.2543735941
 21
5.3551198968
  0
LINE
  5
243
100
AcDbEntity
  8
LAYER_FEATURE
100
AcDbLine
 62
7
  6
CONTINUOUS
 10
8.5063609583
 20
5.3551198968
 11
8.7543735941
 21
5.3551198968
  0
LINE
  5
244
100
AcDbEntity
  8
LAYER_FEATURE
100
AcDbLine
 62
7
  6
CONTINUOUS
 10
5.9103672762
 20
5.6201198968
 11
5.988856292
 21
5.3680036642
  0
LINE
  5
245
100
AcDbEntity
  8
LAYER_FEATURE
100
AcDbLine
 62
7
  6
CONTINUOUS
 10
6.2718782604
 20
5.3680036642
 11
6.3503672762
 21
5.6201198968
  0
LINE
  5
246
100
AcDbEntity
  8
LAYER_FEATURE
100
AcDbLine
 62
7
  6
CONTINUOUS
 10
3.8503672762
 20
5.6526198968
 11
3.9103672762
 21
5.6526198968
  0
LINE
  5
247
100
AcDbEntity
  8
LAYER_FEATURE
100
AcDbLine
 62
7
  6
CONTINUOUS
 10
4.3503672762
 20
5.6526198968
 11
4.4103672762
 21
5.6526198968
  0
LINE
  5
248
100
AcDbEntity
  8
LAYER_FEATURE
100
AcDbLine
 62
7
  6
CONTINUOUS
 10
4.8503672762
 20
5.6526198968
 11
4.9103672762
 21
5.6526198968
  0
LINE
  5
249
100
AcDbEntity
  8
LAYER_FEATURE
100
AcDbLine
 62
7
  6
CONTINUOUS
 10
5.3503672762
 20
5.6526198968
 11
5.4103672762
 21
5.6526198968
  0
LINE
  5
24A
100
AcDbEntity
  8
LAYER_FEATURE
100
AcDbLine
 62
7
  6
CONTINUOUS
 10
5.8503672762
 20
5.6526198968
 11
5.9103672762
 21
5.6526198968
  0
LINE
  5
24B
100
AcDbEntity
  8
LAYER_FEATURE
100
AcDbLine
 62
7
  6
CONTINUOUS
 10
6.3503672762
 20
5.6526198968
 11
6.4103672762
 21
5.6526198968
  0
LINE
  5
24C
100
AcDbEntity
  8
LAYER_FEATURE
100
AcDbLine
 62
7
  6
CONTINUOUS
 10
6.8503672762
 20
5.6526198968
 11
6.9103672762
 21
5.6526198968
  0
LINE
  5
24D
100
AcDbEntity
  8
LAYER_FEATURE
100
AcDbLine
 62
7
  6
CONTINUOUS
 10
7.3503672762
 20
5.6526198968
 11
7.4103672762
 21
5.6526198968
  0
LINE
  5
24E
100
AcDbEntity
  8
LAYER_FEATURE
100
AcDbLine
 62
7
  6
CONTINUOUS
 10
7.8503672762
 20
5.6526198968
 11
7.9103672762
 21
5.6526198968
  0
LINE
  5
24F
100
AcDbEntity
  8
LAYER_FEATURE
100
AcDbLine
 62
7
  6
CONTINUOUS
 10
8.3503672762
 20
5.6526198968
 11
8.4103672762
 21
5.6526198968
  0
LINE
  5
250
100
AcDbEntity
  8
0
100
AcDbLine
 62
7
  6
CONTINUOUS
 10
8.8428672762
 20
5.6851198968
 11
3.4178672762
 21
5.6851198968
  0
LINE
  5
251
100
AcDbEntity
  8
LAYER_FEATURE
100
AcDbLine
 62
7
  6
CONTINUOUS
 10
6.3503672762
 20
5.6201198968
 11
6.3503672762
 21
5.6526198968
  0
LINE
  5
252
100
AcDbEntity
  8
LAYER_FEATURE
100
AcDbLine
 62
7
  6
CONTINUOUS
 10
6.4103672762
 20
5.6526198968
 11
6.4103672762
 21
5.6201198968
  0
LINE
  5
253
100
AcDbEntity
  8
LAYER_FEATURE
100
AcDbLine
 62
7
  6
CONTINUOUS
 10
6.4103672762
 20
5.6201198968
 11
6.488856292
 21
5.3680036642
  0
LINE
  5
254
100
AcDbEntity
  8
LAYER_FEATURE
100
AcDbLine
 62
7
  6
CONTINUOUS
 10
6.8503672762
 20
5.6201198968
 11
6.8503672762
 21
5.6526198968
  0
LINE
  5
255
100
AcDbEntity
  8
LAYER_FEATURE
100
AcDbLine
 62
7
  6
CONTINUOUS
 10
6.7718782604
 20
5.3680036642
 11
6.8503672762
 21
5.6201198968
  0
LINE
  5
256
100
AcDbEntity
  8
LAYER_FEATURE
100
AcDbLine
 62
7
  6
CONTINUOUS
 10
6.9103672762
 20
5.6526198968
 11
6.9103672762
 21
5.6201198968
  0
LINE
  5
257
100
AcDbEntity
  8
LAYER_FEATURE
100
AcDbLine
 62
7
  6
CONTINUOUS
 10
6.9103672762
 20
5.6201198968
 11
6.988856292
 21
5.3680036642
  0
LINE
  5
258
100
AcDbEntity
  8
LAYER_FEATURE
100
AcDbLine
 62
7
  6
CONTINUOUS
 10
7.3503672762
 20
5.6201198968
 11
7.3503672762
 21
5.6526198968
  0
LINE
  5
259
100
AcDbEntity
  8
LAYER_FEATURE
100
AcDbLine
 62
7
  6
CONTINUOUS
 10
7.4103672762
 20
5.6526198968
 11
7.4103672762
 21
5.6201198968
  0
LINE
  5
25A
100
AcDbEntity
  8
LAYER_FEATURE
100
AcDbLine
 62
7
  6
CONTINUOUS
 10
7.2718782604
 20
5.3680036642
 11
7.3503672762
 21
5.6201198968
  0
LINE
  5
25B
100
AcDbEntity
  8
LAYER_FEATURE
100
AcDbLine
 62
7
  6
CONTINUOUS
 10
7.4103672762
 20
5.6201198968
 11
7.488856292
 21
5.3680036642
  0
LINE
  5
25C
100
AcDbEntity
  8
LAYER_FEATURE
100
AcDbLine
 62
7
  6
CONTINUOUS
 10
7.7718782604
 20
5.3680036642
 11
7.8503672762
 21
5.6201198968
  0
LINE
  5
25D
100
AcDbEntity
  8
LAYER_FEATURE
100
AcDbLine
 62
7
  6
CONTINUOUS
 10
7.8503672762
 20
5.6201198968
 11
7.8503672762
 21
5.6526198968
  0
LINE
  5
25E
100
AcDbEntity
  8
LAYER_FEATURE
100
AcDbLine
 62
7
  6
CONTINUOUS
 10
7.9103672762
 20
5.6526198968
 11
7.9103672762
 21
5.6201198968
  0
LINE
  5
25F
100
AcDbEntity
  8
LAYER_FEATURE
100
AcDbLine
 62
7
  6
CONTINUOUS
 10
7.9103672762
 20
5.6201198968
 11
7.988856292
 21
5.3680036642
  0
LINE
  5
260
100
AcDbEntity
  8
LAYER_FEATURE
100
AcDbLine
 62
7
  6
CONTINUOUS
 10
8.2718782604
 20
5.3680036642
 11
8.3503672762
 21
5.6201198968
  0
LINE
  5
261
100
AcDbEntity
  8
LAYER_FEATURE
100
AcDbLine
 62
7
  6
CONTINUOUS
 10
8.3503672762
 20
5.6201198968
 11
8.3503672762
 21
5.6526198968
  0
LINE
  5
262
100
AcDbEntity
  8
LAYER_FEATURE
100
AcDbLine
 62
7
  6
CONTINUOUS
 10
8.4103672762
 20
5.6526198968
 11
8.4103672762
 21
5.6201198968
  0
LINE
  5
263
100
AcDbEntity
  8
LAYER_FEATURE
100
AcDbLine
 62
7
  6
CONTINUOUS
 10
8.4103672762
 20
5.6201198968
 11
8.488856292
 21
5.3680036642
  0
LINE
  5
264
100
AcDbEntity
  8
0
100
AcDbLine
 62
7
  6
CONTINUOUS
 10
8.8503672762
 20
5.6201198968
 11
8.8503672762
 21
5.6776198968
  0
LINE
  5
265
100
AcDbEntity
  8
LAYER_FEATURE
100
AcDbLine
 62
7
  6
CONTINUOUS
 10
8.7718782604
 20
5.3680036642
 11
8.8503672762
 21
5.6201198968
  0
LINE
  5
266
100
AcDbEntity
  8
0
100
AcDbLine
 62
7
  6
CONTINUOUS
 10
3.3508720839
 20
13.6000477814
 11
3.3508720839
 21
11.6000477814
  0
LINE
  5
267
100
AcDbEntity
  8
0
100
AcDbLine
 62
7
  6
CONTINUOUS
 10
8.7908720839
 20
11.6000477814
 11
3.3508720839
 21
11.6000477814
  0
LINE
  5
268
100
AcDbEntity
  8
0
100
AcDbLine
 62
7
  6
CONTINUOUS
 10
3.3508720839
 20
13.6000477814
 11
8.7908720839
 21
13.6000477814
  0
LINE
  5
269
100
AcDbEntity
  8
0
100
AcDbLine
 62
7
  6
CONTINUOUS
 10
8.7908720839
 20
11.6000477814
 11
8.7908720839
 21
13.6000477814
  0
LINE
  5
26A
100
AcDbEntity
  8
LAYER_FEATURE
100
AcDbLine
 62
7
  6
CONTINUOUS
 10
14.5603552569
 20
5.2956247044
 11
14.5603552569
 21
5.5606247044
  0
LINE
  5
26B
100
AcDbEntity
  8
0
100
AcDbLine
 62
7
  6
CONTINUOUS
 10
14.5603552569
 20
5.5606247044
 11
14.5603552569
 21
5.6256247044
  0
LINE
  5
26C
100
AcDbEntity
  8
LAYER_FEATURE
100
AcDbLine
 62
7
  6
CONTINUOUS
 10
14.5603552569
 20
5.2956247044
 11
16.5603552569
 21
5.2956247044
  0
LINE
  5
26D
100
AcDbEntity
  8
LAYER_FEATURE
100
AcDbLine
 62
7
  6
CONTINUOUS
 10
16.5603552569
 20
5.5606247044
 11
14.5603552569
 21
5.5606247044
  0
LINE
  5
26E
100
AcDbEntity
  8
0
100
AcDbLine
 62
7
  6
CONTINUOUS
 10
14.5603552569
 20
5.6256247044
 11
16.5603552569
 21
5.6256247044
  0
LINE
  5
26F
100
AcDbEntity
  8
0
100
AcDbLine
 62
7
  6
CONTINUOUS
 10
16.5603552569
 20
5.6256247044
 11
16.5603552569
 21
5.5606247044
  0
LINE
  5
270
100
AcDbEntity
  8
LAYER_FEATURE
100
AcDbLine
 62
7
  6
CONTINUOUS
 10
16.5603552569
 20
5.2956247044
 11
16.5603552569
 21
5.5606247044
  0
LINE
  5
271
100
AcDbEntity
  8
0
100
AcDbLine
 62
7
  6
CONTINUOUS
 10
12.7127908882
 20
11.8253816533
 11
12.7303307955
 21
11.7896390801
  0
LINE
  5
272
100
AcDbEntity
  8
0
100
AcDbLine
 62
7
  6
CONTINUOUS
 10
12.7125339978
 20
11.8275957611
 11
12.7127908882
 21
11.8253816533
  0
LINE
  5
273
100
AcDbEntity
  8
0
100
AcDbLine
 62
7
  6
CONTINUOUS
 10
13.1402104682
 20
11.6329211168
 11
13.1355976329
 21
11.7896390801
  0
LINE
  5
274
100
AcDbEntity
  8
0
100
AcDbLine
 62
7
  6
CONTINUOUS
 10
13.1966658361
 20
13.3942498278
 11
12.7125331893
 21
11.8275960086
  0
LINE
  5
275
100
AcDbEntity
  8
0
100
AcDbLine
 62
7
  6
CONTINUOUS
 10
12.7303307955
 20
11.7896390801
 11
12.8795299727
 21
11.6329211168
  0
LINE
  5
276
100
AcDbEntity
  8
0
100
AcDbLine
 62
7
  6
CONTINUOUS
 10
13.1355976329
 20
11.7896390801
 11
13.1256837722
 21
11.8098414041
  0
LINE
  5
277
100
AcDbEntity
  8
LAYER_FEATURE
100
AcDbLine
 62
7
  6
CONTINUOUS
 10
13.1809474319
 20
11.8098414041
 11
13.1908612925
 21
11.7896390801
  0
LINE
  5
278
100
AcDbEntity
  8
0
100
AcDbLine
 62
7
  6
CONTINUOUS
 10
13.1399263498
 20
11.6309003377
 11
13.1402104682
 21
11.6329211168
  0
LINE
  5
279
100
AcDbEntity
  8
LAYER_FEATURE
100
AcDbLine
 62
7
  6
CONTINUOUS
 10
13.1908612925
 20
11.7896390801
 11
13.3400604697
 21
11.6329211168
  0
LINE
  5
27A
100
AcDbEntity
  8
0
100
AcDbLine
 62
7
  6
CONTINUOUS
 10
13.1418406232
 20
11.8098414041
 11
13.1355976329
 21
11.7896390801
  0
LINE
  5
27B
100
AcDbEntity
  8
0
100
AcDbLine
 62
7
  6
CONTINUOUS
 10
13.1399413059
 20
11.6308957528
 11
13.1897171792
 21
11.7919705379
  0
LINE
  5
27C
100
AcDbEntity
  8
LAYER_FEATURE
100
AcDbLine
 62
7
  6
CONTINUOUS
 10
13.5961281299
 20
11.7896390801
 11
13.5862142692
 21
11.8098414041
  0
LINE
  5
27D
100
AcDbEntity
  8
LAYER_FEATURE
100
AcDbLine
 62
7
  6
CONTINUOUS
 10
13.6414779289
 20
11.8098414041
 11
13.6513917895
 21
11.7896390801
  0
LINE
  5
27E
100
AcDbEntity
  8
LAYER_FEATURE
100
AcDbLine
 62
7
  6
CONTINUOUS
 10
13.6007409652
 20
11.6329211168
 11
13.5961281299
 21
11.7896390801
  0
LINE
  5
27F
100
AcDbEntity
  8
LAYER_FEATURE
100
AcDbLine
 62
7
  6
CONTINUOUS
 10
13.6004568468
 20
11.6309003377
 11
13.6007409652
 21
11.6329211168
  0
LINE
  5
280
100
AcDbEntity
  8
LAYER_FEATURE
100
AcDbLine
 62
7
  6
CONTINUOUS
 10
13.6513917895
 20
11.7896390801
 11
13.8005909667
 21
11.6329211168
  0
LINE
  5
281
100
AcDbEntity
  8
LAYER_FEATURE
100
AcDbLine
 62
7
  6
CONTINUOUS
 10
13.6023711202
 20
11.8098414041
 11
13.5961281299
 21
11.7896390801
  0
LINE
  5
282
100
AcDbEntity
  8
LAYER_FEATURE
100
AcDbLine
 62
7
  6
CONTINUOUS
 10
13.6004718029
 20
11.6308957528
 11
13.6502476762
 21
11.7919705379
  0
LINE
  5
283
100
AcDbEntity
  8
LAYER_FEATURE
100
AcDbLine
 62
7
  6
CONTINUOUS
 10
14.0566586269
 20
11.7896390801
 11
14.0467447662
 21
11.8098414041
  0
LINE
  5
284
100
AcDbEntity
  8
LAYER_FEATURE
100
AcDbLine
 62
7
  6
CONTINUOUS
 10
14.1020084259
 20
11.8098414041
 11
14.1119222865
 21
11.7896390801
  0
LINE
  5
285
100
AcDbEntity
  8
LAYER_FEATURE
100
AcDbLine
 62
7
  6
CONTINUOUS
 10
14.0612714622
 20
11.6329211168
 11
14.0566586269
 21
11.7896390801
  0
LINE
  5
286
100
AcDbEntity
  8
LAYER_FEATURE
100
AcDbLine
 62
7
  6
CONTINUOUS
 10
14.1119222865
 20
11.7896390801
 11
14.2611214637
 21
11.6329211168
  0
LINE
  5
287
100
AcDbEntity
  8
LAYER_FEATURE
100
AcDbLine
 62
7
  6
CONTINUOUS
 10
14.0609873438
 20
11.6309003377
 11
14.0612714622
 21
11.6329211168
  0
LINE
  5
288
100
AcDbEntity
  8
LAYER_FEATURE
100
AcDbLine
 62
7
  6
CONTINUOUS
 10
14.0629016172
 20
11.8098414041
 11
14.0566586269
 21
11.7896390801
  0
LINE
  5
289
100
AcDbEntity
  8
LAYER_FEATURE
100
AcDbLine
 62
7
  6
CONTINUOUS
 10
14.5724527835
 20
11.7896390801
 11
14.7216519607
 21
11.6329211168
  0
LINE
  5
28A
100
AcDbEntity
  8
LAYER_FEATURE
100
AcDbLine
 62
7
  6
CONTINUOUS
 10
14.5171891239
 20
11.7896390801
 11
14.5072752632
 21
11.8098414041
  0
LINE
  5
28B
100
AcDbEntity
  8
LAYER_FEATURE
100
AcDbLine
 62
7
  6
CONTINUOUS
 10
14.5218019592
 20
11.6329211168
 11
14.5171891239
 21
11.7896390801
  0
LINE
  5
28C
100
AcDbEntity
  8
LAYER_FEATURE
100
AcDbLine
 62
7
  6
CONTINUOUS
 10
14.0610022999
 20
11.6308957528
 11
14.1107781732
 21
11.7919705379
  0
LINE
  5
28D
100
AcDbEntity
  8
LAYER_FEATURE
100
AcDbLine
 62
7
  6
CONTINUOUS
 10
14.5625389229
 20
11.8098414041
 11
14.5724527835
 21
11.7896390801
  0
LINE
  5
28E
100
AcDbEntity
  8
LAYER_FEATURE
100
AcDbLine
 62
7
  6
CONTINUOUS
 10
14.5215178408
 20
11.6309003377
 11
14.5218019592
 21
11.6329211168
  0
LINE
  5
28F
100
AcDbEntity
  8
0
100
AcDbLine
 62
7
  6
CONTINUOUS
 10
12.8995829265
 20
11.6249124385
 11
13.1280176913
 21
11.6249124385
  0
LINE
  5
290
100
AcDbEntity
  8
LAYER_FEATURE
100
AcDbLine
 62
7
  6
CONTINUOUS
 10
13.3601134235
 20
11.6249124385
 11
13.5885481883
 21
11.6249124385
  0
LINE
  5
291
100
AcDbEntity
  8
LAYER_FEATURE
100
AcDbLine
 62
7
  6
CONTINUOUS
 10
13.8206439205
 20
11.6249124385
 11
14.0490786853
 21
11.6249124385
  0
LINE
  5
292
100
AcDbEntity
  8
LAYER_FEATURE
100
AcDbLine
 62
7
  6
CONTINUOUS
 10
14.2811744175
 20
11.6249124385
 11
14.5096091823
 21
11.6249124385
  0
LINE
  5
293
100
AcDbEntity
  8
LAYER_FEATURE
100
AcDbLine
 62
7
  6
CONTINUOUS
 10
14.7417049145
 20
11.6249124385
 11
14.9701396793
 21
11.6249124385
  0
LINE
  5
294
100
AcDbEntity
  8
LAYER_FEATURE
100
AcDbLine
 62
7
  6
CONTINUOUS
 10
15.2022354115
 20
11.6249124385
 11
15.4306701763
 21
11.6249124385
  0
LINE
  5
295
100
AcDbEntity
  8
LAYER_FEATURE
100
AcDbLine
 62
7
  6
CONTINUOUS
 10
15.6627659085
 20
11.6249124385
 11
15.8912006733
 21
11.6249124385
  0
LINE
  5
296
100
AcDbEntity
  8
LAYER_FEATURE
100
AcDbLine
 62
7
  6
CONTINUOUS
 10
16.1232964055
 20
11.6249124385
 11
16.3517311703
 21
11.6249124385
  0
LINE
  5
297
100
AcDbEntity
  8
LAYER_FEATURE
100
AcDbLine
 62
7
  6
CONTINUOUS
 10
16.5838269025
 20
11.6249124385
 11
16.8122616673
 21
11.6249124385
  0
LINE
  5
298
100
AcDbEntity
  8
LAYER_FEATURE
100
AcDbLine
 62
7
  6
CONTINUOUS
 10
17.0443573995
 20
11.6249124385
 11
17.2727921643
 21
11.6249124385
  0
LINE
  5
299
100
AcDbEntity
  8
LAYER_FEATURE
100
AcDbLine
 62
7
  6
CONTINUOUS
 10
17.5048878965
 20
11.6249124385
 11
17.7333226613
 21
11.6249124385
  0
LINE
  5
29A
100
AcDbEntity
  8
LAYER_FEATURE
100
AcDbLine
 62
7
  6
CONTINUOUS
 10
15.0329832805
 20
11.7896390801
 11
15.1821824577
 21
11.6329211168
  0
LINE
  5
29B
100
AcDbEntity
  8
LAYER_FEATURE
100
AcDbLine
 62
7
  6
CONTINUOUS
 10
14.9777196209
 20
11.7896390801
 11
14.9678057602
 21
11.8098414041
  0
LINE
  5
29C
100
AcDbEntity
  8
LAYER_FEATURE
100
AcDbLine
 62
7
  6
CONTINUOUS
 10
14.5234321142
 20
11.8098414041
 11
14.5171891239
 21
11.7896390801
  0
LINE
  5
29D
100
AcDbEntity
  8
LAYER_FEATURE
100
AcDbLine
 62
7
  6
CONTINUOUS
 10
14.5215327969
 20
11.6308957528
 11
14.5713086702
 21
11.7919705379
  0
LINE
  5
29E
100
AcDbEntity
  8
LAYER_FEATURE
100
AcDbLine
 62
7
  6
CONTINUOUS
 10
13.1256837722
 20
11.8098414041
 11
13.1809474319
 21
11.8098414041
  0
LINE
  5
29F
100
AcDbEntity
  8
LAYER_FEATURE
100
AcDbLine
 62
7
  6
CONTINUOUS
 10
13.5862142692
 20
11.8098414041
 11
13.6414779289
 21
11.8098414041
  0
LINE
  5
2A0
100
AcDbEntity
  8
LAYER_FEATURE
100
AcDbLine
 62
7
  6
CONTINUOUS
 10
14.0467447662
 20
11.8098414041
 11
14.1020084259
 21
11.8098414041
  0
LINE
  5
2A1
100
AcDbEntity
  8
LAYER_FEATURE
100
AcDbLine
 62
7
  6
CONTINUOUS
 10
14.5072752632
 20
11.8098414041
 11
14.5625389229
 21
11.8098414041
  0
LINE
  5
2A2
100
AcDbEntity
  8
LAYER_FEATURE
100
AcDbLine
 62
7
  6
CONTINUOUS
 10
14.9678057602
 20
11.8098414041
 11
15.0230694199
 21
11.8098414041
  0
LINE
  5
2A3
100
AcDbEntity
  8
LAYER_FEATURE
100
AcDbLine
 62
7
  6
CONTINUOUS
 10
15.4283362572
 20
11.8098414041
 11
15.4835999169
 21
11.8098414041
  0
LINE
  5
2A4
100
AcDbEntity
  8
LAYER_FEATURE
100
AcDbLine
 62
7
  6
CONTINUOUS
 10
15.8888667542
 20
11.8098414041
 11
15.9441304139
 21
11.8098414041
  0
LINE
  5
2A5
100
AcDbEntity
  8
LAYER_FEATURE
100
AcDbLine
 62
7
  6
CONTINUOUS
 10
16.3493972512
 20
11.8098414041
 11
16.4046609109
 21
11.8098414041
  0
LINE
  5
2A6
100
AcDbEntity
  8
LAYER_FEATURE
100
AcDbLine
 62
7
  6
CONTINUOUS
 10
16.8099277482
 20
11.8098414041
 11
16.8651914079
 21
11.8098414041
  0
LINE
  5
2A7
100
AcDbEntity
  8
LAYER_FEATURE
100
AcDbLine
 62
7
  6
CONTINUOUS
 10
17.2704582452
 20
11.8098414041
 11
17.3257219049
 21
11.8098414041
  0
LINE
  5
2A8
100
AcDbEntity
  8
0
100
AcDbLine
 62
7
  6
CONTINUOUS
 10
17.7141669241
 20
11.830043728
 11
12.7174110317
 21
11.830043728
  0
LINE
  5
2A9
100
AcDbEntity
  8
LAYER_FEATURE
100
AcDbLine
 62
7
  6
CONTINUOUS
 10
15.0230694199
 20
11.8098414041
 11
15.0329832805
 21
11.7896390801
  0
LINE
  5
2AA
100
AcDbEntity
  8
LAYER_FEATURE
100
AcDbLine
 62
7
  6
CONTINUOUS
 10
14.9823324562
 20
11.6329211168
 11
14.9777196209
 21
11.7896390801
  0
LINE
  5
2AB
100
AcDbEntity
  8
LAYER_FEATURE
100
AcDbLine
 62
7
  6
CONTINUOUS
 10
14.9820483378
 20
11.6309003377
 11
14.9823324562
 21
11.6329211168
  0
LINE
  5
2AC
100
AcDbEntity
  8
LAYER_FEATURE
100
AcDbLine
 62
7
  6
CONTINUOUS
 10
15.4935137775
 20
11.7896390801
 11
15.6427129547
 21
11.6329211168
  0
LINE
  5
2AD
100
AcDbEntity
  8
LAYER_FEATURE
100
AcDbLine
 62
7
  6
CONTINUOUS
 10
14.9839626112
 20
11.8098414041
 11
14.9777196209
 21
11.7896390801
  0
LINE
  5
2AE
100
AcDbEntity
  8
LAYER_FEATURE
100
AcDbLine
 62
7
  6
CONTINUOUS
 10
14.9820632939
 20
11.6308957528
 11
15.0318391672
 21
11.7919705379
  0
LINE
  5
2AF
100
AcDbEntity
  8
LAYER_FEATURE
100
AcDbLine
 62
7
  6
CONTINUOUS
 10
15.4382501179
 20
11.7896390801
 11
15.4283362572
 21
11.8098414041
  0
LINE
  5
2B0
100
AcDbEntity
  8
LAYER_FEATURE
100
AcDbLine
 62
7
  6
CONTINUOUS
 10
15.4835999169
 20
11.8098414041
 11
15.4935137775
 21
11.7896390801
  0
LINE
  5
2B1
100
AcDbEntity
  8
LAYER_FEATURE
100
AcDbLine
 62
7
  6
CONTINUOUS
 10
15.4428629532
 20
11.6329211168
 11
15.4382501179
 21
11.7896390801
  0
LINE
  5
2B2
100
AcDbEntity
  8
LAYER_FEATURE
100
AcDbLine
 62
7
  6
CONTINUOUS
 10
15.9540442745
 20
11.7896390801
 11
16.1032434517
 21
11.6329211168
  0
LINE
  5
2B3
100
AcDbEntity
  8
LAYER_FEATURE
100
AcDbLine
 62
7
  6
CONTINUOUS
 10
15.4425788348
 20
11.6309003377
 11
15.4428629532
 21
11.6329211168
  0
LINE
  5
2B4
100
AcDbEntity
  8
LAYER_FEATURE
100
AcDbLine
 62
7
  6
CONTINUOUS
 10
15.4444931082
 20
11.8098414041
 11
15.4382501179
 21
11.7896390801
  0
LINE
  5
2B5
100
AcDbEntity
  8
LAYER_FEATURE
100
AcDbLine
 62
7
  6
CONTINUOUS
 10
16.4145747715
 20
11.7896390801
 11
16.5637739487
 21
11.6329211168
  0
LINE
  5
2B6
100
AcDbEntity
  8
LAYER_FEATURE
100
AcDbLine
 62
7
  6
CONTINUOUS
 10
15.8987806149
 20
11.7896390801
 11
15.8888667542
 21
11.8098414041
  0
LINE
  5
2B7
100
AcDbEntity
  8
LAYER_FEATURE
100
AcDbLine
 62
7
  6
CONTINUOUS
 10
15.9441304139
 20
11.8098414041
 11
15.9540442745
 21
11.7896390801
  0
LINE
  5
2B8
100
AcDbEntity
  8
LAYER_FEATURE
100
AcDbLine
 62
7
  6
CONTINUOUS
 10
15.9033934502
 20
11.6329211168
 11
15.8987806149
 21
11.7896390801
  0
LINE
  5
2B9
100
AcDbEntity
  8
LAYER_FEATURE
100
AcDbLine
 62
7
  6
CONTINUOUS
 10
15.4425937909
 20
11.6308957528
 11
15.4923696642
 21
11.7919705379
  0
LINE
  5
2BA
100
AcDbEntity
  8
LAYER_FEATURE
100
AcDbLine
 62
7
  6
CONTINUOUS
 10
15.9031093318
 20
11.6309003377
 11
15.9033934502
 21
11.6329211168
  0
LINE
  5
2BB
100
AcDbEntity
  8
LAYER_FEATURE
100
AcDbLine
 62
7
  6
CONTINUOUS
 10
16.8751052686
 20
11.7896390801
 11
17.0243044457
 21
11.6329211168
  0
LINE
  5
2BC
100
AcDbEntity
  8
LAYER_FEATURE
100
AcDbLine
 62
7
  6
CONTINUOUS
 10
16.3593111119
 20
11.7896390801
 11
16.3493972512
 21
11.8098414041
  0
LINE
  5
2BD
100
AcDbEntity
  8
LAYER_FEATURE
100
AcDbLine
 62
7
  6
CONTINUOUS
 10
16.4046609109
 20
11.8098414041
 11
16.4145747715
 21
11.7896390801
  0
LINE
  5
2BE
100
AcDbEntity
  8
LAYER_FEATURE
100
AcDbLine
 62
7
  6
CONTINUOUS
 10
15.9050236052
 20
11.8098414041
 11
15.8987806149
 21
11.7896390801
  0
LINE
  5
2BF
100
AcDbEntity
  8
LAYER_FEATURE
100
AcDbLine
 62
7
  6
CONTINUOUS
 10
15.9031242879
 20
11.6308957528
 11
15.9529001612
 21
11.7919705379
  0
LINE
  5
2C0
100
AcDbEntity
  8
LAYER_FEATURE
100
AcDbLine
 62
7
  6
CONTINUOUS
 10
16.3639239472
 20
11.6329211168
 11
16.3593111119
 21
11.7896390801
  0
LINE
  5
2C1
100
AcDbEntity
  8
0
100
AcDbLine
 62
7
  6
CONTINUOUS
 10
13.2015436785
 20
13.3966975473
 11
18.1982995709
 21
13.3966975473
  0
LINE
  5
2C2
100
AcDbEntity
  8
LAYER_FEATURE
100
AcDbLine
 62
7
  6
CONTINUOUS
 10
17.3356357656
 20
11.7896390801
 11
17.4848349427
 21
11.6329211168
  0
LINE
  5
2C3
100
AcDbEntity
  8
LAYER_FEATURE
100
AcDbLine
 62
7
  6
CONTINUOUS
 10
16.8198416089
 20
11.7896390801
 11
16.8099277482
 21
11.8098414041
  0
LINE
  5
2C4
100
AcDbEntity
  8
LAYER_FEATURE
100
AcDbLine
 62
7
  6
CONTINUOUS
 10
16.8651914079
 20
11.8098414041
 11
16.8751052686
 21
11.7896390801
  0
LINE
  5
2C5
100
AcDbEntity
  8
LAYER_FEATURE
100
AcDbLine
 62
7
  6
CONTINUOUS
 10
16.3636398288
 20
11.6309003377
 11
16.3639239472
 21
11.6329211168
  0
LINE
  5
2C6
100
AcDbEntity
  8
LAYER_FEATURE
100
AcDbLine
 62
7
  6
CONTINUOUS
 10
16.3655541022
 20
11.8098414041
 11
16.3593111119
 21
11.7896390801
  0
LINE
  5
2C7
100
AcDbEntity
  8
LAYER_FEATURE
100
AcDbLine
 62
7
  6
CONTINUOUS
 10
16.3636547849
 20
11.6308957528
 11
16.4134306582
 21
11.7919705379
  0
LINE
  5
2C8
100
AcDbEntity
  8
LAYER_FEATURE
100
AcDbLine
 62
7
  6
CONTINUOUS
 10
16.8244544442
 20
11.6329211168
 11
16.8198416089
 21
11.7896390801
  0
LINE
  5
2C9
100
AcDbEntity
  8
LAYER_FEATURE
100
AcDbLine
 62
7
  6
CONTINUOUS
 10
17.2803721059
 20
11.7896390801
 11
17.2704582452
 21
11.8098414041
  0
LINE
  5
2CA
100
AcDbEntity
  8
LAYER_FEATURE
100
AcDbLine
 62
7
  6
CONTINUOUS
 10
17.3257219049
 20
11.8098414041
 11
17.3356357656
 21
11.7896390801
  0
LINE
  5
2CB
100
AcDbEntity
  8
LAYER_FEATURE
100
AcDbLine
 62
7
  6
CONTINUOUS
 10
16.8241703258
 20
11.6309003377
 11
16.8244544442
 21
11.6329211168
  0
LINE
  5
2CC
100
AcDbEntity
  8
LAYER_FEATURE
100
AcDbLine
 62
7
  6
CONTINUOUS
 10
16.8260845992
 20
11.8098414041
 11
16.8198416089
 21
11.7896390801
  0
LINE
  5
2CD
100
AcDbEntity
  8
LAYER_FEATURE
100
AcDbLine
 62
7
  6
CONTINUOUS
 10
16.8241852819
 20
11.6308957528
 11
16.8739611552
 21
11.7919705379
  0
LINE
  5
2CE
100
AcDbEntity
  8
0
100
AcDbLine
 62
7
  6
CONTINUOUS
 10
17.7409026029
 20
11.7896390801
 11
17.7233626956
 21
11.8253816533
  0
LINE
  5
2CF
100
AcDbEntity
  8
LAYER_FEATURE
100
AcDbLine
 62
7
  6
CONTINUOUS
 10
17.2849849412
 20
11.6329211168
 11
17.2803721059
 21
11.7896390801
  0
LINE
  5
2D0
100
AcDbEntity
  8
LAYER_FEATURE
100
AcDbLine
 62
7
  6
CONTINUOUS
 10
17.2847008228
 20
11.6309003377
 11
17.2849849412
 21
11.6329211168
  0
LINE
  5
2D1
100
AcDbEntity
  8
LAYER_FEATURE
100
AcDbLine
 62
7
  6
CONTINUOUS
 10
17.2866150962
 20
11.8098414041
 11
17.2803721059
 21
11.7896390801
  0
LINE
  5
2D2
100
AcDbEntity
  8
LAYER_FEATURE
100
AcDbLine
 62
7
  6
CONTINUOUS
 10
17.2847157789
 20
11.6308957528
 11
17.3344916522
 21
11.7919705379
  0
LINE
  5
2D3
100
AcDbEntity
  8
LAYER_FEATURE
100
AcDbLine
 62
7
  6
CONTINUOUS
 10
17.7455154382
 20
11.6329211168
 11
17.7409026029
 21
11.7896390801
  0
LINE
  5
2D4
100
AcDbEntity
  8
LAYER_FEATURE
100
AcDbLine
 62
7
  6
CONTINUOUS
 10
17.7452313198
 20
11.6309003377
 11
17.7455154382
 21
11.6329211168
  0
LINE
  5
2D5
100
AcDbEntity
  8
LAYER_FEATURE
100
AcDbLine
 62
7
  6
CONTINUOUS
 10
18.2250352497
 20
13.3562928994
 11
17.7409026029
 21
11.7896390801
  0
LINE
  5
2D6
100
AcDbEntity
  8
LAYER_FEATURE
100
AcDbLine
 62
7
  6
CONTINUOUS
 10
17.7452462759
 20
11.6308957528
 11
18.2293789227
 21
13.197549572
  0
LINE
  5
2D7
100
AcDbEntity
  8
LAYER_FEATURE
100
AcDbLine
 62
7
  6
CONTINUOUS
 10
18.229648085
 20
13.199574936
 11
18.2250352497
 21
13.3562928994
  0
LINE
  5
2D8
100
AcDbEntity
  8
LAYER_FEATURE
100
AcDbLine
 62
7
  6
CONTINUOUS
 10
18.229648085
 20
13.199574936
 11
18.2293639666
 21
13.197554157
  0
LINE
  5
2D9
100
AcDbEntity
  8
0
100
AcDbLine
 62
7
  6
CONTINUOUS
 10
18.2074953424
 20
13.3920354725
 11
18.2250352497
 21
13.3562928994
  0
ARC
  5
2DA
100
AcDbEntity
  8
0
100
AcDbCircle
 62
7
  6
CONTINUOUS
 10
3.5063609583
 20
5.3734532301
 40
0.0183333333
100
AcDbArc
 50
197.2924493999
 51
270.0
  0
ARC
  5
2DB
100
AcDbEntity
  8
0
100
AcDbCircle
 62
7
  6
CONTINUOUS
 10
3.7543735941
 20
5.3734532301
 40
0.0183333333
100
AcDbArc
 50
270.0
 51
342.7075506001
  0
ARC
  5
2DC
100
AcDbEntity
  8
LAYER_FEATURE
100
AcDbCircle
 62
7
  6
CONTINUOUS
 10
4.0063609583
 20
5.3734532301
 40
0.0183333333
100
AcDbArc
 50
197.2924493999
 51
270.0
  0
ARC
  5
2DD
100
AcDbEntity
  8
LAYER_FEATURE
100
AcDbCircle
 62
7
  6
CONTINUOUS
 10
4.2543735941
 20
5.3734532301
 40
0.0183333333
100
AcDbArc
 50
270.0
 51
342.7075506001
  0
ARC
  5
2DE
100
AcDbEntity
  8
LAYER_FEATURE
100
AcDbCircle
 62
7
  6
CONTINUOUS
 10
4.5063609583
 20
5.3734532301
 40
0.0183333333
100
AcDbArc
 50
197.2924493999
 51
270.0
  0
ARC
  5
2DF
100
AcDbEntity
  8
LAYER_FEATURE
100
AcDbCircle
 62
7
  6
CONTINUOUS
 10
4.7543735941
 20
5.3734532301
 40
0.0183333333
100
AcDbArc
 50
270.0
 51
342.7075506001
  0
ARC
  5
2E0
100
AcDbEntity
  8
LAYER_FEATURE
100
AcDbCircle
 62
7
  6
CONTINUOUS
 10
5.0063609583
 20
5.3734532301
 40
0.0183333333
100
AcDbArc
 50
197.2924493999
 51
270.0
  0
ARC
  5
2E1
100
AcDbEntity
  8
LAYER_FEATURE
100
AcDbCircle
 62
7
  6
CONTINUOUS
 10
5.2543735941
 20
5.3734532301
 40
0.0183333333
100
AcDbArc
 50
270.0
 51
342.7075506001
  0
ARC
  5
2E2
100
AcDbEntity
  8
LAYER_FEATURE
100
AcDbCircle
 62
7
  6
CONTINUOUS
 10
5.5063609583
 20
5.3734532301
 40
0.0183333333
100
AcDbArc
 50
197.2924493999
 51
270.0
  0
ARC
  5
2E3
100
AcDbEntity
  8
LAYER_FEATURE
100
AcDbCircle
 62
7
  6
CONTINUOUS
 10
5.7543735941
 20
5.3734532301
 40
0.0183333333
100
AcDbArc
 50
270.0
 51
342.7075506001
  0
ARC
  5
2E4
100
AcDbEntity
  8
LAYER_FEATURE
100
AcDbCircle
 62
7
  6
CONTINUOUS
 10
6.0063609583
 20
5.3734532301
 40
0.0183333333
100
AcDbArc
 50
197.2924493999
 51
270.0
  0
ARC
  5
2E5
100
AcDbEntity
  8
LAYER_FEATURE
100
AcDbCircle
 62
7
  6
CONTINUOUS
 10
6.2543735941
 20
5.3734532301
 40
0.0183333333
100
AcDbArc
 50
270.0
 51
342.7075506001
  0
ARC
  5
2E6
100
AcDbEntity
  8
LAYER_FEATURE
100
AcDbCircle
 62
7
  6
CONTINUOUS
 10
6.5063609583
 20
5.3734532301
 40
0.0183333333
100
AcDbArc
 50
197.2924493999
 51
270.0
  0
ARC
  5
2E7
100
AcDbEntity
  8
LAYER_FEATURE
100
AcDbCircle
 62
7
  6
CONTINUOUS
 10
6.7543735941
 20
5.3734532301
 40
0.0183333333
100
AcDbArc
 50
270.0
 51
342.7075506001
  0
ARC
  5
2E8
100
AcDbEntity
  8
LAYER_FEATURE
100
AcDbCircle
 62
7
  6
CONTINUOUS
 10
7.0063609583
 20
5.3734532301
 40
0.0183333333
100
AcDbArc
 50
197.2924493999
 51
270.0
  0
ARC
  5
2E9
100
AcDbEntity
  8
LAYER_FEATURE
100
AcDbCircle
 62
7
  6
CONTINUOUS
 10
7.2543735941
 20
5.3734532301
 40
0.0183333333
100
AcDbArc
 50
270.0
 51
342.7075506001
  0
ARC
  5
2EA
100
AcDbEntity
  8
LAYER_FEATURE
100
AcDbCircle
 62
7
  6
CONTINUOUS
 10
7.5063609583
 20
5.3734532301
 40
0.0183333333
100
AcDbArc
 50
197.2924493999
 51
270.0
  0
ARC
  5
2EB
100
AcDbEntity
  8
LAYER_FEATURE
100
AcDbCircle
 62
7
  6
CONTINUOUS
 10
7.7543735941
 20
5.3734532301
 40
0.0183333333
100
AcDbArc
 50
270.0
 51
342.7075506001
  0
ARC
  5
2EC
100
AcDbEntity
  8
LAYER_FEATURE
100
AcDbCircle
 62
7
  6
CONTINUOUS
 10
8.7543735941
 20
5.3734532301
 40
0.0183333333
100
AcDbArc
 50
270.0
 51
342.7075506001
  0
ARC
  5
2ED
100
AcDbEntity
  8
LAYER_FEATURE
100
AcDbCircle
 62
7
  6
CONTINUOUS
 10
8.5063609583
 20
5.3734532301
 40
0.0183333333
100
AcDbArc
 50
197.2924493999
 51
270.0
  0
ARC
  5
2EE
100
AcDbEntity
  8
LAYER_FEATURE
100
AcDbCircle
 62
7
  6
CONTINUOUS
 10
8.2543735941
 20
5.3734532301
 40
0.0183333333
100
AcDbArc
 50
270.0
 51
342.7075506001
  0
ARC
  5
2EF
100
AcDbEntity
  8
LAYER_FEATURE
100
AcDbCircle
 62
7
  6
CONTINUOUS
 10
8.0063609583
 20
5.3734532301
 40
0.0183333333
100
AcDbArc
 50
197.2924493999
 51
270.0
  0
ARC
  5
2F0
100
AcDbEntity
  8
0
100
AcDbCircle
 62
7
  6
CONTINUOUS
 10
3.4178672762
 20
5.6776198968
 40
0.0075
100
AcDbArc
 50
90.0
 51
180.0
  0
ARC
  5
2F1
100
AcDbEntity
  8
0
100
AcDbCircle
 62
7
  6
CONTINUOUS
 10
8.8428672762
 20
5.6776198968
 40
0.0075
100
AcDbArc
 50
0.0
 51
90.0
  0
SPLINE
  5
2F2
100
AcDbEntity
  8
0
100
AcDbSpline
 62
7
  6
CONTINUOUS
 70
0
 71
3
 72
11
 73
7
 74
0
 42
0.0000001
 43
0.0000001
 44
0.0000000001
 40
0.0
 40
0.0
 40
0.0
 40
0.0
 40
0.2644444522
 40
0.5366447956
 40
0.7886683147
 40
1.0
 40
1.0
 40
1.0
 40
1.0
 10
18.1982995709
 20
13.3966975473
 30
0.0
 10
18.1992452297
 20
13.3966975473
 30
0.0
 10
18.2011673689
 20
13.3964351653
 30
0.0
 10
18.2038383205
 20
13.3954620058
 30
0.0
 10
18.2060575816
 20
13.3940109928
 30
0.0
 10
18.2071624126
 20
13.3927139121
 30
0.0
 10
18.2074953424
 20
13.3920354725
 30
0.0
  0
SPLINE
  5
2F3
100
AcDbEntity
  8
0
100
AcDbSpline
 62
7
  6
CONTINUOUS
 70
0
 71
3
 72
11
 73
7
 74
0
 42
0.0000001
 43
0.0000001
 44
0.0000000001
 40
0.0
 40
0.0
 40
0.0
 40
0.0
 40
0.2022595964
 40
0.4301234434
 40
0.6973865799
 40
1.0
 40
1.0
 40
1.0
 40
1.0
 10
13.1966664016
 20
13.394249655
 30
0.0
 10
13.1967800098
 20
13.3946236538
 30
0.0
 10
13.1972316764
 20
13.395362545
 30
0.0
 10
13.1983664593
 20
13.3961393712
 30
0.0
 10
13.1998540279
 20
13.3966001604
 30
0.0
 10
13.2009588682
 20
13.3966975473
 30
0.0
 10
13.2015436785
 20
13.3966975473
 30
0.0
  0
SPLINE
  5
2F4
100
AcDbEntity
  8
LAYER_FEATURE
100
AcDbSpline
 62
7
  6
CONTINUOUS
 70
0
 71
3
 72
13
 73
9
 74
0
 42
0.0000001
 43
0.0000001
 44
0.0000000001
 40
0.0
 40
0.0
 40
0.0
 40
0.0
 40
0.3025529023
 40
0.568559337
 40
0.6868891656
 40
0.7966740645
 40
0.9000753475
 40
1.0
 40
1.0
 40
1.0
 40
1.0
 10
17.7333226613
 20
11.6249124385
 30
0.0
 10
17.7347550217
 20
11.6249124385
 30
0.0
 10
17.737453783
 20
11.6251441439
 30
0.0
 10
17.7405982606
 20
11.6261238691
 30
0.0
 10
17.7426162931
 20
11.6273271876
 30
0.0
 10
17.7438084399
 20
11.628363276
 30
0.0
 10
17.7447080221
 20
11.6295558391
 30
0.0
 10
17.7451025727
 20
11.6304449787
 30
0.0
 10
17.7452426977
 20
11.6308968176
 30
0.0
  0
SPLINE
  5
2F5
100
AcDbEntity
  8
LAYER_FEATURE
100
AcDbSpline
 62
7
  6
CONTINUOUS
 70
0
 71
3
 72
11
 73
7
 74
0
 42
0.0000001
 43
0.0000001
 44
0.0000000001
 40
0.0
 40
0.0
 40
0.0
 40
0.0
 40
0.230837875
 40
0.4854397149
 40
0.7477561846
 40
1.0
 40
1.0
 40
1.0
 40
1.0
 10
17.4848349427
 20
11.6329211168
 30
0.0
 10
17.4860069249
 20
11.6316900733
 30
0.0
 10
17.4888418913
 20
11.629449675
 30
0.0
 10
17.4937789737
 20
11.6269480559
 30
0.0
 10
17.4992364308
 20
11.6253306741
 30
0.0
 10
17.503030571
 20
11.6249124385
 30
0.0
 10
17.5048878965
 20
11.6249124385
 30
0.0
  0
SPLINE
  5
2F6
100
AcDbEntity
  8
LAYER_FEATURE
100
AcDbSpline
 62
7
  6
CONTINUOUS
 70
0
 71
3
 72
13
 73
9
 74
0
 42
0.0000001
 43
0.0000001
 44
0.0000000001
 40
0.0
 40
0.0
 40
0.0
 40
0.0
 40
0.3025529023
 40
0.568559337
 40
0.6868891656
 40
0.7966740645
 40
0.9000753475
 40
1.0
 40
1.0
 40
1.0
 40
1.0
 10
17.2727921643
 20
11.6249124385
 30
0.0
 10
17.2742245247
 20
11.6249124385
 30
0.0
 10
17.276923286
 20
11.6251441439
 30
0.0
 10
17.2800677636
 20
11.6261238691
 30
0.0
 10
17.2820857961
 20
11.6273271876
 30
0.0
 10
17.2832779429
 20
11.628363276
 30
0.0
 10
17.2841775251
 20
11.6295558391
 30
0.0
 10
17.2845720757
 20
11.6304449787
 30
0.0
 10
17.2847122007
 20
11.6308968176
 30
0.0
  0
SPLINE
  5
2F7
100
AcDbEntity
  8
LAYER_FEATURE
100
AcDbSpline
 62
7
  6
CONTINUOUS
 70
0
 71
3
 72
11
 73
7
 74
0
 42
0.0000001
 43
0.0000001
 44
0.0000000001
 40
0.0
 40
0.0
 40
0.0
 40
0.0
 40
0.230837875
 40
0.4854397149
 40
0.7477561846
 40
1.0
 40
1.0
 40
1.0
 40
1.0
 10
17.0243044457
 20
11.6329211168
 30
0.0
 10
17.0254764279
 20
11.6316900733
 30
0.0
 10
17.0283113943
 20
11.629449675
 30
0.0
 10
17.0332484767
 20
11.6269480559
 30
0.0
 10
17.0387059338
 20
11.6253306741
 30
0.0
 10
17.042500074
 20
11.6249124385
 30
0.0
 10
17.0443573995
 20
11.6249124385
 30
0.0
  0
SPLINE
  5
2F8
100
AcDbEntity
  8
LAYER_FEATURE
100
AcDbSpline
 62
7
  6
CONTINUOUS
 70
0
 71
3
 72
13
 73
9
 74
0
 42
0.0000001
 43
0.0000001
 44
0.0000000001
 40
0.0
 40
0.0
 40
0.0
 40
0.0
 40
0.3025529023
 40
0.568559337
 40
0.6868891656
 40
0.7966740645
 40
0.9000753475
 40
1.0
 40
1.0
 40
1.0
 40
1.0
 10
16.8122616673
 20
11.6249124385
 30
0.0
 10
16.8136940277
 20
11.6249124385
 30
0.0
 10
16.816392789
 20
11.6251441439
 30
0.0
 10
16.8195372666
 20
11.6261238691
 30
0.0
 10
16.8215552991
 20
11.6273271876
 30
0.0
 10
16.8227474459
 20
11.628363276
 30
0.0
 10
16.8236470281
 20
11.6295558391
 30
0.0
 10
16.8240415787
 20
11.6304449787
 30
0.0
 10
16.8241817037
 20
11.6308968176
 30
0.0
  0
SPLINE
  5
2F9
100
AcDbEntity
  8
LAYER_FEATURE
100
AcDbSpline
 62
7
  6
CONTINUOUS
 70
0
 71
3
 72
11
 73
7
 74
0
 42
0.0000001
 43
0.0000001
 44
0.0000000001
 40
0.0
 40
0.0
 40
0.0
 40
0.0
 40
0.230837875
 40
0.4854397149
 40
0.7477561846
 40
1.0
 40
1.0
 40
1.0
 40
1.0
 10
16.5637739487
 20
11.6329211168
 30
0.0
 10
16.5649459309
 20
11.6316900733
 30
0.0
 10
16.5677808973
 20
11.629449675
 30
0.0
 10
16.5727179797
 20
11.6269480559
 30
0.0
 10
16.5781754368
 20
11.6253306741
 30
0.0
 10
16.581969577
 20
11.6249124385
 30
0.0
 10
16.5838269025
 20
11.6249124385
 30
0.0
  0
SPLINE
  5
2FA
100
AcDbEntity
  8
LAYER_FEATURE
100
AcDbSpline
 62
7
  6
CONTINUOUS
 70
0
 71
3
 72
13
 73
9
 74
0
 42
0.0000001
 43
0.0000001
 44
0.0000000001
 40
0.0
 40
0.0
 40
0.0
 40
0.0
 40
0.3025529023
 40
0.568559337
 40
0.6868891656
 40
0.7966740645
 40
0.9000753475
 40
1.0
 40
1.0
 40
1.0
 40
1.0
 10
16.3517311703
 20
11.6249124385
 30
0.0
 10
16.3531635307
 20
11.6249124385
 30
0.0
 10
16.355862292
 20
11.6251441439
 30
0.0
 10
16.3590067696
 20
11.6261238691
 30
0.0
 10
16.3610248021
 20
11.6273271876
 30
0.0
 10
16.3622169489
 20
11.628363276
 30
0.0
 10
16.3631165311
 20
11.6295558391
 30
0.0
 10
16.3635110817
 20
11.6304449787
 30
0.0
 10
16.3636512067
 20
11.6308968176
 30
0.0
  0
SPLINE
  5
2FB
100
AcDbEntity
  8
LAYER_FEATURE
100
AcDbSpline
 62
7
  6
CONTINUOUS
 70
0
 71
3
 72
11
 73
7
 74
0
 42
0.0000001
 43
0.0000001
 44
0.0000000001
 40
0.0
 40
0.0
 40
0.0
 40
0.0
 40
0.230837875
 40
0.4854397149
 40
0.7477561846
 40
1.0
 40
1.0
 40
1.0
 40
1.0
 10
16.1032434517
 20
11.6329211168
 30
0.0
 10
16.1044154339
 20
11.6316900733
 30
0.0
 10
16.1072504003
 20
11.629449675
 30
0.0
 10
16.1121874827
 20
11.6269480559
 30
0.0
 10
16.1176449398
 20
11.6253306741
 30
0.0
 10
16.12143908
 20
11.6249124385
 30
0.0
 10
16.1232964055
 20
11.6249124385
 30
0.0
  0
SPLINE
  5
2FC
100
AcDbEntity
  8
LAYER_FEATURE
100
AcDbSpline
 62
7
  6
CONTINUOUS
 70
0
 71
3
 72
13
 73
9
 74
0
 42
0.0000001
 43
0.0000001
 44
0.0000000001
 40
0.0
 40
0.0
 40
0.0
 40
0.0
 40
0.3025529023
 40
0.568559337
 40
0.6868891656
 40
0.7966740645
 40
0.9000753475
 40
1.0
 40
1.0
 40
1.0
 40
1.0
 10
15.8912006733
 20
11.6249124385
 30
0.0
 10
15.8926330337
 20
11.6249124385
 30
0.0
 10
15.895331795
 20
11.6251441439
 30
0.0
 10
15.8984762726
 20
11.6261238691
 30
0.0
 10
15.9004943051
 20
11.6273271876
 30
0.0
 10
15.9016864519
 20
11.628363276
 30
0.0
 10
15.9025860341
 20
11.6295558391
 30
0.0
 10
15.9029805847
 20
11.6304449787
 30
0.0
 10
15.9031207097
 20
11.6308968176
 30
0.0
  0
SPLINE
  5
2FD
100
AcDbEntity
  8
LAYER_FEATURE
100
AcDbSpline
 62
7
  6
CONTINUOUS
 70
0
 71
3
 72
11
 73
7
 74
0
 42
0.0000001
 43
0.0000001
 44
0.0000000001
 40
0.0
 40
0.0
 40
0.0
 40
0.0
 40
0.230837875
 40
0.4854397149
 40
0.7477561846
 40
1.0
 40
1.0
 40
1.0
 40
1.0
 10
15.6427129547
 20
11.6329211168
 30
0.0
 10
15.6438849369
 20
11.6316900733
 30
0.0
 10
15.6467199033
 20
11.629449675
 30
0.0
 10
15.6516569857
 20
11.6269480559
 30
0.0
 10
15.6571144428
 20
11.6253306741
 30
0.0
 10
15.660908583
 20
11.6249124385
 30
0.0
 10
15.6627659085
 20
11.6249124385
 30
0.0
  0
SPLINE
  5
2FE
100
AcDbEntity
  8
LAYER_FEATURE
100
AcDbSpline
 62
7
  6
CONTINUOUS
 70
0
 71
3
 72
13
 73
9
 74
0
 42
0.0000001
 43
0.0000001
 44
0.0000000001
 40
0.0
 40
0.0
 40
0.0
 40
0.0
 40
0.3025529023
 40
0.568559337
 40
0.6868891656
 40
0.7966740645
 40
0.9000753475
 40
1.0
 40
1.0
 40
1.0
 40
1.0
 10
15.4306701763
 20
11.6249124385
 30
0.0
 10
15.4321025367
 20
11.6249124385
 30
0.0
 10
15.434801298
 20
11.6251441439
 30
0.0
 10
15.4379457756
 20
11.6261238691
 30
0.0
 10
15.4399638081
 20
11.6273271876
 30
0.0
 10
15.4411559549
 20
11.628363276
 30
0.0
 10
15.4420555371
 20
11.6295558391
 30
0.0
 10
15.4424500877
 20
11.6304449787
 30
0.0
 10
15.4425902127
 20
11.6308968176
 30
0.0
  0
SPLINE
  5
2FF
100
AcDbEntity
  8
LAYER_FEATURE
100
AcDbSpline
 62
7
  6
CONTINUOUS
 70
0
 71
3
 72
11
 73
7
 74
0
 42
0.0000001
 43
0.0000001
 44
0.0000000001
 40
0.0
 40
0.0
 40
0.0
 40
0.0
 40
0.230837875
 40
0.4854397149
 40
0.7477561846
 40
1.0
 40
1.0
 40
1.0
 40
1.0
 10
15.1821824577
 20
11.6329211168
 30
0.0
 10
15.1833544399
 20
11.6316900733
 30
0.0
 10
15.1861894063
 20
11.629449675
 30
0.0
 10
15.1911264887
 20
11.6269480559
 30
0.0
 10
15.1965839458
 20
11.6253306741
 30
0.0
 10
15.200378086
 20
11.6249124385
 30
0.0
 10
15.2022354115
 20
11.6249124385
 30
0.0
  0
SPLINE
  5
300
100
AcDbEntity
  8
LAYER_FEATURE
100
AcDbSpline
 62
7
  6
CONTINUOUS
 70
0
 71
3
 72
13
 73
9
 74
0
 42
0.0000001
 43
0.0000001
 44
0.0000000001
 40
0.0
 40
0.0
 40
0.0
 40
0.0
 40
0.3025529023
 40
0.568559337
 40
0.6868891656
 40
0.7966740645
 40
0.9000753475
 40
1.0
 40
1.0
 40
1.0
 40
1.0
 10
14.9701396793
 20
11.6249124385
 30
0.0
 10
14.9715720397
 20
11.6249124385
 30
0.0
 10
14.974270801
 20
11.6251441439
 30
0.0
 10
14.9774152786
 20
11.6261238691
 30
0.0
 10
14.9794333111
 20
11.6273271876
 30
0.0
 10
14.9806254579
 20
11.628363276
 30
0.0
 10
14.9815250401
 20
11.6295558391
 30
0.0
 10
14.9819195907
 20
11.6304449787
 30
0.0
 10
14.9820597157
 20
11.6308968176
 30
0.0
  0
SPLINE
  5
301
100
AcDbEntity
  8
LAYER_FEATURE
100
AcDbSpline
 62
7
  6
CONTINUOUS
 70
0
 71
3
 72
11
 73
7
 74
0
 42
0.0000001
 43
0.0000001
 44
0.0000000001
 40
0.0
 40
0.0
 40
0.0
 40
0.0
 40
0.230837875
 40
0.4854397149
 40
0.7477561846
 40
1.0
 40
1.0
 40
1.0
 40
1.0
 10
14.7216519607
 20
11.6329211168
 30
0.0
 10
14.7228239429
 20
11.6316900733
 30
0.0
 10
14.7256589093
 20
11.629449675
 30
0.0
 10
14.7305959917
 20
11.6269480559
 30
0.0
 10
14.7360534488
 20
11.6253306741
 30
0.0
 10
14.739847589
 20
11.6249124385
 30
0.0
 10
14.7417049145
 20
11.6249124385
 30
0.0
  0
SPLINE
  5
302
100
AcDbEntity
  8
LAYER_FEATURE
100
AcDbSpline
 62
7
  6
CONTINUOUS
 70
0
 71
3
 72
13
 73
9
 74
0
 42
0.0000001
 43
0.0000001
 44
0.0000000001
 40
0.0
 40
0.0
 40
0.0
 40
0.0
 40
0.3025529023
 40
0.568559337
 40
0.6868891656
 40
0.7966740645
 40
0.9000753475
 40
1.0
 40
1.0
 40
1.0
 40
1.0
 10
14.5096091823
 20
11.6249124385
 30
0.0
 10
14.5110415427
 20
11.6249124385
 30
0.0
 10
14.513740304
 20
11.6251441439
 30
0.0
 10
14.5168847816
 20
11.6261238691
 30
0.0
 10
14.5189028141
 20
11.6273271876
 30
0.0
 10
14.5200949609
 20
11.628363276
 30
0.0
 10
14.5209945431
 20
11.6295558391
 30
0.0
 10
14.5213890936
 20
11.6304449787
 30
0.0
 10
14.5215292187
 20
11.6308968176
 30
0.0
  0
SPLINE
  5
303
100
AcDbEntity
  8
LAYER_FEATURE
100
AcDbSpline
 62
7
  6
CONTINUOUS
 70
0
 71
3
 72
11
 73
7
 74
0
 42
0.0000001
 43
0.0000001
 44
0.0000000001
 40
0.0
 40
0.0
 40
0.0
 40
0.0
 40
0.230837875
 40
0.4854397149
 40
0.7477561846
 40
1.0
 40
1.0
 40
1.0
 40
1.0
 10
14.2611214637
 20
11.6329211168
 30
0.0
 10
14.2622934459
 20
11.6316900733
 30
0.0
 10
14.2651284123
 20
11.629449675
 30
0.0
 10
14.2700654947
 20
11.6269480559
 30
0.0
 10
14.2755229518
 20
11.6253306741
 30
0.0
 10
14.279317092
 20
11.6249124385
 30
0.0
 10
14.2811744175
 20
11.6249124385
 30
0.0
  0
SPLINE
  5
304
100
AcDbEntity
  8
LAYER_FEATURE
100
AcDbSpline
 62
7
  6
CONTINUOUS
 70
0
 71
3
 72
13
 73
9
 74
0
 42
0.0000001
 43
0.0000001
 44
0.0000000001
 40
0.0
 40
0.0
 40
0.0
 40
0.0
 40
0.3025529023
 40
0.568559337
 40
0.6868891656
 40
0.7966740645
 40
0.9000753475
 40
1.0
 40
1.0
 40
1.0
 40
1.0
 10
14.0490786853
 20
11.6249124385
 30
0.0
 10
14.0505110457
 20
11.6249124385
 30
0.0
 10
14.053209807
 20
11.6251441439
 30
0.0
 10
14.0563542846
 20
11.6261238691
 30
0.0
 10
14.0583723171
 20
11.6273271876
 30
0.0
 10
14.0595644639
 20
11.628363276
 30
0.0
 10
14.0604640461
 20
11.6295558391
 30
0.0
 10
14.0608585966
 20
11.6304449787
 30
0.0
 10
14.0609987217
 20
11.6308968176
 30
0.0
  0
SPLINE
  5
305
100
AcDbEntity
  8
LAYER_FEATURE
100
AcDbSpline
 62
7
  6
CONTINUOUS
 70
0
 71
3
 72
11
 73
7
 74
0
 42
0.0000001
 43
0.0000001
 44
0.0000000001
 40
0.0
 40
0.0
 40
0.0
 40
0.0
 40
0.230837875
 40
0.4854397149
 40
0.7477561846
 40
1.0
 40
1.0
 40
1.0
 40
1.0
 10
13.8005909667
 20
11.6329211168
 30
0.0
 10
13.8017629489
 20
11.6316900733
 30
0.0
 10
13.8045979153
 20
11.629449675
 30
0.0
 10
13.8095349977
 20
11.6269480559
 30
0.0
 10
13.8149924548
 20
11.6253306741
 30
0.0
 10
13.818786595
 20
11.6249124385
 30
0.0
 10
13.8206439205
 20
11.6249124385
 30
0.0
  0
SPLINE
  5
306
100
AcDbEntity
  8
LAYER_FEATURE
100
AcDbSpline
 62
7
  6
CONTINUOUS
 70
0
 71
3
 72
13
 73
9
 74
0
 42
0.0000001
 43
0.0000001
 44
0.0000000001
 40
0.0
 40
0.0
 40
0.0
 40
0.0
 40
0.3025529023
 40
0.568559337
 40
0.6868891656
 40
0.7966740645
 40
0.9000753475
 40
1.0
 40
1.0
 40
1.0
 40
1.0
 10
13.5885481883
 20
11.6249124385
 30
0.0
 10
13.5899805487
 20
11.6249124385
 30
0.0
 10
13.59267931
 20
11.6251441439
 30
0.0
 10
13.5958237876
 20
11.6261238691
 30
0.0
 10
13.5978418201
 20
11.6273271876
 30
0.0
 10
13.5990339669
 20
11.628363276
 30
0.0
 10
13.5999335491
 20
11.6295558391
 30
0.0
 10
13.6003280996
 20
11.6304449787
 30
0.0
 10
13.6004682247
 20
11.6308968176
 30
0.0
  0
SPLINE
  5
307
100
AcDbEntity
  8
LAYER_FEATURE
100
AcDbSpline
 62
7
  6
CONTINUOUS
 70
0
 71
3
 72
11
 73
7
 74
0
 42
0.0000001
 43
0.0000001
 44
0.0000000001
 40
0.0
 40
0.0
 40
0.0
 40
0.0
 40
0.230837875
 40
0.4854397149
 40
0.7477561846
 40
1.0
 40
1.0
 40
1.0
 40
1.0
 10
13.3400604697
 20
11.6329211168
 30
0.0
 10
13.3412324519
 20
11.6316900733
 30
0.0
 10
13.3440674183
 20
11.629449675
 30
0.0
 10
13.3490045007
 20
11.6269480559
 30
0.0
 10
13.3544619578
 20
11.6253306741
 30
0.0
 10
13.358256098
 20
11.6249124385
 30
0.0
 10
13.3601134235
 20
11.6249124385
 30
0.0
  0
SPLINE
  5
308
100
AcDbEntity
  8
0
100
AcDbSpline
 62
7
  6
CONTINUOUS
 70
0
 71
3
 72
13
 73
9
 74
0
 42
0.0000001
 43
0.0000001
 44
0.0000000001
 40
0.0
 40
0.0
 40
0.0
 40
0.0
 40
0.3025529023
 40
0.568559337
 40
0.6868891656
 40
0.7966740645
 40
0.9000753475
 40
1.0
 40
1.0
 40
1.0
 40
1.0
 10
13.1280176913
 20
11.6249124385
 30
0.0
 10
13.1294500517
 20
11.6249124385
 30
0.0
 10
13.132148813
 20
11.6251441439
 30
0.0
 10
13.1352932906
 20
11.6261238691
 30
0.0
 10
13.1373113231
 20
11.6273271876
 30
0.0
 10
13.1385034699
 20
11.628363276
 30
0.0
 10
13.1394030521
 20
11.6295558391
 30
0.0
 10
13.1397976026
 20
11.6304449787
 30
0.0
 10
13.1399377277
 20
11.6308968176
 30
0.0
  0
SPLINE
  5
309
100
AcDbEntity
  8
0
100
AcDbSpline
 62
7
  6
CONTINUOUS
 70
0
 71
3
 72
11
 73
7
 74
0
 42
0.0000001
 43
0.0000001
 44
0.0000000001
 40
0.0
 40
0.0
 40
0.0
 40
0.0
 40
0.230837875
 40
0.4854397149
 40
0.7477561846
 40
1.0
 40
1.0
 40
1.0
 40
1.0
 10
12.8795299727
 20
11.6329211168
 30
0.0
 10
12.8807019549
 20
11.6316900733
 30
0.0
 10
12.8835369212
 20
11.629449675
 30
0.0
 10
12.8884740037
 20
11.6269480559
 30
0.0
 10
12.8939314608
 20
11.6253306741
 30
0.0
 10
12.897725601
 20
11.6249124385
 30
0.0
 10
12.8995829265
 20
11.6249124385
 30
0.0
  0
SPLINE
  5
30A
100
AcDbEntity
  8
0
100
AcDbSpline
 62
7
  6
CONTINUOUS
 70
0
 71
3
 72
11
 73
7
 74
0
 42
0.0000001
 43
0.0000001
 44
0.0000000001
 40
0.0
 40
0.0
 40
0.0
 40
0.0
 40
0.3026134201
 40
0.5698765566
 40
0.7977404036
 40
1.0
 40
1.0
 40
1.0
 40
1.0
 10
12.7174110317
 20
11.830043728
 30
0.0
 10
12.7168262214
 20
11.830043728
 30
0.0
 10
12.7157213811
 20
11.8299463412
 30
0.0
 10
12.7142338124
 20
11.829485552
 30
0.0
 10
12.7130990296
 20
11.8287087257
 30
0.0
 10
12.712647363
 20
11.8279698345
 30
0.0
 10
12.7125337548
 20
11.8275958358
 30
0.0
  0
SPLINE
  5
30B
100
AcDbEntity
  8
0
100
AcDbSpline
 62
7
  6
CONTINUOUS
 70
0
 71
3
 72
11
 73
7
 74
0
 42
0.0000001
 43
0.0000001
 44
0.0000000001
 40
0.0
 40
0.0
 40
0.0
 40
0.0
 40
0.2113316853
 40
0.4633552044
 40
0.7355555478
 40
1.0
 40
1.0
 40
1.0
 40
1.0
 10
17.7233626956
 20
11.8253816533
 30
0.0
 10
17.7230297658
 20
11.8260600928
 30
0.0
 10
17.7219249348
 20
11.8273571736
 30
0.0
 10
17.7197056737
 20
11.8288081865
 30
0.0
 10
17.7170347221
 20
11.829781346
 30
0.0
 10
17.7151125829
 20
11.830043728
 30
0.0
 10
17.7141669241
 20
11.830043728
 30
0.0
  0
ENDSEC
  0
SECTION
  2
OBJECTS
  0
DICTIONARY
  5
C
100
AcDbDictionary
280
0
281
1
  3
ACAD_GROUP
350
D
  3
ACAD_MLINESTYLE
350
17
  3
ACAD_LAYOUT
350
1A
  3
ACAD_PLOTSETTINGS
350
19
  3
ACAD_PLOTSTYLENAME
350
E
  0
DICTIONARY
  5
D
102
{ACAD_REACTORS
330
C
102
}
100
AcDbDictionary
280
0
281
1
  0
ACDBDICTIONARYWDFLT
  5
E
102
{ACAD_REACTORS
330
C
102
}
100
AcDbDictionary
281
1
  3
Normal
350
F
100
AcDbDictionaryWithDefault
340
F
  0
DICTIONARY
  5
17
102
{ACAD_REACTORS
330
C
102
}
100
AcDbDictionary
280
0
281
1
  3
Standard
350
18
  0
DICTIONARY
  5
19
102
{ACAD_REACTORS
330
C
102
}
100
AcDbDictionary
281
1
  0
DICTIONARY
  5
1A
102
{ACAD_REACTORS
330
C
102
}
100
AcDbDictionary
281
1
  3
Model
350
30C
  3
Layout1
350
30D
  0
ACDBPLACEHOLDER
  5
F
102
{ACAD_REACTORS
330
E
102
}
  0
MLINESTYLE
  5
18
102
{ACAD_REACTORS
330
17
102
}
100
AcDbMlineStyle
  2
STANDARD
 70
0
  3

 62
256
 51
90.0
 52
90.0
 71
2
 49
0.5
 62
256
  6
BYLAYER
 49
-0.5
 62
256
  6
BYLAYER
  0
LAYOUT
  5
30C
102
{ACAD_REACTORS
330
1A
102
}
100
AcDbPlotSettings
  1

  2
none_device
  4
ANSI_C_(22.00_x_17.00_Inches)
  6

 40
0.0
 41
0.0
 42
0.0
 43
0.0
 44
558.8
 45
431.8
 46
0.0
 47
0.0
 48
0.0
 49
0.0
140
0.0
141
0.0
142
1.0
143
1.0
 70
1024
 72
0
 73
0
 74
0
  7

 75
0
147
1.0
148
0.0
149
0.0
100
AcDbLayout
  1
Model
 70
0
 71
0
 10
0.0
 20
0.0
 11
22.0
 21
17.0
 12
0.0
 22
0.0
 32
0.0
 14
0.0
 24
0.0
 34
0.0
 15
0.0
 25
0.0
 35
0.0
146
0.0
 13
0.0
 23
0.0
 33
0.0
 16
1.0
 26
0.0
 36
0.0
 17
0.0
 27
1.0
 37
0.0
 76
0
330
21C
345
0
346
0
  0
LAYOUT
  5
30D
102
{ACAD_REACTORS
330
1A
102
}
100
AcDbPlotSettings
  1

  2
none_device
  4
ANSI_C_(22.00_x_17.00_Inches)
  6

 40
0.0
 41
0.0
 42
0.0
 43
0.0
 44
558.8
 45
431.8
 46
0.0
 47
0.0
 48
0.0
 49
0.0
140
0.0
141
0.0
142
1.0
143
1.0
 70
0
 72
0
 73
0
 74
0
  7

 75
0
147
1.0
148
0.0
149
0.0
100
AcDbLayout
  1
Layout1
 70
0
 71
1
 10
0.0
 20
0.0
 11
22.0
 21
17.0
 12
0.0
 22
0.0
 32
0.0
 14
0.0
 24
0.0
 34
0.0
 15
0.0
 25
0.0
 35
0.0
146
0.0
 13
0.0
 23
0.0
 33
0.0
 16
1.0
 26
0.0
 36
0.0
 17
0.0
 27
1.0
 37
0.0
 76
0
330
21D
345
0
346
0
  0
ENDSEC
  0
EOF