999
DXF file: _cgs_temp_output.dxf
999
Pro/ENGINEER 2015110 by Parametric Technology Corporation
  0
SECTION
  2
HEADER
  9
$ACADVER
  1
AC1021
  9
$DWGCODEPAGE
  3
ANSI_1252
  9
$EXTMAX
 10
22.0
 20
17.0
 30
0.0
  9
$EXTMIN
 10
0.0
 20
0.0
 30
0.0
  9
$LIMMIN
 10
0.0
 20
0.0
  9
$LIMMAX
 10
22.0
 20
17.0
  9
$VIEWCTR
 10
11.0
 20
8.5
  9
$VIEWSIZE
 40
17.0
  9
$CLAYER
  8
0
  9
$LTSCALE
 40
1.21
  9
$CELTYPE
  6
BYLAYER
  9
$DIMSCALE
 40
1.0
  9
$DIMASZ
 40
0.1875
  9
$DIMEXO
 40
0.0625
  9
$DIMDLI
 40
0.836
  9
$DIMEXE
 40
0.125
  9
$DIMCEN
 40
0.198
  9
$DIMLFAC
 40
1.0
  9
$DIMBLK
  1
_CLOSED
  9
$DIMALT
 70
0
  9
$DIMALTF
 40
25.4
  9
$DIMTXT
 40
0.15625
  9
$DIMTOL
 70
0
  9
$DIMLIM
 70
0
  9
$DIMTFAC
 40
1.0
  9
$DIMGAP
 40
0.09
  9
$DIMDSEP
 70
46
  9
$AUNITS
 70
0
  9
$PDMODE
 70
3
  9
$PDSIZE
 40
0.3125
  9
$HANDSEED
  5
2A6
  9
$TILEMODE
 70
1
  9
$MEASUREMENT
 70
0
  9
$INSUNITS
 70
1
  0
ENDSEC
  0
SECTION
  2
CLASSES
  0
CLASS
  1
ACDBDICTIONARYWDFLT
  2
AcDbDictionaryWithDefault
  3
AutoCAD 2000
 90
0
 91
1
280
0
281
0
  0
CLASS
  1
ACDBPLACEHOLDER
  2
AcDbPlaceHolder
  3
AutoCAD 2000
 90
0
 91
1
280
0
281
0
  0
CLASS
  1
LAYOUT
  2
AcDbLayout
  3
AutoCAD 2000
 90
0
 91
0
280
0
281
0
  0
ENDSEC
  0
SECTION
  2
TABLES
  0
TABLE
  2
VPORT
  5
8
100
AcDbSymbolTable
 70
2
  0
VPORT
  5
1F4
100
AcDbSymbolTableRecord
100
AcDbViewportTableRecord
  2
*ACTIVE
 70
0
 10
0.0
 20
0.0
 11
1.0
 21
1.0
 12
11.0
 22
8.5
 13
0.0
 23
0.0
 14
1.0
 24
1.0
 15
0.0
 25
0.0
 16
0.0
 26
0.0
 36
1.0
 17
0.0
 27
0.0
 37
0.0
 40
17.0
 41
1.2941176471
 42
50.0
 43
0.0
 44
0.0
 50
0.0
 51
0.0
 71
0
 72
100
 73
1
 74
1
 75
0
 76
0
 77
0
 78
0
  0
ENDTAB
  0
TABLE
  2
LTYPE
  5
5
100
AcDbSymbolTable
 70
6
  0
LTYPE
  5
14
100
AcDbSymbolTableRecord
100
AcDbLinetypeTableRecord
  2
BYBLOCK
 70
0
  3

 72
65
 73
0
 40
0.0
  0
LTYPE
  5
15
100
AcDbSymbolTableRecord
100
AcDbLinetypeTableRecord
  2
BYLAYER
 70
0
  3

 72
65
 73
0
 40
0.0
  0
LTYPE
  5
16
100
AcDbSymbolTableRecord
100
AcDbLinetypeTableRecord
  2
CONTINUOUS
 70
64
  3
Solid line
 72
65
 73
0
 40
0.0
  0
LTYPE
  5
1F5
100
AcDbSymbolTableRecord
100
AcDbLinetypeTableRecord
  2
CENTER
 70
64
  3
____ _ ____ _ ____ _ ____ _ ____ _ ____ _ ____
 72
65
 73
4
 40
0.6
 49
0.375
 74
0
 49
-0.075
 74
0
 49
0.075
 74
0
 49
-0.075
 74
0
  0
LTYPE
  5
1F6
100
AcDbSymbolTableRecord
100
AcDbLinetypeTableRecord
  2
HIDDEN
 70
64
  3
- - - - - - - - - - - - - - - - - - - -
 72
65
 73
2
 40
0.2
 49
0.1
 74
0
 49
-0.1
 74
0
  0
LTYPE
  5
1F7
100
AcDbSymbolTableRecord
100
AcDbLinetypeTableRecord
  2
PHANTOM
 70
64
  3
_____ _ _ _____ _ _ _____ _ _ _____
 72
65
 73
6
 40
0.8
 49
0.45
 74
0
 49
-0.05
 74
0
 49
0.1
 74
0
 49
-0.05
 74
0
 49
0.1
 74
0
 49
-0.05
 74
0
  0
LTYPE
  5
1F8
100
AcDbSymbolTableRecord
100
AcDbLinetypeTableRecord
  2
DOT
 70
64
  3
. . . . . . . . . . . . . . . . . . . .
 72
65
 73
2
 40
0.2
 49
0.1
 74
0
 49
-0.1
 74
0
  0
LTYPE
  5
1F9
100
AcDbSymbolTableRecord
100
AcDbLinetypeTableRecord
  2
DASHED
 70
64
  3
- - - - - - - - - - - - - - - - - - - -
 72
65
 73
2
 40
0.2
 49
0.1
 74
0
 49
-0.1
 74
0
  0
ENDTAB
  0
TABLE
  2
LAYER
  5
2
100
AcDbSymbolTable
 70
36
  0
LAYER
  5
10
100
AcDbSymbolTableRecord
100
AcDbLayerTableRecord
  2
0
 70
0
 62
7
  6
CONTINUOUS
370
-3
390
F
  0
LAYER
  5
1FA
100
AcDbSymbolTableRecord
100
AcDbLayerTableRecord
  2
DEFAULT_1
 70
0
 62
7
  6
CENTER
370
-3
390
F
  0
LAYER
  5
1FB
100
AcDbSymbolTableRecord
100
AcDbLayerTableRecord
  2
DEFAULT_2
 70
0
 62
8
  6
HIDDEN
370
-3
390
F
  0
LAYER
  5
1FC
100
AcDbSymbolTableRecord
100
AcDbLayerTableRecord
  2
DEFAULT_3
 70
0
 62
7
  6
PHANTOM
370
-3
390
F
  0
LAYER
  5
1FD
100
AcDbSymbolTableRecord
100
AcDbLayerTableRecord
  2
01_ALL_DTM_PLN
 70
0
 62
7
  6
CONTINUOUS
370
-3
390
F
  0
LAYER
  5
1FE
100
AcDbSymbolTableRecord
100
AcDbLayerTableRecord
  2
01__ASM_ALL_DTM_PLN
 70
0
 62
7
  6
CONTINUOUS
370
-3
390
F
  0
LAYER
  5
1FF
100
AcDbSymbolTableRecord
100
AcDbLayerTableRecord
  2
01__ASM_DEF_DTM_PLN
 70
0
 62
7
  6
CONTINUOUS
370
-3
390
F
  0
LAYER
  5
200
100
AcDbSymbolTableRecord
100
AcDbLayerTableRecord
  2
01___PRT_ALL_DTM_PLN
 70
0
 62
7
  6
CONTINUOUS
370
-3
390
F
  0
LAYER
  5
201
100
AcDbSymbolTableRecord
100
AcDbLayerTableRecord
  2
01___PRT_DEF_DTM_PLN
 70
0
 62
7
  6
CONTINUOUS
370
-3
390
F
  0
LAYER
  5
202
100
AcDbSymbolTableRecord
100
AcDbLayerTableRecord
  2
02_ALL_AXES
 70
0
 62
7
  6
CONTINUOUS
370
-3
390
F
  0
LAYER
  5
203
100
AcDbSymbolTableRecord
100
AcDbLayerTableRecord
  2
02__ASM_ALL_AXES
 70
0
 62
7
  6
CONTINUOUS
370
-3
390
F
  0
LAYER
  5
204
100
AcDbSymbolTableRecord
100
AcDbLayerTableRecord
  2
02___PRT_ALL_AXES
 70
0
 62
7
  6
CONTINUOUS
370
-3
390
F
  0
LAYER
  5
205
100
AcDbSymbolTableRecord
100
AcDbLayerTableRecord
  2
03_ALL_CURVES
 70
0
 62
7
  6
CONTINUOUS
370
-3
390
F
  0
LAYER
  5
206
100
AcDbSymbolTableRecord
100
AcDbLayerTableRecord
  2
03__ASM_ALL_CURVES
 70
0
 62
7
  6
CONTINUOUS
370
-3
390
F
  0
LAYER
  5
207
100
AcDbSymbolTableRecord
100
AcDbLayerTableRecord
  2
03___PRT_ALL_CURVES
 70
0
 62
7
  6
CONTINUOUS
370
-3
390
F
  0
LAYER
  5
208
100
AcDbSymbolTableRecord
100
AcDbLayerTableRecord
  2
04_ALL_DTM_PNT
 70
0
 62
7
  6
CONTINUOUS
370
-3
390
F
  0
LAYER
  5
209
100
AcDbSymbolTableRecord
100
AcDbLayerTableRecord
  2
04__ASM_ALL_DTM_PNT
 70
0
 62
7
  6
CONTINUOUS
370
-3
390
F
  0
LAYER
  5
20A
100
AcDbSymbolTableRecord
100
AcDbLayerTableRecord
  2
04___PRT_ALL_DTM_PNT
 70
0
 62
7
  6
CONTINUOUS
370
-3
390
F
  0
LAYER
  5
20B
100
AcDbSymbolTableRecord
100
AcDbLayerTableRecord
  2
05_ALL_DTM_CSYS
 70
0
 62
7
  6
CONTINUOUS
370
-3
390
F
  0
LAYER
  5
20C
100
AcDbSymbolTableRecord
100
AcDbLayerTableRecord
  2
05__ASM_ALL_DTM_CSYS
 70
0
 62
7
  6
CONTINUOUS
370
-3
390
F
  0
LAYER
  5
20D
100
AcDbSymbolTableRecord
100
AcDbLayerTableRecord
  2
05__ASM_DEF_DTM_CSYS
 70
0
 62
7
  6
CONTINUOUS
370
-3
390
F
  0
LAYER
  5
20E
100
AcDbSymbolTableRecord
100
AcDbLayerTableRecord
  2
05___PRT_ALL_DTM_CSYS
 70
0
 62
7
  6
CONTINUOUS
370
-3
390
F
  0
LAYER
  5
20F
100
AcDbSymbolTableRecord
100
AcDbLayerTableRecord
  2
05___PRT_DEF_DTM_CSYS
 70
0
 62
7
  6
CONTINUOUS
370
-3
390
F
  0
LAYER
  5
210
100
AcDbSymbolTableRecord
100
AcDbLayerTableRecord
  2
06_ALL_SURFS
 70
0
 62
7
  6
CONTINUOUS
370
-3
390
F
  0
LAYER
  5
211
100
AcDbSymbolTableRecord
100
AcDbLayerTableRecord
  2
06__ASM_ALL_SURFS
 70
0
 62
7
  6
CONTINUOUS
370
-3
390
F
  0
LAYER
  5
212
100
AcDbSymbolTableRecord
100
AcDbLayerTableRecord
  2
06___PRT_ALL_SURFS
 70
0
 62
7
  6
CONTINUOUS
370
-3
390
F
  0
LAYER
  5
213
100
AcDbSymbolTableRecord
100
AcDbLayerTableRecord
  2
07__ASM_ALL_SKELETONS
 70
0
 62
7
  6
CONTINUOUS
370
-3
390
F
  0
ENDTAB
  0
TABLE
  2
STYLE
  5
3
100
AcDbSymbolTable
 70
1
  0
STYLE
  5
11
100
AcDbSymbolTableRecord
100
AcDbTextStyleTableRecord
  2
STANDARD
 70
0
 40
0.0
 41
0.8
 50
0.0
 71
0
 42
0.2
  3
txt
  4

  0
STYLE
  5
214
100
AcDbSymbolTableRecord
100
AcDbTextStyleTableRecord
  2
TEXTSTYLE_1
 70
0
 40
0.0
 41
0.8
 50
0.0
 71
0
 42
0.2
  3
gdt
  4

  0
ENDTAB
  0
TABLE
  2
VIEW
  5
6
100
AcDbSymbolTable
 70
0
  0
ENDTAB
  0
TABLE
  2
UCS
  5
7
100
AcDbSymbolTable
 70
0
  0
ENDTAB
  0
TABLE
  2
APPID
  5
9
100
AcDbSymbolTable
 70
1
  0
APPID
  5
215
100
AcDbSymbolTableRecord
100
AcDbRegAppTableRecord
  2
ACAD
 70
0
  0
ENDTAB
  0
TABLE
  2
BLOCK_RECORD
  5
1
100
AcDbSymbolTable
 70
0
  0
BLOCK_RECORD
  5
216
100
AcDbSymbolTableRecord
100
AcDbBlockTableRecord
  2
*Model_Space
  0
BLOCK_RECORD
  5
217
100
AcDbSymbolTableRecord
100
AcDbBlockTableRecord
  2
*Paper_Space
  0
ENDTAB
  0
TABLE
  2
DIMSTYLE
  5
A
100
AcDbSymbolTable
 70
1
100
AcDbDimStyleTable
 71
0
  0
DIMSTYLE
105
218
100
AcDbSymbolTableRecord
100
AcDbDimStyleTableRecord
  2
STANDARD
 70
0
  3

  4

 40
1.0
 41
0.1875
 42
0.0625
 43
0.38
 44
0.125
 45
0.0
 46
0.0
 47
0.0001
 48
0.0001
140
0.15625
141
0.09
142
0.0
143
25.4
144
1.0
145
0.0
146
1.0
147
0.09
 71
0.0
 72
0.0
 73
1
 74
1
 75
0
 76
0
 77
0
 78
4
170
0
171
2
172
0
173
0
174
0
175
0
176
0
177
0
178
0
270
2
271
4
272
4
273
2
274
2
275
0
280
0
281
0
282
0
283
1
284
4
285
0
286
0
287
3
288
0
340
11
278
46
  0
ENDTAB
  0
ENDSEC
  0
SECTION
  2
BLOCKS
  0
BLOCK
  5
20
100
AcDbEntity
  8
0
100
AcDbBlockBegin
  2
*Model_Space
 70
0
 10
0.0
 20
0.0
 30
0.0
  3
*Model_Space
  1

  0
ENDBLK
  5
21
100
AcDbEntity
  8
0
100
AcDbBlockEnd
  0
BLOCK
  5
1C
100
AcDbEntity
  8
0
100
AcDbBlockBegin
  2
*Paper_Space
 70
0
 10
0.0
 20
0.0
 30
0.0
  3
*Paper_Space
  1

  0
ENDBLK
  5
1D
100
AcDbEntity
  8
0
100
AcDbBlockEnd
  0
ENDSEC
  0
SECTION
  2
ENTITIES
  0
MTEXT
  5
219
100
AcDbEntity
  8
0
100
AcDbMText
 62
7
  6
CONTINUOUS
  7
STANDARD
 71
1
 72
1
 10
15.9560215477
 20
0.9479130325
 30
0.0
 11
1.0
 21
0.0
 31
0.0
 44
0.9
  1
SCALE: 1:2.000
 40
0.3
 41
3.36
  0
LINE
  5
21A
100
AcDbEntity
  8
0
100
AcDbLine
 62
7
  6
CONTINUOUS
 10
0.0
 20
0.0
 11
0.0
 21
17.0
  0
LINE
  5
21B
100
AcDbEntity
  8
0
100
AcDbLine
 62
7
  6
CONTINUOUS
 10
0.0
 20
0.0
 11
22.0
 21
0.0
  0
LINE
  5
21C
100
AcDbEntity
  8
0
100
AcDbLine
 62
7
  6
CONTINUOUS
 10
0.0
 20
17.0
 11
22.0
 21
17.0
  0
LINE
  5
21D
100
AcDbEntity
  8
0
100
AcDbLine
 62
7
  6
CONTINUOUS
 10
22.0
 20
0.0
 11
22.0
 21
17.0
  0
LINE
  5
21E
100
AcDbEntity
  8
0
100
AcDbLine
 62
7
  6
CONTINUOUS
 10
4.2406034966
 20
5.7401986369
 11
4.2406034966
 21
5.5583088731
  0
LINE
  5
21F
100
AcDbEntity
  8
0
100
AcDbLine
 62
7
  6
CONTINUOUS
 10
4.4833574086
 20
5.3000411566
 11
4.6277708445
 21
5.3000411566
  0
LINE
  5
220
100
AcDbEntity
  8
0
100
AcDbLine
 62
7
  6
CONTINUOUS
 10
5.1132786685
 20
5.3000411566
 11
5.2576921043
 21
5.3000411566
  0
LINE
  5
221
100
AcDbEntity
  8
0
100
AcDbLine
 62
7
  6
CONTINUOUS
 10
5.7431999283
 20
5.3000411566
 11
5.8876133642
 21
5.3000411566
  0
LINE
  5
222
100
AcDbEntity
  8
0
100
AcDbLine
 62
7
  6
CONTINUOUS
 10
6.3731211881
 20
5.3000411566
 11
6.517534624
 21
5.3000411566
  0
LINE
  5
223
100
AcDbEntity
  8
0
100
AcDbLine
 62
7
  6
CONTINUOUS
 10
7.003042448
 20
5.3000411566
 11
7.1474558839
 21
5.3000411566
  0
LINE
  5
224
100
AcDbEntity
  8
0
100
AcDbLine
 62
7
  6
CONTINUOUS
 10
7.6329637078
 20
5.3000411566
 11
7.7773771437
 21
5.3000411566
  0
LINE
  5
225
100
AcDbEntity
  8
0
100
AcDbLine
 62
7
  6
CONTINUOUS
 10
4.2406034966
 20
5.5583088731
 11
4.3089546253
 21
5.5583088731
  0
LINE
  5
226
100
AcDbEntity
  8
0
100
AcDbLine
 62
7
  6
CONTINUOUS
 10
4.8021736278
 20
5.5583088731
 11
4.9388758851
 21
5.5583088731
  0
LINE
  5
227
100
AcDbEntity
  8
0
100
AcDbLine
 62
7
  6
CONTINUOUS
 10
5.4320948877
 20
5.5583088731
 11
5.568797145
 21
5.5583088731
  0
LINE
  5
228
100
AcDbEntity
  8
0
100
AcDbLine
 62
7
  6
CONTINUOUS
 10
6.0620161475
 20
5.5583088731
 11
6.1987184048
 21
5.5583088731
  0
LINE
  5
229
100
AcDbEntity
  8
0
100
AcDbLine
 62
7
  6
CONTINUOUS
 10
6.6919374074
 20
5.5583088731
 11
6.8286396647
 21
5.5583088731
  0
LINE
  5
22A
100
AcDbEntity
  8
0
100
AcDbLine
 62
7
  6
CONTINUOUS
 10
7.3218586672
 20
5.5583088731
 11
7.4585609245
 21
5.5583088731
  0
LINE
  5
22B
100
AcDbEntity
  8
0
100
AcDbLine
 62
7
  6
CONTINUOUS
 10
7.951779927
 20
5.5583088731
 11
8.0201310557
 21
5.5583088731
  0
LINE
  5
22C
100
AcDbEntity
  8
0
100
AcDbLine
 62
7
  6
CONTINUOUS
 10
8.0201310557
 20
5.7401986369
 11
4.2406034966
 21
5.7401986369
  0
LINE
  5
22D
100
AcDbEntity
  8
0
100
AcDbLine
 62
7
  6
CONTINUOUS
 10
8.0201310557
 20
5.5583088731
 11
8.0201310557
 21
5.7401986369
  0
LINE
  5
22E
100
AcDbEntity
  8
0
100
AcDbLine
 62
7
  6
CONTINUOUS
 10
4.1811083043
 20
13.0724887263
 11
4.1811083043
 21
12.1276068365
  0
LINE
  5
22F
100
AcDbEntity
  8
0
100
AcDbLine
 62
7
  6
CONTINUOUS
 10
7.9606358634
 20
12.1276068365
 11
4.1811083043
 21
12.1276068365
  0
LINE
  5
230
100
AcDbEntity
  8
0
100
AcDbLine
 62
7
  6
CONTINUOUS
 10
4.1811083043
 20
13.0724887263
 11
7.9606358634
 21
13.0724887263
  0
LINE
  5
231
100
AcDbEntity
  8
0
100
AcDbLine
 62
7
  6
CONTINUOUS
 10
7.9606358634
 20
13.0724887263
 11
7.9606358634
 21
12.1276068365
  0
LINE
  5
232
100
AcDbEntity
  8
0
100
AcDbLine
 62
7
  6
CONTINUOUS
 10
15.0879143121
 20
5.2405459643
 11
15.0879143121
 21
5.6807034446
  0
LINE
  5
233
100
AcDbEntity
  8
0
100
AcDbLine
 62
7
  6
CONTINUOUS
 10
15.0879143121
 20
5.2405459643
 11
16.0327962018
 21
5.2405459643
  0
LINE
  5
234
100
AcDbEntity
  8
0
100
AcDbLine
 62
7
  6
CONTINUOUS
 10
16.0327962018
 20
5.4988136808
 11
15.0879143121
 21
5.4988136808
  0
LINE
  5
235
100
AcDbEntity
  8
0
100
AcDbLine
 62
7
  6
CONTINUOUS
 10
16.0327962018
 20
5.6807034446
 11
15.0879143121
 21
5.6807034446
  0
LINE
  5
236
100
AcDbEntity
  8
0
100
AcDbLine
 62
7
  6
CONTINUOUS
 10
16.0327962018
 20
5.2405459643
 11
16.0327962018
 21
5.6807034446
  0
LINE
  5
237
100
AcDbEntity
  8
0
100
AcDbLine
 62
7
  6
CONTINUOUS
 10
13.8171448093
 20
13.0176838369
 11
13.5884207242
 21
12.2775324263
  0
LINE
  5
238
100
AcDbEntity
  8
0
100
AcDbLine
 62
7
  6
CONTINUOUS
 10
13.5884207242
 20
12.2775324263
 11
13.6439047172
 21
12.164467936
  0
LINE
  5
239
100
AcDbEntity
  8
0
100
AcDbLine
 62
7
  6
CONTINUOUS
 10
14.1304254703
 20
12.0293778956
 11
14.1721792091
 21
12.164467936
  0
LINE
  5
23A
100
AcDbEntity
  8
0
100
AcDbLine
 62
7
  6
CONTINUOUS
 10
14.7106213721
 20
12.0293778956
 11
14.7523751108
 21
12.164467936
  0
LINE
  5
23B
100
AcDbEntity
  8
0
100
AcDbLine
 62
7
  6
CONTINUOUS
 10
13.9462783431
 20
12.0039261489
 11
14.0792919259
 21
12.0039261489
  0
LINE
  5
23C
100
AcDbEntity
  8
0
100
AcDbLine
 62
7
  6
CONTINUOUS
 10
14.5264742448
 20
12.0039261489
 11
14.6594878276
 21
12.0039261489
  0
LINE
  5
23D
100
AcDbEntity
  8
0
100
AcDbLine
 62
7
  6
CONTINUOUS
 10
15.1066701465
 20
12.0039261489
 11
15.2396837293
 21
12.0039261489
  0
LINE
  5
23E
100
AcDbEntity
  8
0
100
AcDbLine
 62
7
  6
CONTINUOUS
 10
15.6868660483
 20
12.0039261489
 11
15.8198796311
 21
12.0039261489
  0
LINE
  5
23F
100
AcDbEntity
  8
0
100
AcDbLine
 62
7
  6
CONTINUOUS
 10
16.26706195
 20
12.0039261489
 11
16.4000755328
 21
12.0039261489
  0
LINE
  5
240
100
AcDbEntity
  8
0
100
AcDbLine
 62
7
  6
CONTINUOUS
 10
16.8472578517
 20
12.0039261489
 11
16.9802714345
 21
12.0039261489
  0
LINE
  5
241
100
AcDbEntity
  8
0
100
AcDbLine
 62
7
  6
CONTINUOUS
 10
13.6439047172
 20
12.164467936
 11
13.7068602757
 21
12.164467936
  0
LINE
  5
242
100
AcDbEntity
  8
0
100
AcDbLine
 62
7
  6
CONTINUOUS
 10
14.1611450605
 20
12.164467936
 11
14.2870561775
 21
12.164467936
  0
LINE
  5
243
100
AcDbEntity
  8
0
100
AcDbLine
 62
7
  6
CONTINUOUS
 10
14.7413409622
 20
12.164467936
 11
14.8672520792
 21
12.164467936
  0
LINE
  5
244
100
AcDbEntity
  8
0
100
AcDbLine
 62
7
  6
CONTINUOUS
 10
15.321536864
 20
12.164467936
 11
15.4474479809
 21
12.164467936
  0
LINE
  5
245
100
AcDbEntity
  8
0
100
AcDbLine
 62
7
  6
CONTINUOUS
 10
15.9017327657
 20
12.164467936
 11
16.0276438827
 21
12.164467936
  0
LINE
  5
246
100
AcDbEntity
  8
0
100
AcDbLine
 62
7
  6
CONTINUOUS
 10
16.4819286674
 20
12.164467936
 11
16.6078397844
 21
12.164467936
  0
LINE
  5
247
100
AcDbEntity
  8
0
100
AcDbLine
 62
7
  6
CONTINUOUS
 10
17.0621245692
 20
12.164467936
 11
17.1250801277
 21
12.164467936
  0
LINE
  5
248
100
AcDbEntity
  8
0
100
AcDbLine
 62
7
  6
CONTINUOUS
 10
17.0695961346
 20
12.2775324263
 11
13.5884207242
 21
12.2775324263
  0
LINE
  5
249
100
AcDbEntity
  8
0
100
AcDbLine
 62
7
  6
CONTINUOUS
 10
15.3325710125
 20
12.164467936
 11
15.291262316
 21
12.0307929449
  0
LINE
  5
24A
100
AcDbEntity
  8
0
100
AcDbLine
 62
7
  6
CONTINUOUS
 10
15.2908172738
 20
12.0293778956
 11
15.2912617035
 21
12.0307931341
  0
LINE
  5
24B
100
AcDbEntity
  8
0
100
AcDbLine
 62
7
  6
CONTINUOUS
 10
15.9127669143
 20
12.164467936
 11
15.8714582177
 21
12.0307929449
  0
LINE
  5
24C
100
AcDbEntity
  8
0
100
AcDbLine
 62
7
  6
CONTINUOUS
 10
15.8710131755
 20
12.0293778956
 11
15.8714576052
 21
12.0307931341
  0
LINE
  5
24D
100
AcDbEntity
  8
0
100
AcDbLine
 62
7
  6
CONTINUOUS
 10
13.8171448093
 20
13.0176838369
 11
17.2983202197
 21
13.0176838369
  0
LINE
  5
24E
100
AcDbEntity
  8
0
100
AcDbLine
 62
7
  6
CONTINUOUS
 10
16.492962816
 20
12.164467936
 11
16.4516541195
 21
12.0307929449
  0
LINE
  5
24F
100
AcDbEntity
  8
0
100
AcDbLine
 62
7
  6
CONTINUOUS
 10
16.4512090773
 20
12.0293778956
 11
16.4516535787
 21
12.030793112
  0
LINE
  5
250
100
AcDbEntity
  8
0
100
AcDbLine
 62
7
  6
CONTINUOUS
 10
17.1250801277
 20
12.164467936
 11
17.0695961346
 21
12.2775324263
  0
LINE
  5
251
100
AcDbEntity
  8
0
100
AcDbLine
 62
7
  6
CONTINUOUS
 10
17.2983202197
 20
13.0176838369
 11
17.0695961346
 21
12.2775324263
  0
LINE
  5
252
100
AcDbEntity
  8
0
100
AcDbLine
 62
7
  6
CONTINUOUS
 10
17.0731587177
 20
12.164467936
 11
17.0318500212
 21
12.0307929449
  0
LINE
  5
253
100
AcDbEntity
  8
0
100
AcDbLine
 62
7
  6
CONTINUOUS
 10
17.3538042128
 20
12.9046193466
 11
17.1250801277
 21
12.164467936
  0
LINE
  5
254
100
AcDbEntity
  8
0
100
AcDbLine
 62
7
  6
CONTINUOUS
 10
17.031404979
 20
12.0293778956
 11
17.0318494805
 21
12.030793112
  0
LINE
  5
255
100
AcDbEntity
  8
0
100
AcDbLine
 62
7
  6
CONTINUOUS
 10
17.3538042128
 20
12.9046193466
 11
17.2983202197
 21
13.0176838369
  0
ARC
  5
256
100
AcDbEntity
  8
0
100
AcDbCircle
 62
7
  6
CONTINUOUS
 10
4.2996586147
 20
5.5583088731
 40
0.4527559055
100
AcDbArc
 50
331.3145979859
 51
354.0364298817
  0
ARC
  5
257
100
AcDbEntity
  8
0
100
AcDbCircle
 62
7
  6
CONTINUOUS
 10
5.4413908982
 20
5.5583088731
 40
0.4527559055
100
AcDbArc
 50
185.9635701183
 51
208.6854020141
  0
ARC
  5
258
100
AcDbEntity
  8
0
100
AcDbCircle
 62
7
  6
CONTINUOUS
 10
4.9295798746
 20
5.5583088731
 40
0.4527559055
100
AcDbArc
 50
331.3145979859
 51
354.0364298817
  0
ARC
  5
259
100
AcDbEntity
  8
0
100
AcDbCircle
 62
7
  6
CONTINUOUS
 10
6.0713121581
 20
5.5583088731
 40
0.4527559055
100
AcDbArc
 50
185.9635701183
 51
208.6854020141
  0
ARC
  5
25A
100
AcDbEntity
  8
0
100
AcDbCircle
 62
7
  6
CONTINUOUS
 10
5.5595011344
 20
5.5583088731
 40
0.4527559055
100
AcDbArc
 50
331.3145979859
 51
354.0364298817
  0
ARC
  5
25B
100
AcDbEntity
  8
0
100
AcDbCircle
 62
7
  6
CONTINUOUS
 10
6.7012334179
 20
5.5583088731
 40
0.4527559055
100
AcDbArc
 50
185.9635701183
 51
208.6854020141
  0
ARC
  5
25C
100
AcDbEntity
  8
0
100
AcDbCircle
 62
7
  6
CONTINUOUS
 10
4.8114696384
 20
5.5583088731
 40
0.4527559055
100
AcDbArc
 50
185.9635701183
 51
208.6854020141
  0
ARC
  5
25D
100
AcDbEntity
  8
0
100
AcDbCircle
 62
7
  6
CONTINUOUS
 10
7.449264914
 20
5.5583088731
 40
0.4527559055
100
AcDbArc
 50
331.3145979859
 51
354.0364298817
  0
ARC
  5
25E
100
AcDbEntity
  8
0
100
AcDbCircle
 62
7
  6
CONTINUOUS
 10
7.9610759376
 20
5.5583088731
 40
0.4527559055
100
AcDbArc
 50
185.9635701183
 51
208.6854020141
  0
ARC
  5
25F
100
AcDbEntity
  8
0
100
AcDbCircle
 62
7
  6
CONTINUOUS
 10
6.8193436541
 20
5.5583088731
 40
0.4527559055
100
AcDbArc
 50
331.3145979859
 51
354.0364298817
  0
ARC
  5
260
100
AcDbEntity
  8
0
100
AcDbCircle
 62
7
  6
CONTINUOUS
 10
7.3311546777
 20
5.5583088731
 40
0.4527559055
100
AcDbArc
 50
185.9635701183
 51
208.6854020141
  0
ARC
  5
261
100
AcDbEntity
  8
0
100
AcDbCircle
 62
7
  6
CONTINUOUS
 10
6.1894223943
 20
5.5583088731
 40
0.4527559055
100
AcDbArc
 50
331.3145979859
 51
354.0364298817
  0
ARC
  5
262
100
AcDbEntity
  8
0
100
AcDbCircle
 62
7
  6
CONTINUOUS
 10
4.4833574086
 20
5.3787813141
 40
0.0787401575
100
AcDbArc
 50
208.6854020141
 51
270.0
  0
ARC
  5
263
100
AcDbEntity
  8
0
100
AcDbCircle
 62
7
  6
CONTINUOUS
 10
4.6277708445
 20
5.3787813141
 40
0.0787401575
100
AcDbArc
 50
270.0
 51
331.3145979859
  0
ARC
  5
264
100
AcDbEntity
  8
0
100
AcDbCircle
 62
7
  6
CONTINUOUS
 10
5.1132786685
 20
5.3787813141
 40
0.0787401575
100
AcDbArc
 50
208.6854020141
 51
270.0
  0
ARC
  5
265
100
AcDbEntity
  8
0
100
AcDbCircle
 62
7
  6
CONTINUOUS
 10
5.2576921043
 20
5.3787813141
 40
0.0787401575
100
AcDbArc
 50
270.0
 51
331.3145979859
  0
ARC
  5
266
100
AcDbEntity
  8
0
100
AcDbCircle
 62
7
  6
CONTINUOUS
 10
5.7431999283
 20
5.3787813141
 40
0.0787401575
100
AcDbArc
 50
208.6854020141
 51
270.0
  0
ARC
  5
267
100
AcDbEntity
  8
0
100
AcDbCircle
 62
7
  6
CONTINUOUS
 10
5.8876133642
 20
5.3787813141
 40
0.0787401575
100
AcDbArc
 50
270.0
 51
331.3145979859
  0
ARC
  5
268
100
AcDbEntity
  8
0
100
AcDbCircle
 62
7
  6
CONTINUOUS
 10
6.3731211881
 20
5.3787813141
 40
0.0787401575
100
AcDbArc
 50
208.6854020141
 51
270.0
  0
ARC
  5
269
100
AcDbEntity
  8
0
100
AcDbCircle
 62
7
  6
CONTINUOUS
 10
7.7773771437
 20
5.3787813141
 40
0.0787401575
100
AcDbArc
 50
270.0
 51
331.3145979859
  0
ARC
  5
26A
100
AcDbEntity
  8
0
100
AcDbCircle
 62
7
  6
CONTINUOUS
 10
7.6329637078
 20
5.3787813141
 40
0.0787401575
100
AcDbArc
 50
208.6854020141
 51
270.0
  0
ARC
  5
26B
100
AcDbEntity
  8
0
100
AcDbCircle
 62
7
  6
CONTINUOUS
 10
7.1474558839
 20
5.3787813141
 40
0.0787401575
100
AcDbArc
 50
270.0
 51
331.3145979859
  0
ARC
  5
26C
100
AcDbEntity
  8
0
100
AcDbCircle
 62
7
  6
CONTINUOUS
 10
7.003042448
 20
5.3787813141
 40
0.0787401575
100
AcDbArc
 50
208.6854020141
 51
270.0
  0
ARC
  5
26D
100
AcDbEntity
  8
0
100
AcDbCircle
 62
7
  6
CONTINUOUS
 10
6.517534624
 20
5.3787813141
 40
0.0787401575
100
AcDbArc
 50
270.0
 51
331.3145979859
  0
ARC
  5
26E
100
AcDbEntity
  8
0
100
AcDbCircle
 62
7
  6
CONTINUOUS
 10
4.3089546253
 20
5.5058154348
 40
0.0524934383
100
AcDbArc
 50
5.9635701183
 51
90.0
  0
ARC
  5
26F
100
AcDbEntity
  8
0
100
AcDbCircle
 62
7
  6
CONTINUOUS
 10
4.8021736278
 20
5.5058154348
 40
0.0524934383
100
AcDbArc
 50
90.0
 51
174.0364298817
  0
ARC
  5
270
100
AcDbEntity
  8
0
100
AcDbCircle
 62
7
  6
CONTINUOUS
 10
4.9388758851
 20
5.5058154348
 40
0.0524934383
100
AcDbArc
 50
5.9635701183
 51
90.0
  0
ARC
  5
271
100
AcDbEntity
  8
0
100
AcDbCircle
 62
7
  6
CONTINUOUS
 10
5.4320948877
 20
5.5058154348
 40
0.0524934383
100
AcDbArc
 50
90.0
 51
174.0364298817
  0
ARC
  5
272
100
AcDbEntity
  8
0
100
AcDbCircle
 62
7
  6
CONTINUOUS
 10
5.568797145
 20
5.5058154348
 40
0.0524934383
100
AcDbArc
 50
5.9635701183
 51
90.0
  0
ARC
  5
273
100
AcDbEntity
  8
0
100
AcDbCircle
 62
7
  6
CONTINUOUS
 10
6.0620161475
 20
5.5058154348
 40
0.0524934383
100
AcDbArc
 50
90.0
 51
174.0364298817
  0
ARC
  5
274
100
AcDbEntity
  8
0
100
AcDbCircle
 62
7
  6
CONTINUOUS
 10
6.1987184048
 20
5.5058154348
 40
0.0524934383
100
AcDbArc
 50
5.9635701183
 51
90.0
  0
ARC
  5
275
100
AcDbEntity
  8
0
100
AcDbCircle
 62
7
  6
CONTINUOUS
 10
6.6919374074
 20
5.5058154348
 40
0.0524934383
100
AcDbArc
 50
90.0
 51
174.0364298817
  0
ARC
  5
276
100
AcDbEntity
  8
0
100
AcDbCircle
 62
7
  6
CONTINUOUS
 10
6.8286396647
 20
5.5058154348
 40
0.0524934383
100
AcDbArc
 50
5.9635701183
 51
90.0
  0
ARC
  5
277
100
AcDbEntity
  8
0
100
AcDbCircle
 62
7
  6
CONTINUOUS
 10
7.3218586672
 20
5.5058154348
 40
0.0524934383
100
AcDbArc
 50
90.0
 51
174.0364298817
  0
ARC
  5
278
100
AcDbEntity
  8
0
100
AcDbCircle
 62
7
  6
CONTINUOUS
 10
7.4585609245
 20
5.5058154348
 40
0.0524934383
100
AcDbArc
 50
5.9635701183
 51
90.0
  0
ARC
  5
279
100
AcDbEntity
  8
0
100
AcDbCircle
 62
7
  6
CONTINUOUS
 10
7.951779927
 20
5.5058154348
 40
0.0524934383
100
AcDbArc
 50
90.0
 51
174.0364298817
  0
SPLINE
  5
27A
100
AcDbEntity
  8
0
100
AcDbSpline
 62
7
  6
CONTINUOUS
 70
0
 71
3
 72
12
 73
8
 74
0
 42
0.0000001
 43
0.0000001
 44
0.0000000001
 40
0.0
 40
0.0
 40
0.0
 40
0.0
 40
0.0998452889
 40
0.2032558491
 40
0.4308037885
 40
0.696580848
 40
1.0
 40
1.0
 40
1.0
 40
1.0
 10
14.1270045606
 20
12.1473360147
 30
0.0
 10
14.1274037931
 20
12.1486280603
 30
0.0
 10
14.128535789
 20
12.1511702433
 30
0.0
 10
14.1320861139
 20
12.1558557253
 30
0.0
 10
14.1388996959
 20
12.1605595623
 30
0.0
 10
14.1492949843
 20
12.1638120175
 30
0.0
 10
14.1570355059
 20
12.164467936
 30
0.0
 10
14.1611450605
 20
12.164467936
 30
0.0
  0
SPLINE
  5
27B
100
AcDbEntity
  8
0
100
AcDbSpline
 62
7
  6
CONTINUOUS
 70
0
 71
3
 72
12
 73
8
 74
0
 42
0.0000001
 43
0.0000001
 44
0.0000000001
 40
0.0
 40
0.0
 40
0.0
 40
0.0
 40
0.0998452889
 40
0.2032558491
 40
0.4308037885
 40
0.696580848
 40
1.0
 40
1.0
 40
1.0
 40
1.0
 10
14.7072004624
 20
12.1473360147
 30
0.0
 10
14.7075996949
 20
12.1486280603
 30
0.0
 10
14.7087316908
 20
12.1511702433
 30
0.0
 10
14.7122820156
 20
12.1558557253
 30
0.0
 10
14.7190955977
 20
12.1605595623
 30
0.0
 10
14.729490886
 20
12.1638120175
 30
0.0
 10
14.7372314077
 20
12.164467936
 30
0.0
 10
14.7413409622
 20
12.164467936
 30
0.0
  0
SPLINE
  5
27C
100
AcDbEntity
  8
0
100
AcDbSpline
 62
7
  6
CONTINUOUS
 70
0
 71
3
 72
12
 73
8
 74
0
 42
0.0000001
 43
0.0000001
 44
0.0000000001
 40
0.0
 40
0.0
 40
0.0
 40
0.0
 40
0.0998452889
 40
0.2032558491
 40
0.4308037885
 40
0.696580848
 40
1.0
 40
1.0
 40
1.0
 40
1.0
 10
15.2873963641
 20
12.1473360147
 30
0.0
 10
15.2877955966
 20
12.1486280603
 30
0.0
 10
15.2889275925
 20
12.1511702433
 30
0.0
 10
15.2924779174
 20
12.1558557253
 30
0.0
 10
15.2992914994
 20
12.1605595623
 30
0.0
 10
15.3096867878
 20
12.1638120175
 30
0.0
 10
15.3174273094
 20
12.164467936
 30
0.0
 10
15.321536864
 20
12.164467936
 30
0.0
  0
SPLINE
  5
27D
100
AcDbEntity
  8
0
100
AcDbSpline
 62
7
  6
CONTINUOUS
 70
0
 71
3
 72
12
 73
8
 74
0
 42
0.0000001
 43
0.0000001
 44
0.0000000001
 40
0.0
 40
0.0
 40
0.0
 40
0.0
 40
0.0998452889
 40
0.2032558491
 40
0.4308037885
 40
0.696580848
 40
1.0
 40
1.0
 40
1.0
 40
1.0
 10
15.8675922658
 20
12.1473360147
 30
0.0
 10
15.8679914983
 20
12.1486280603
 30
0.0
 10
15.8691234942
 20
12.1511702433
 30
0.0
 10
15.8726738191
 20
12.1558557253
 30
0.0
 10
15.8794874011
 20
12.1605595623
 30
0.0
 10
15.8898826895
 20
12.1638120175
 30
0.0
 10
15.8976232111
 20
12.164467936
 30
0.0
 10
15.9017327657
 20
12.164467936
 30
0.0
  0
SPLINE
  5
27E
100
AcDbEntity
  8
0
100
AcDbSpline
 62
7
  6
CONTINUOUS
 70
0
 71
3
 72
12
 73
8
 74
0
 42
0.0000001
 43
0.0000001
 44
0.0000000001
 40
0.0
 40
0.0
 40
0.0
 40
0.0
 40
0.0998452889
 40
0.2032558491
 40
0.4308037885
 40
0.696580848
 40
1.0
 40
1.0
 40
1.0
 40
1.0
 10
16.4477881676
 20
12.1473360147
 30
0.0
 10
16.4481874001
 20
12.1486280603
 30
0.0
 10
16.449319396
 20
12.1511702433
 30
0.0
 10
16.4528697208
 20
12.1558557253
 30
0.0
 10
16.4596833029
 20
12.1605595623
 30
0.0
 10
16.4700785912
 20
12.1638120175
 30
0.0
 10
16.4778191129
 20
12.164467936
 30
0.0
 10
16.4819286674
 20
12.164467936
 30
0.0
  0
SPLINE
  5
27F
100
AcDbEntity
  8
0
100
AcDbSpline
 62
7
  6
CONTINUOUS
 70
0
 71
3
 72
12
 73
8
 74
0
 42
0.0000001
 43
0.0000001
 44
0.0000000001
 40
0.0
 40
0.0
 40
0.0
 40
0.0
 40
0.0998452889
 40
0.2032558491
 40
0.4308037885
 40
0.696580848
 40
1.0
 40
1.0
 40
1.0
 40
1.0
 10
17.0279840693
 20
12.1473360147
 30
0.0
 10
17.0283833018
 20
12.1486280603
 30
0.0
 10
17.0295152977
 20
12.1511702433
 30
0.0
 10
17.0330656226
 20
12.1558557253
 30
0.0
 10
17.0398792046
 20
12.1605595623
 30
0.0
 10
17.050274493
 20
12.1638120175
 30
0.0
 10
17.0580150146
 20
12.164467936
 30
0.0
 10
17.0621245692
 20
12.164467936
 30
0.0
  0
SPLINE
  5
280
100
AcDbEntity
  8
0
100
AcDbSpline
 62
7
  6
CONTINUOUS
 70
0
 71
3
 72
11
 73
7
 74
0
 42
0.0000001
 43
0.0000001
 44
0.0000000001
 40
0.0
 40
0.0
 40
0.0
 40
0.0
 40
0.2600307918
 40
0.5283882152
 40
0.7814357452
 40
1.0
 40
1.0
 40
1.0
 40
1.0
 10
13.7068602757
 20
12.164467936
 30
0.0
 10
13.7130359195
 20
12.164467936
 30
0.0
 10
13.7256084814
 20
12.1628816179
 30
0.0
 10
13.7432824291
 20
12.1568221111
 30
0.0
 10
13.7584736902
 20
12.1477425289
 30
0.0
 10
13.7664821435
 20
12.1395888039
 30
0.0
 10
13.769297313
 20
12.1352276675
 30
0.0
  0
SPLINE
  5
281
100
AcDbEntity
  8
0
100
AcDbSpline
 62
7
  6
CONTINUOUS
 70
0
 71
3
 72
11
 73
7
 74
0
 42
0.0000001
 43
0.0000001
 44
0.0000000001
 40
0.0
 40
0.0
 40
0.0
 40
0.0
 40
0.2600307918
 40
0.5283882152
 40
0.7814357452
 40
1.0
 40
1.0
 40
1.0
 40
1.0
 10
14.2870561775
 20
12.164467936
 30
0.0
 10
14.2932318213
 20
12.164467936
 30
0.0
 10
14.3058043832
 20
12.1628816179
 30
0.0
 10
14.3234783308
 20
12.1568221111
 30
0.0
 10
14.3386695919
 20
12.1477425289
 30
0.0
 10
14.3466780452
 20
12.1395888039
 30
0.0
 10
14.3494932148
 20
12.1352276675
 30
0.0
  0
SPLINE
  5
282
100
AcDbEntity
  8
0
100
AcDbSpline
 62
7
  6
CONTINUOUS
 70
0
 71
3
 72
9
 73
5
 74
0
 42
0.0000001
 43
0.0000001
 44
0.0000000001
 40
0.0
 40
0.0
 40
0.0
 40
0.0
 40
0.4753060626
 40
1.0
 40
1.0
 40
1.0
 40
1.0
 10
13.769297313
 20
12.1352276675
 30
0.0
 10
13.7819059074
 20
12.1156949897
 30
0.0
 10
13.8129593718
 20
12.0774684636
 30
0.0
 10
13.8498142517
 20
12.0450147006
 30
0.0
 10
13.8701649922
 20
12.0293778956
 30
0.0
  0
SPLINE
  5
283
100
AcDbEntity
  8
0
100
AcDbSpline
 62
7
  6
CONTINUOUS
 70
0
 71
3
 72
12
 73
8
 74
0
 42
0.0000001
 43
0.0000001
 44
0.0000000001
 40
0.0
 40
0.0
 40
0.0
 40
0.0
 40
0.3031772954
 40
0.5689627479
 40
0.7967048203
 40
0.9002206
 40
1.0
 40
1.0
 40
1.0
 40
1.0
 10
16.9802714345
 20
12.0039261489
 30
0.0
 10
16.9864051439
 20
12.0039261489
 30
0.0
 10
16.9979624608
 20
12.0049004311
 30
0.0
 10
17.0134948532
 20
12.0097316522
 30
0.0
 10
17.0237067921
 20
12.0167108172
 30
0.0
 10
17.0290619291
 20
12.0236744668
 30
0.0
 10
17.0307897228
 20
12.0274552601
 30
0.0
 10
17.031404979
 20
12.0293778956
 30
0.0
  0
SPLINE
  5
284
100
AcDbEntity
  8
0
100
AcDbSpline
 62
7
  6
CONTINUOUS
 70
0
 71
3
 72
11
 73
7
 74
0
 42
0.0000001
 43
0.0000001
 44
0.0000000001
 40
0.0
 40
0.0
 40
0.0
 40
0.0
 40
0.2413699729
 40
0.4964391891
 40
0.7533551958
 40
1.0
 40
1.0
 40
1.0
 40
1.0
 10
16.7711445008
 20
12.0293778956
 30
0.0
 10
16.7763444864
 20
12.0253824066
 30
0.0
 10
16.7878609841
 20
12.0182064122
 30
0.0
 10
16.8068026346
 20
12.0102554442
 30
0.0
 10
16.8268582554
 20
12.0051896684
 30
0.0
 10
16.8405568141
 20
12.0039261489
 30
0.0
 10
16.8472578517
 20
12.0039261489
 30
0.0
  0
SPLINE
  5
285
100
AcDbEntity
  8
0
100
AcDbSpline
 62
7
  6
CONTINUOUS
 70
0
 71
3
 72
9
 73
5
 74
0
 42
0.0000001
 43
0.0000001
 44
0.0000000001
 40
0.0
 40
0.0
 40
0.0
 40
0.0
 40
0.475306739
 40
1.0
 40
1.0
 40
1.0
 40
1.0
 10
16.6702768217
 20
12.1352276675
 30
0.0
 10
16.6828854304
 20
12.1156949675
 30
0.0
 10
16.7139392646
 20
12.0774687765
 30
0.0
 10
16.7507937924
 20
12.045014676
 30
0.0
 10
16.7711445008
 20
12.0293778956
 30
0.0
  0
SPLINE
  5
286
100
AcDbEntity
  8
0
100
AcDbSpline
 62
7
  6
CONTINUOUS
 70
0
 71
3
 72
12
 73
8
 74
0
 42
0.0000001
 43
0.0000001
 44
0.0000000001
 40
0.0
 40
0.0
 40
0.0
 40
0.0
 40
0.3031772954
 40
0.5689627479
 40
0.7967048203
 40
0.9002206
 40
1.0
 40
1.0
 40
1.0
 40
1.0
 10
16.4000755328
 20
12.0039261489
 30
0.0
 10
16.4062092422
 20
12.0039261489
 30
0.0
 10
16.4177665591
 20
12.0049004311
 30
0.0
 10
16.4332989515
 20
12.0097316522
 30
0.0
 10
16.4435108904
 20
12.0167108172
 30
0.0
 10
16.4488660274
 20
12.0236744668
 30
0.0
 10
16.4505938211
 20
12.0274552601
 30
0.0
 10
16.4512090773
 20
12.0293778956
 30
0.0
  0
SPLINE
  5
287
100
AcDbEntity
  8
0
100
AcDbSpline
 62
7
  6
CONTINUOUS
 70
0
 71
3
 72
11
 73
7
 74
0
 42
0.0000001
 43
0.0000001
 44
0.0000000001
 40
0.0
 40
0.0
 40
0.0
 40
0.0
 40
0.2413699729
 40
0.4964391891
 40
0.7533551958
 40
1.0
 40
1.0
 40
1.0
 40
1.0
 10
16.1909485991
 20
12.0293778956
 30
0.0
 10
16.1961485847
 20
12.0253824066
 30
0.0
 10
16.2076650824
 20
12.0182064122
 30
0.0
 10
16.2266067329
 20
12.0102554442
 30
0.0
 10
16.2466623537
 20
12.0051896684
 30
0.0
 10
16.2603609123
 20
12.0039261489
 30
0.0
 10
16.26706195
 20
12.0039261489
 30
0.0
  0
SPLINE
  5
288
100
AcDbEntity
  8
0
100
AcDbSpline
 62
7
  6
CONTINUOUS
 70
0
 71
3
 72
9
 73
5
 74
0
 42
0.0000001
 43
0.0000001
 44
0.0000000001
 40
0.0
 40
0.0
 40
0.0
 40
0.0
 40
0.475306739
 40
1.0
 40
1.0
 40
1.0
 40
1.0
 10
16.09008092
 20
12.1352276675
 30
0.0
 10
16.1026895287
 20
12.1156949675
 30
0.0
 10
16.1337433628
 20
12.0774687765
 30
0.0
 10
16.1705978907
 20
12.045014676
 30
0.0
 10
16.1909485991
 20
12.0293778956
 30
0.0
  0
SPLINE
  5
289
100
AcDbEntity
  8
0
100
AcDbSpline
 62
7
  6
CONTINUOUS
 70
0
 71
3
 72
12
 73
8
 74
0
 42
0.0000001
 43
0.0000001
 44
0.0000000001
 40
0.0
 40
0.0
 40
0.0
 40
0.0
 40
0.3031772954
 40
0.5689627479
 40
0.7967048203
 40
0.9002206
 40
1.0
 40
1.0
 40
1.0
 40
1.0
 10
15.8198796311
 20
12.0039261489
 30
0.0
 10
15.8260133405
 20
12.0039261489
 30
0.0
 10
15.8375706574
 20
12.0049004311
 30
0.0
 10
15.8531030498
 20
12.0097316522
 30
0.0
 10
15.8633149887
 20
12.0167108172
 30
0.0
 10
15.8686701256
 20
12.0236744668
 30
0.0
 10
15.8703979194
 20
12.0274552601
 30
0.0
 10
15.8710131755
 20
12.0293778956
 30
0.0
  0
SPLINE
  5
28A
100
AcDbEntity
  8
0
100
AcDbSpline
 62
7
  6
CONTINUOUS
 70
0
 71
3
 72
11
 73
7
 74
0
 42
0.0000001
 43
0.0000001
 44
0.0000000001
 40
0.0
 40
0.0
 40
0.0
 40
0.0
 40
0.2413699729
 40
0.4964391891
 40
0.7533551958
 40
1.0
 40
1.0
 40
1.0
 40
1.0
 10
15.6107526974
 20
12.0293778956
 30
0.0
 10
15.615952683
 20
12.0253824066
 30
0.0
 10
15.6274691806
 20
12.0182064122
 30
0.0
 10
15.6464108311
 20
12.0102554442
 30
0.0
 10
15.6664664519
 20
12.0051896684
 30
0.0
 10
15.6801650106
 20
12.0039261489
 30
0.0
 10
15.6868660483
 20
12.0039261489
 30
0.0
  0
SPLINE
  5
28B
100
AcDbEntity
  8
0
100
AcDbSpline
 62
7
  6
CONTINUOUS
 70
0
 71
3
 72
9
 73
5
 74
0
 42
0.0000001
 43
0.0000001
 44
0.0000000001
 40
0.0
 40
0.0
 40
0.0
 40
0.0
 40
0.4753068025
 40
1.0
 40
1.0
 40
1.0
 40
1.0
 10
15.5098850182
 20
12.1352276675
 30
0.0
 10
15.5224936286
 20
12.1156949649
 30
0.0
 10
15.5535474634
 20
12.0774687742
 30
0.0
 10
15.5904019914
 20
12.0450146741
 30
0.0
 10
15.6107526974
 20
12.0293778956
 30
0.0
  0
SPLINE
  5
28C
100
AcDbEntity
  8
0
100
AcDbSpline
 62
7
  6
CONTINUOUS
 70
0
 71
3
 72
12
 73
8
 74
0
 42
0.0000001
 43
0.0000001
 44
0.0000000001
 40
0.0
 40
0.0
 40
0.0
 40
0.0
 40
0.3031772954
 40
0.5689627479
 40
0.7967048203
 40
0.9002206
 40
1.0
 40
1.0
 40
1.0
 40
1.0
 10
15.2396837293
 20
12.0039261489
 30
0.0
 10
15.2458174387
 20
12.0039261489
 30
0.0
 10
15.2573747556
 20
12.0049004311
 30
0.0
 10
15.272907148
 20
12.0097316522
 30
0.0
 10
15.2831190869
 20
12.0167108172
 30
0.0
 10
15.2884742239
 20
12.0236744668
 30
0.0
 10
15.2902020176
 20
12.0274552601
 30
0.0
 10
15.2908172738
 20
12.0293778956
 30
0.0
  0
SPLINE
  5
28D
100
AcDbEntity
  8
0
100
AcDbSpline
 62
7
  6
CONTINUOUS
 70
0
 71
3
 72
11
 73
7
 74
0
 42
0.0000001
 43
0.0000001
 44
0.0000000001
 40
0.0
 40
0.0
 40
0.0
 40
0.0
 40
0.2413699729
 40
0.4964391891
 40
0.7533551958
 40
1.0
 40
1.0
 40
1.0
 40
1.0
 10
15.0305567956
 20
12.0293778956
 30
0.0
 10
15.0357567812
 20
12.0253824066
 30
0.0
 10
15.0472732789
 20
12.0182064122
 30
0.0
 10
15.0662149294
 20
12.0102554442
 30
0.0
 10
15.0862705502
 20
12.0051896684
 30
0.0
 10
15.0999691089
 20
12.0039261489
 30
0.0
 10
15.1066701465
 20
12.0039261489
 30
0.0
  0
SPLINE
  5
28E
100
AcDbEntity
  8
0
100
AcDbSpline
 62
7
  6
CONTINUOUS
 70
0
 71
3
 72
9
 73
5
 74
0
 42
0.0000001
 43
0.0000001
 44
0.0000000001
 40
0.0
 40
0.0
 40
0.0
 40
0.0
 40
0.4753068025
 40
1.0
 40
1.0
 40
1.0
 40
1.0
 10
14.9296891165
 20
12.1352276675
 30
0.0
 10
14.9422977269
 20
12.1156949649
 30
0.0
 10
14.9733515616
 20
12.0774687742
 30
0.0
 10
15.0102060897
 20
12.0450146741
 30
0.0
 10
15.0305567956
 20
12.0293778956
 30
0.0
  0
SPLINE
  5
28F
100
AcDbEntity
  8
0
100
AcDbSpline
 62
7
  6
CONTINUOUS
 70
0
 71
3
 72
12
 73
8
 74
0
 42
0.0000001
 43
0.0000001
 44
0.0000000001
 40
0.0
 40
0.0
 40
0.0
 40
0.0
 40
0.3031772954
 40
0.5689627479
 40
0.7967048203
 40
0.9002206
 40
1.0
 40
1.0
 40
1.0
 40
1.0
 10
14.6594878276
 20
12.0039261489
 30
0.0
 10
14.665621537
 20
12.0039261489
 30
0.0
 10
14.6771788539
 20
12.0049004311
 30
0.0
 10
14.6927112463
 20
12.0097316522
 30
0.0
 10
14.7029231852
 20
12.0167108172
 30
0.0
 10
14.7082783222
 20
12.0236744668
 30
0.0
 10
14.7100061159
 20
12.0274552601
 30
0.0
 10
14.7106213721
 20
12.0293778956
 30
0.0
  0
SPLINE
  5
290
100
AcDbEntity
  8
0
100
AcDbSpline
 62
7
  6
CONTINUOUS
 70
0
 71
3
 72
11
 73
7
 74
0
 42
0.0000001
 43
0.0000001
 44
0.0000000001
 40
0.0
 40
0.0
 40
0.0
 40
0.0
 40
0.2413699729
 40
0.4964391891
 40
0.7533551958
 40
1.0
 40
1.0
 40
1.0
 40
1.0
 10
14.4503608939
 20
12.0293778956
 30
0.0
 10
14.4555608795
 20
12.0253824066
 30
0.0
 10
14.4670773772
 20
12.0182064122
 30
0.0
 10
14.4860190277
 20
12.0102554442
 30
0.0
 10
14.5060746485
 20
12.0051896684
 30
0.0
 10
14.5197732071
 20
12.0039261489
 30
0.0
 10
14.5264742448
 20
12.0039261489
 30
0.0
  0
SPLINE
  5
291
100
AcDbEntity
  8
0
100
AcDbSpline
 62
7
  6
CONTINUOUS
 70
0
 71
3
 72
9
 73
5
 74
0
 42
0.0000001
 43
0.0000001
 44
0.0000000001
 40
0.0
 40
0.0
 40
0.0
 40
0.0
 40
0.4753060626
 40
1.0
 40
1.0
 40
1.0
 40
1.0
 10
14.3494932148
 20
12.1352276675
 30
0.0
 10
14.3621018091
 20
12.1156949897
 30
0.0
 10
14.3931552735
 20
12.0774684636
 30
0.0
 10
14.4300101534
 20
12.0450147006
 30
0.0
 10
14.4503608939
 20
12.0293778956
 30
0.0
  0
SPLINE
  5
292
100
AcDbEntity
  8
0
100
AcDbSpline
 62
7
  6
CONTINUOUS
 70
0
 71
3
 72
12
 73
8
 74
0
 42
0.0000001
 43
0.0000001
 44
0.0000000001
 40
0.0
 40
0.0
 40
0.0
 40
0.0
 40
0.3031772954
 40
0.5689627479
 40
0.7967048203
 40
0.9002206
 40
1.0
 40
1.0
 40
1.0
 40
1.0
 10
14.0792919259
 20
12.0039261489
 30
0.0
 10
14.0854256353
 20
12.0039261489
 30
0.0
 10
14.0969829522
 20
12.0049004311
 30
0.0
 10
14.1125153446
 20
12.0097316522
 30
0.0
 10
14.1227272835
 20
12.0167108172
 30
0.0
 10
14.1280824204
 20
12.0236744668
 30
0.0
 10
14.1298102142
 20
12.0274552601
 30
0.0
 10
14.1304254703
 20
12.0293778956
 30
0.0
  0
SPLINE
  5
293
100
AcDbEntity
  8
0
100
AcDbSpline
 62
7
  6
CONTINUOUS
 70
0
 71
3
 72
11
 73
7
 74
0
 42
0.0000001
 43
0.0000001
 44
0.0000000001
 40
0.0
 40
0.0
 40
0.0
 40
0.0
 40
0.2413699729
 40
0.4964391891
 40
0.7533551958
 40
1.0
 40
1.0
 40
1.0
 40
1.0
 10
13.8701649922
 20
12.0293778956
 30
0.0
 10
13.8753649778
 20
12.0253824066
 30
0.0
 10
13.8868814754
 20
12.0182064122
 30
0.0
 10
13.9058231259
 20
12.0102554442
 30
0.0
 10
13.9258787467
 20
12.0051896684
 30
0.0
 10
13.9395773054
 20
12.0039261489
 30
0.0
 10
13.9462783431
 20
12.0039261489
 30
0.0
  0
SPLINE
  5
294
100
AcDbEntity
  8
0
100
AcDbSpline
 62
7
  6
CONTINUOUS
 70
0
 71
3
 72
11
 73
7
 74
0
 42
0.0000001
 43
0.0000001
 44
0.0000000001
 40
0.0
 40
0.0
 40
0.0
 40
0.0
 40
0.2600307918
 40
0.5283882152
 40
0.7814357452
 40
1.0
 40
1.0
 40
1.0
 40
1.0
 10
14.8672520792
 20
12.164467936
 30
0.0
 10
14.873427723
 20
12.164467936
 30
0.0
 10
14.8860002849
 20
12.1628816179
 30
0.0
 10
14.9036742326
 20
12.1568221111
 30
0.0
 10
14.9188654936
 20
12.1477425289
 30
0.0
 10
14.926873947
 20
12.1395888039
 30
0.0
 10
14.9296891165
 20
12.1352276675
 30
0.0
  0
SPLINE
  5
295
100
AcDbEntity
  8
0
100
AcDbSpline
 62
7
  6
CONTINUOUS
 70
0
 71
3
 72
11
 73
7
 74
0
 42
0.0000001
 43
0.0000001
 44
0.0000000001
 40
0.0
 40
0.0
 40
0.0
 40
0.0
 40
0.2600307918
 40
0.5283882152
 40
0.7814357452
 40
1.0
 40
1.0
 40
1.0
 40
1.0
 10
15.4474479809
 20
12.164467936
 30
0.0
 10
15.4536236247
 20
12.164467936
 30
0.0
 10
15.4661961866
 20
12.1628816179
 30
0.0
 10
15.4838701343
 20
12.1568221111
 30
0.0
 10
15.4990613954
 20
12.1477425289
 30
0.0
 10
15.5070698487
 20
12.1395888039
 30
0.0
 10
15.5098850182
 20
12.1352276675
 30
0.0
  0
SPLINE
  5
296
100
AcDbEntity
  8
0
100
AcDbSpline
 62
7
  6
CONTINUOUS
 70
0
 71
3
 72
11
 73
7
 74
0
 42
0.0000001
 43
0.0000001
 44
0.0000000001
 40
0.0
 40
0.0
 40
0.0
 40
0.0
 40
0.2600307918
 40
0.5283882152
 40
0.7814357452
 40
1.0
 40
1.0
 40
1.0
 40
1.0
 10
16.0276438827
 20
12.164467936
 30
0.0
 10
16.0338195265
 20
12.164467936
 30
0.0
 10
16.0463920884
 20
12.1628816179
 30
0.0
 10
16.064066036
 20
12.1568221111
 30
0.0
 10
16.0792572971
 20
12.1477425289
 30
0.0
 10
16.0872657504
 20
12.1395888039
 30
0.0
 10
16.09008092
 20
12.1352276675
 30
0.0
  0
SPLINE
  5
297
100
AcDbEntity
  8
0
100
AcDbSpline
 62
7
  6
CONTINUOUS
 70
0
 71
3
 72
11
 73
7
 74
0
 42
0.0000001
 43
0.0000001
 44
0.0000000001
 40
0.0
 40
0.0
 40
0.0
 40
0.0
 40
0.2600307918
 40
0.5283882152
 40
0.7814357452
 40
1.0
 40
1.0
 40
1.0
 40
1.0
 10
16.6078397844
 20
12.164467936
 30
0.0
 10
16.6140154282
 20
12.164467936
 30
0.0
 10
16.6265879901
 20
12.1628816179
 30
0.0
 10
16.6442619378
 20
12.1568221111
 30
0.0
 10
16.6594531988
 20
12.1477425289
 30
0.0
 10
16.6674616522
 20
12.1395888039
 30
0.0
 10
16.6702768217
 20
12.1352276675
 30
0.0
  0
SPLINE
  5
298
100
AcDbEntity
  8
0
100
AcDbSpline
 62
7
  6
CONTINUOUS
 70
0
 71
3
 72
11
 73
7
 74
0
 42
0.0000001
 43
0.0000001
 44
0.0000000001
 40
0.0
 40
0.0
 40
0.0
 40
0.0
 40
0.2391548267
 40
0.482880472
 40
0.7353502518
 40
1.0
 40
1.0
 40
1.0
 40
1.0
 10
16.4516541094
 20
12.030792948
 30
0.0
 10
16.4541519266
 20
12.0388762692
 30
0.0
 10
16.4577965598
 20
12.05566565
 30
0.0
 10
16.4589710997
 20
12.0817658189
 30
0.0
 10
16.455895016
 20
12.1086087662
 30
0.0
 10
16.4511711991
 20
12.126352723
 30
0.0
 10
16.4481897094
 20
12.1352276675
 30
0.0
  0
SPLINE
  5
299
100
AcDbEntity
  8
0
100
AcDbSpline
 62
7
  6
CONTINUOUS
 70
0
 71
3
 72
9
 73
5
 74
0
 42
0.0000001
 43
0.0000001
 44
0.0000000001
 40
0.0
 40
0.0
 40
0.0
 40
0.0
 40
0.5171837774
 40
1.0
 40
1.0
 40
1.0
 40
1.0
 10
15.8679938077
 20
12.1352276675
 30
0.0
 10
15.8673203464
 20
12.137232347
 30
0.0
 10
15.8664935278
 20
12.1413030343
 30
0.0
 10
15.867009427
 20
12.1454497597
 30
0.0
 10
15.8675922658
 20
12.1473360147
 30
0.0
  0
SPLINE
  5
29A
100
AcDbEntity
  8
0
100
AcDbSpline
 62
7
  6
CONTINUOUS
 70
0
 71
3
 72
9
 73
5
 74
0
 42
0.0000001
 43
0.0000001
 44
0.0000000001
 40
0.0
 40
0.0
 40
0.0
 40
0.0
 40
0.5171837774
 40
1.0
 40
1.0
 40
1.0
 40
1.0
 10
14.1274061025
 20
12.1352276675
 30
0.0
 10
14.1267326412
 20
12.137232347
 30
0.0
 10
14.1259058226
 20
12.1413030343
 30
0.0
 10
14.1264217218
 20
12.1454497597
 30
0.0
 10
14.1270045606
 20
12.1473360147
 30
0.0
  0
SPLINE
  5
29B
100
AcDbEntity
  8
0
100
AcDbSpline
 62
7
  6
CONTINUOUS
 70
0
 71
3
 72
9
 73
5
 74
0
 42
0.0000001
 43
0.0000001
 44
0.0000000001
 40
0.0
 40
0.0
 40
0.0
 40
0.0
 40
0.5171837774
 40
1.0
 40
1.0
 40
1.0
 40
1.0
 10
16.4481897094
 20
12.1352276675
 30
0.0
 10
16.4475162482
 20
12.137232347
 30
0.0
 10
16.4466894295
 20
12.1413030343
 30
0.0
 10
16.4472053287
 20
12.1454497597
 30
0.0
 10
16.4477881676
 20
12.1473360147
 30
0.0
  0
SPLINE
  5
29C
100
AcDbEntity
  8
0
100
AcDbSpline
 62
7
  6
CONTINUOUS
 70
0
 71
3
 72
10
 73
6
 74
0
 42
0.0000001
 43
0.0000001
 44
0.0000000001
 40
0.0
 40
0.0
 40
0.0
 40
0.0
 40
0.2394701103
 40
0.483543386
 40
1.0
 40
1.0
 40
1.0
 40
1.0
 10
14.7110663933
 20
12.0307929511
 30
0.0
 10
14.7135639555
 20
12.038875876
 30
0.0
 10
14.7172056846
 20
12.055669971
 30
0.0
 10
14.7188157083
 20
12.0910859143
 30
0.0
 10
14.7134123263
 20
12.1179321908
 30
0.0
 10
14.7076020042
 20
12.1352276675
 30
0.0
  0
SPLINE
  5
29D
100
AcDbEntity
  8
0
100
AcDbSpline
 62
7
  6
CONTINUOUS
 70
0
 71
3
 72
9
 73
5
 74
0
 42
0.0000001
 43
0.0000001
 44
0.0000000001
 40
0.0
 40
0.0
 40
0.0
 40
0.0
 40
0.5171837774
 40
1.0
 40
1.0
 40
1.0
 40
1.0
 10
17.0283856111
 20
12.1352276675
 30
0.0
 10
17.0277121499
 20
12.137232347
 30
0.0
 10
17.0268853312
 20
12.1413030343
 30
0.0
 10
17.0274012305
 20
12.1454497597
 30
0.0
 10
17.0279840693
 20
12.1473360147
 30
0.0
  0
SPLINE
  5
29E
100
AcDbEntity
  8
0
100
AcDbSpline
 62
7
  6
CONTINUOUS
 70
0
 71
3
 72
11
 73
7
 74
0
 42
0.0000001
 43
0.0000001
 44
0.0000000001
 40
0.0
 40
0.0
 40
0.0
 40
0.0
 40
0.2391548279
 40
0.4828804072
 40
0.735350205
 40
1.0
 40
1.0
 40
1.0
 40
1.0
 10
15.8714582077
 20
12.030792948
 30
0.0
 10
15.8739560248
 20
12.0388762693
 30
0.0
 10
15.8776006577
 20
12.0556656477
 30
0.0
 10
15.878775198
 20
12.081765815
 30
0.0
 10
15.875699115
 20
12.1086087622
 30
0.0
 10
15.8709752979
 20
12.1263527214
 30
0.0
 10
15.8679938077
 20
12.1352276675
 30
0.0
  0
SPLINE
  5
29F
100
AcDbEntity
  8
0
100
AcDbSpline
 62
7
  6
CONTINUOUS
 70
0
 71
3
 72
11
 73
7
 74
0
 42
0.0000001
 43
0.0000001
 44
0.0000000001
 40
0.0
 40
0.0
 40
0.0
 40
0.0
 40
0.2391548267
 40
0.482880472
 40
0.7353502518
 40
1.0
 40
1.0
 40
1.0
 40
1.0
 10
17.0318500112
 20
12.030792948
 30
0.0
 10
17.0343478283
 20
12.0388762692
 30
0.0
 10
17.0379924615
 20
12.05566565
 30
0.0
 10
17.0391670014
 20
12.0817658189
 30
0.0
 10
17.0360909177
 20
12.1086087662
 30
0.0
 10
17.0313671009
 20
12.126352723
 30
0.0
 10
17.0283856111
 20
12.1352276675
 30
0.0
  0
SPLINE
  5
2A0
100
AcDbEntity
  8
0
100
AcDbSpline
 62
7
  6
CONTINUOUS
 70
0
 71
3
 72
11
 73
7
 74
0
 42
0.0000001
 43
0.0000001
 44
0.0000000001
 40
0.0
 40
0.0
 40
0.0
 40
0.0
 40
0.2391548279
 40
0.4828804072
 40
0.735350205
 40
1.0
 40
1.0
 40
1.0
 40
1.0
 10
15.2912623059
 20
12.030792948
 30
0.0
 10
15.2937601231
 20
12.0388762693
 30
0.0
 10
15.2974047559
 20
12.0556656477
 30
0.0
 10
15.2985792962
 20
12.081765815
 30
0.0
 10
15.2955032133
 20
12.1086087622
 30
0.0
 10
15.2907793962
 20
12.1263527214
 30
0.0
 10
15.2877979059
 20
12.1352276675
 30
0.0
  0
SPLINE
  5
2A1
100
AcDbEntity
  8
0
100
AcDbSpline
 62
7
  6
CONTINUOUS
 70
0
 71
3
 72
9
 73
5
 74
0
 42
0.0000001
 43
0.0000001
 44
0.0000000001
 40
0.0
 40
0.0
 40
0.0
 40
0.0
 40
0.5171837774
 40
1.0
 40
1.0
 40
1.0
 40
1.0
 10
14.7076020042
 20
12.1352276675
 30
0.0
 10
14.706928543
 20
12.137232347
 30
0.0
 10
14.7061017243
 20
12.1413030343
 30
0.0
 10
14.7066176235
 20
12.1454497597
 30
0.0
 10
14.7072004624
 20
12.1473360147
 30
0.0
  0
SPLINE
  5
2A2
100
AcDbEntity
  8
0
100
AcDbSpline
 62
7
  6
CONTINUOUS
 70
0
 71
3
 72
10
 73
6
 74
0
 42
0.0000001
 43
0.0000001
 44
0.0000000001
 40
0.0
 40
0.0
 40
0.0
 40
0.0
 40
0.2394701103
 40
0.483543386
 40
1.0
 40
1.0
 40
1.0
 40
1.0
 10
14.1308704915
 20
12.0307929511
 30
0.0
 10
14.1333680538
 20
12.038875876
 30
0.0
 10
14.1370097828
 20
12.055669971
 30
0.0
 10
14.1386198066
 20
12.0910859143
 30
0.0
 10
14.1332164246
 20
12.1179321908
 30
0.0
 10
14.1274061025
 20
12.1352276675
 30
0.0
  0
SPLINE
  5
2A3
100
AcDbEntity
  8
0
100
AcDbSpline
 62
7
  6
CONTINUOUS
 70
0
 71
3
 72
9
 73
5
 74
0
 42
0.0000001
 43
0.0000001
 44
0.0000000001
 40
0.0
 40
0.0
 40
0.0
 40
0.0
 40
0.5171837774
 40
1.0
 40
1.0
 40
1.0
 40
1.0
 10
15.2877979059
 20
12.1352276675
 30
0.0
 10
15.2871244447
 20
12.137232347
 30
0.0
 10
15.286297626
 20
12.1413030343
 30
0.0
 10
15.2868135253
 20
12.1454497597
 30
0.0
 10
15.2873963641
 20
12.1473360147
 30
0.0
  0
ENDSEC
  0
SECTION
  2
OBJECTS
  0
DICTIONARY
  5
C
100
AcDbDictionary
280
0
281
1
  3
ACAD_GROUP
350
D
  3
ACAD_MLINESTYLE
350
17
  3
ACAD_LAYOUT
350
1A
  3
ACAD_PLOTSETTINGS
350
19
  3
ACAD_PLOTSTYLENAME
350
E
  0
DICTIONARY
  5
D
102
{ACAD_REACTORS
330
C
102
}
100
AcDbDictionary
280
0
281
1
  0
ACDBDICTIONARYWDFLT
  5
E
102
{ACAD_REACTORS
330
C
102
}
100
AcDbDictionary
281
1
  3
Normal
350
F
100
AcDbDictionaryWithDefault
340
F
  0
DICTIONARY
  5
17
102
{ACAD_REACTORS
330
C
102
}
100
AcDbDictionary
280
0
281
1
  3
Standard
350
18
  0
DICTIONARY
  5
19
102
{ACAD_REACTORS
330
C
102
}
100
AcDbDictionary
281
1
  0
DICTIONARY
  5
1A
102
{ACAD_REACTORS
330
C
102
}
100
AcDbDictionary
281
1
  3
Model
350
2A4
  3
Layout1
350
2A5
  0
ACDBPLACEHOLDER
  5
F
102
{ACAD_REACTORS
330
E
102
}
  0
MLINESTYLE
  5
18
102
{ACAD_REACTORS
330
17
102
}
100
AcDbMlineStyle
  2
STANDARD
 70
0
  3

 62
256
 51
90.0
 52
90.0
 71
2
 49
0.5
 62
256
  6
BYLAYER
 49
-0.5
 62
256
  6
BYLAYER
  0
LAYOUT
  5
2A4
102
{ACAD_REACTORS
330
1A
102
}
100
AcDbPlotSettings
  1

  2
none_device
  4
ANSI_C_(22.00_x_17.00_Inches)
  6

 40
0.0
 41
0.0
 42
0.0
 43
0.0
 44
558.8
 45
431.8
 46
0.0
 47
0.0
 48
0.0
 49
0.0
140
0.0
141
0.0
142
1.0
143
1.0
 70
1024
 72
0
 73
0
 74
0
  7

 75
0
147
1.0
148
0.0
149
0.0
100
AcDbLayout
  1
Model
 70
0
 71
0
 10
0.0
 20
0.0
 11
22.0
 21
17.0
 12
0.0
 22
0.0
 32
0.0
 14
0.0
 24
0.0
 34
0.0
 15
0.0
 25
0.0
 35
0.0
146
0.0
 13
0.0
 23
0.0
 33
0.0
 16
1.0
 26
0.0
 36
0.0
 17
0.0
 27
1.0
 37
0.0
 76
0
330
216
345
0
346
0
  0
LAYOUT
  5
2A5
102
{ACAD_REACTORS
330
1A
102
}
100
AcDbPlotSettings
  1

  2
none_device
  4
ANSI_C_(22.00_x_17.00_Inches)
  6

 40
0.0
 41
0.0
 42
0.0
 43
0.0
 44
558.8
 45
431.8
 46
0.0
 47
0.0
 48
0.0
 49
0.0
140
0.0
141
0.0
142
1.0
143
1.0
 70
0
 72
0
 73
0
 74
0
  7

 75
0
147
1.0
148
0.0
149
0.0
100
AcDbLayout
  1
Layout1
 70
0
 71
1
 10
0.0
 20
0.0
 11
22.0
 21
17.0
 12
0.0
 22
0.0
 32
0.0
 14
0.0
 24
0.0
 34
0.0
 15
0.0
 25
0.0
 35
0.0
146
0.0
 13
0.0
 23
0.0
 33
0.0
 16
1.0
 26
0.0
 36
0.0
 17
0.0
 27
1.0
 37
0.0
 76
0
330
217
345
0
346
0
  0
ENDSEC
  0
EOF