999
DXF file: _cgs_temp_output.dxf
999
Pro/ENGINEER 2016360 by Parametric Technology Corporation
  0
SECTION
  2
HEADER
  9
$ACADVER
  1
AC1021
  9
$DWGCODEPAGE
  3
ANSI_1252
  9
$EXTMAX
 10
22.0
 20
17.0
 30
0.0
  9
$EXTMIN
 10
0.0
 20
0.0
 30
0.0
  9
$LIMMIN
 10
0.0
 20
0.0
  9
$LIMMAX
 10
22.0
 20
17.0
  9
$VIEWCTR
 10
11.0
 20
8.5
  9
$VIEWSIZE
 40
17.0
  9
$CLAYER
  8
0
  9
$LTSCALE
 40
1.21
  9
$CELTYPE
  6
BYLAYER
  9
$DIMSCALE
 40
1.0
  9
$DIMASZ
 40
0.1875
  9
$DIMEXO
 40
0.0625
  9
$DIMDLI
 40
0.836
  9
$DIMEXE
 40
0.125
  9
$DIMCEN
 40
0.198
  9
$DIMLFAC
 40
1.0
  9
$DIMBLK
  1
_CLOSED
  9
$DIMALT
 70
0
  9
$DIMALTF
 40
25.4
  9
$DIMTXT
 40
0.15625
  9
$DIMTOL
 70
0
  9
$DIMLIM
 70
0
  9
$DIMTFAC
 40
1.0
  9
$DIMGAP
 40
0.09
  9
$DIMDSEP
 70
46
  9
$AUNITS
 70
0
  9
$PDMODE
 70
3
  9
$PDSIZE
 40
0.3125
  9
$HANDSEED
  5
321
  9
$TILEMODE
 70
1
  9
$MEASUREMENT
 70
0
  9
$INSUNITS
 70
1
  0
ENDSEC
  0
SECTION
  2
CLASSES
  0
CLASS
  1
ACDBDICTIONARYWDFLT
  2
AcDbDictionaryWithDefault
  3
AutoCAD 2000
 90
0
 91
1
280
0
281
0
  0
CLASS
  1
ACDBPLACEHOLDER
  2
AcDbPlaceHolder
  3
AutoCAD 2000
 90
0
 91
1
280
0
281
0
  0
CLASS
  1
LAYOUT
  2
AcDbLayout
  3
AutoCAD 2000
 90
0
 91
0
280
0
281
0
  0
ENDSEC
  0
SECTION
  2
TABLES
  0
TABLE
  2
VPORT
  5
8
100
AcDbSymbolTable
 70
2
  0
VPORT
  5
1F4
100
AcDbSymbolTableRecord
100
AcDbViewportTableRecord
  2
*ACTIVE
 70
0
 10
0.0
 20
0.0
 11
1.0
 21
1.0
 12
11.0
 22
8.5
 13
0.0
 23
0.0
 14
1.0
 24
1.0
 15
0.0
 25
0.0
 16
0.0
 26
0.0
 36
1.0
 17
0.0
 27
0.0
 37
0.0
 40
17.0
 41
1.2941176471
 42
50.0
 43
0.0
 44
0.0
 50
0.0
 51
0.0
 71
0
 72
100
 73
1
 74
1
 75
0
 76
0
 77
0
 78
0
  0
ENDTAB
  0
TABLE
  2
LTYPE
  5
5
100
AcDbSymbolTable
 70
6
  0
LTYPE
  5
14
100
AcDbSymbolTableRecord
100
AcDbLinetypeTableRecord
  2
BYBLOCK
 70
0
  3

 72
65
 73
0
 40
0.0
  0
LTYPE
  5
15
100
AcDbSymbolTableRecord
100
AcDbLinetypeTableRecord
  2
BYLAYER
 70
0
  3

 72
65
 73
0
 40
0.0
  0
LTYPE
  5
16
100
AcDbSymbolTableRecord
100
AcDbLinetypeTableRecord
  2
CONTINUOUS
 70
64
  3
Solid line
 72
65
 73
0
 40
0.0
  0
LTYPE
  5
1F5
100
AcDbSymbolTableRecord
100
AcDbLinetypeTableRecord
  2
CENTER
 70
64
  3
____ _ ____ _ ____ _ ____ _ ____ _ ____ _ ____
 72
65
 73
4
 40
0.6
 49
0.375
 74
0
 49
-0.075
 74
0
 49
0.075
 74
0
 49
-0.075
 74
0
  0
LTYPE
  5
1F6
100
AcDbSymbolTableRecord
100
AcDbLinetypeTableRecord
  2
HIDDEN
 70
64
  3
- - - - - - - - - - - - - - - - - - - -
 72
65
 73
2
 40
0.2
 49
0.1
 74
0
 49
-0.1
 74
0
  0
LTYPE
  5
1F7
100
AcDbSymbolTableRecord
100
AcDbLinetypeTableRecord
  2
PHANTOM
 70
64
  3
_____ _ _ _____ _ _ _____ _ _ _____
 72
65
 73
6
 40
0.8
 49
0.45
 74
0
 49
-0.05
 74
0
 49
0.1
 74
0
 49
-0.05
 74
0
 49
0.1
 74
0
 49
-0.05
 74
0
  0
LTYPE
  5
1F8
100
AcDbSymbolTableRecord
100
AcDbLinetypeTableRecord
  2
DOT
 70
64
  3
. . . . . . . . . . . . . . . . . . . .
 72
65
 73
2
 40
0.2
 49
0.1
 74
0
 49
-0.1
 74
0
  0
LTYPE
  5
1F9
100
AcDbSymbolTableRecord
100
AcDbLinetypeTableRecord
  2
DASHED
 70
64
  3
- - - - - - - - - - - - - - - - - - - -
 72
65
 73
2
 40
0.2
 49
0.1
 74
0
 49
-0.1
 74
0
  0
ENDTAB
  0
TABLE
  2
LAYER
  5
2
100
AcDbSymbolTable
 70
36
  0
LAYER
  5
10
100
AcDbSymbolTableRecord
100
AcDbLayerTableRecord
  2
0
 70
0
 62
7
  6
CONTINUOUS
370
-3
390
F
  0
LAYER
  5
1FA
100
AcDbSymbolTableRecord
100
AcDbLayerTableRecord
  2
DEFAULT_1
 70
0
 62
7
  6
CENTER
370
-3
390
F
  0
LAYER
  5
1FB
100
AcDbSymbolTableRecord
100
AcDbLayerTableRecord
  2
DEFAULT_2
 70
0
 62
8
  6
HIDDEN
370
-3
390
F
  0
LAYER
  5
1FC
100
AcDbSymbolTableRecord
100
AcDbLayerTableRecord
  2
DEFAULT_3
 70
0
 62
7
  6
PHANTOM
370
-3
390
F
  0
LAYER
  5
1FD
100
AcDbSymbolTableRecord
100
AcDbLayerTableRecord
  2
01_ALL_DTM_PLN
 70
0
 62
7
  6
CONTINUOUS
370
-3
390
F
  0
LAYER
  5
1FE
100
AcDbSymbolTableRecord
100
AcDbLayerTableRecord
  2
01__ASM_ALL_DTM_PLN
 70
0
 62
7
  6
CONTINUOUS
370
-3
390
F
  0
LAYER
  5
1FF
100
AcDbSymbolTableRecord
100
AcDbLayerTableRecord
  2
01__ASM_DEF_DTM_PLN
 70
0
 62
7
  6
CONTINUOUS
370
-3
390
F
  0
LAYER
  5
200
100
AcDbSymbolTableRecord
100
AcDbLayerTableRecord
  2
01___PRT_ALL_DTM_PLN
 70
0
 62
7
  6
CONTINUOUS
370
-3
390
F
  0
LAYER
  5
201
100
AcDbSymbolTableRecord
100
AcDbLayerTableRecord
  2
01___PRT_DEF_DTM_PLN
 70
0
 62
7
  6
CONTINUOUS
370
-3
390
F
  0
LAYER
  5
202
100
AcDbSymbolTableRecord
100
AcDbLayerTableRecord
  2
02_ALL_AXES
 70
0
 62
7
  6
CONTINUOUS
370
-3
390
F
  0
LAYER
  5
203
100
AcDbSymbolTableRecord
100
AcDbLayerTableRecord
  2
02__ASM_ALL_AXES
 70
0
 62
7
  6
CONTINUOUS
370
-3
390
F
  0
LAYER
  5
204
100
AcDbSymbolTableRecord
100
AcDbLayerTableRecord
  2
02___PRT_ALL_AXES
 70
0
 62
7
  6
CONTINUOUS
370
-3
390
F
  0
LAYER
  5
205
100
AcDbSymbolTableRecord
100
AcDbLayerTableRecord
  2
03_ALL_CURVES
 70
0
 62
7
  6
CONTINUOUS
370
-3
390
F
  0
LAYER
  5
206
100
AcDbSymbolTableRecord
100
AcDbLayerTableRecord
  2
03__ASM_ALL_CURVES
 70
0
 62
7
  6
CONTINUOUS
370
-3
390
F
  0
LAYER
  5
207
100
AcDbSymbolTableRecord
100
AcDbLayerTableRecord
  2
03___PRT_ALL_CURVES
 70
0
 62
7
  6
CONTINUOUS
370
-3
390
F
  0
LAYER
  5
208
100
AcDbSymbolTableRecord
100
AcDbLayerTableRecord
  2
04_ALL_DTM_PNT
 70
0
 62
7
  6
CONTINUOUS
370
-3
390
F
  0
LAYER
  5
209
100
AcDbSymbolTableRecord
100
AcDbLayerTableRecord
  2
04__ASM_ALL_DTM_PNT
 70
0
 62
7
  6
CONTINUOUS
370
-3
390
F
  0
LAYER
  5
20A
100
AcDbSymbolTableRecord
100
AcDbLayerTableRecord
  2
04___PRT_ALL_DTM_PNT
 70
0
 62
7
  6
CONTINUOUS
370
-3
390
F
  0
LAYER
  5
20B
100
AcDbSymbolTableRecord
100
AcDbLayerTableRecord
  2
05_ALL_DTM_CSYS
 70
0
 62
7
  6
CONTINUOUS
370
-3
390
F
  0
LAYER
  5
20C
100
AcDbSymbolTableRecord
100
AcDbLayerTableRecord
  2
05__ASM_ALL_DTM_CSYS
 70
0
 62
7
  6
CONTINUOUS
370
-3
390
F
  0
LAYER
  5
20D
100
AcDbSymbolTableRecord
100
AcDbLayerTableRecord
  2
05__ASM_DEF_DTM_CSYS
 70
0
 62
7
  6
CONTINUOUS
370
-3
390
F
  0
LAYER
  5
20E
100
AcDbSymbolTableRecord
100
AcDbLayerTableRecord
  2
05___PRT_ALL_DTM_CSYS
 70
0
 62
7
  6
CONTINUOUS
370
-3
390
F
  0
LAYER
  5
20F
100
AcDbSymbolTableRecord
100
AcDbLayerTableRecord
  2
05___PRT_DEF_DTM_CSYS
 70
0
 62
7
  6
CONTINUOUS
370
-3
390
F
  0
LAYER
  5
210
100
AcDbSymbolTableRecord
100
AcDbLayerTableRecord
  2
06_ALL_SURFS
 70
0
 62
7
  6
CONTINUOUS
370
-3
390
F
  0
LAYER
  5
211
100
AcDbSymbolTableRecord
100
AcDbLayerTableRecord
  2
06__ASM_ALL_SURFS
 70
0
 62
7
  6
CONTINUOUS
370
-3
390
F
  0
LAYER
  5
212
100
AcDbSymbolTableRecord
100
AcDbLayerTableRecord
  2
06___PRT_ALL_SURFS
 70
0
 62
7
  6
CONTINUOUS
370
-3
390
F
  0
LAYER
  5
213
100
AcDbSymbolTableRecord
100
AcDbLayerTableRecord
  2
07__ASM_ALL_SKELETONS
 70
0
 62
7
  6
CONTINUOUS
370
-3
390
F
  0
LAYER
  5
214
100
AcDbSymbolTableRecord
100
AcDbLayerTableRecord
  2
LAYER_DIM
 70
0
 62
7
  6
CONTINUOUS
370
-3
390
F
  0
LAYER
  5
215
100
AcDbSymbolTableRecord
100
AcDbLayerTableRecord
  2
LAYER_FEATURE
 70
0
 62
7
  6
CONTINUOUS
370
-3
390
F
  0
LAYER
  5
216
100
AcDbSymbolTableRecord
100
AcDbLayerTableRecord
  2
LAYER_GEOM_FEAT
 70
0
 62
7
  6
CONTINUOUS
370
-3
390
F
  0
LAYER
  5
217
100
AcDbSymbolTableRecord
100
AcDbLayerTableRecord
  2
LAYER_PARAMETER_DIM
 70
0
 62
7
  6
CONTINUOUS
370
-3
390
F
  0
LAYER
  5
218
100
AcDbSymbolTableRecord
100
AcDbLayerTableRecord
  2
LAYER_PROTRUSION_FEAT
 70
0
 62
7
  6
CONTINUOUS
370
-3
390
F
  0
LAYER
  5
219
100
AcDbSymbolTableRecord
100
AcDbLayerTableRecord
  2
LAYER_ROUND_FEAT
 70
0
 62
7
  6
CONTINUOUS
370
-3
390
F
  0
ENDTAB
  0
TABLE
  2
STYLE
  5
3
100
AcDbSymbolTable
 70
1
  0
STYLE
  5
11
100
AcDbSymbolTableRecord
100
AcDbTextStyleTableRecord
  2
STANDARD
 70
0
 40
0.0
 41
0.8
 50
0.0
 71
0
 42
0.2
  3
txt
  4

  0
STYLE
  5
21A
100
AcDbSymbolTableRecord
100
AcDbTextStyleTableRecord
  2
TEXTSTYLE_1
 70
0
 40
0.0
 41
0.8
 50
0.0
 71
0
 42
0.2
  3
gdt
  4

  0
ENDTAB
  0
TABLE
  2
VIEW
  5
6
100
AcDbSymbolTable
 70
0
  0
ENDTAB
  0
TABLE
  2
UCS
  5
7
100
AcDbSymbolTable
 70
0
  0
ENDTAB
  0
TABLE
  2
APPID
  5
9
100
AcDbSymbolTable
 70
1
  0
APPID
  5
21B
100
AcDbSymbolTableRecord
100
AcDbRegAppTableRecord
  2
ACAD
 70
0
  0
ENDTAB
  0
TABLE
  2
BLOCK_RECORD
  5
1
100
AcDbSymbolTable
 70
0
  0
BLOCK_RECORD
  5
21C
100
AcDbSymbolTableRecord
100
AcDbBlockTableRecord
  2
*Model_Space
  0
BLOCK_RECORD
  5
21D
100
AcDbSymbolTableRecord
100
AcDbBlockTableRecord
  2
*Paper_Space
  0
ENDTAB
  0
TABLE
  2
DIMSTYLE
  5
A
100
AcDbSymbolTable
 70
1
100
AcDbDimStyleTable
 71
0
  0
DIMSTYLE
105
21E
100
AcDbSymbolTableRecord
100
AcDbDimStyleTableRecord
  2
STANDARD
 70
0
  3

  4

 40
1.0
 41
0.1875
 42
0.0625
 43
0.38
 44
0.125
 45
0.0
 46
0.0
 47
0.0001
 48
0.0001
140
0.15625
141
0.09
142
0.0
143
25.4
144
1.0
145
0.0
146
1.0
147
0.09
 71
0.0
 72
0.0
 73
1
 74
1
 75
0
 76
0
 77
0
 78
4
 79
1
170
0
171
3
172
0
173
0
174
0
175
0
176
0
177
0
178
0
270
2
179
4
271
4
272
4
273
2
274
2
275
0
280
0
281
0
282
0
283
1
284
4
285
0
286
0
287
3
288
0
340
11
278
46
  0
ENDTAB
  0
ENDSEC
  0
SECTION
  2
BLOCKS
  0
BLOCK
  5
20
100
AcDbEntity
  8
0
100
AcDbBlockBegin
  2
*Model_Space
 70
0
 10
0.0
 20
0.0
 30
0.0
  3
*Model_Space
  1

  0
ENDBLK
  5
21
100
AcDbEntity
  8
0
100
AcDbBlockEnd
  0
BLOCK
  5
1C
100
AcDbEntity
  8
0
100
AcDbBlockBegin
  2
*Paper_Space
 70
0
 10
0.0
 20
0.0
 30
0.0
  3
*Paper_Space
  1

  0
ENDBLK
  5
1D
100
AcDbEntity
  8
0
100
AcDbBlockEnd
  0
ENDSEC
  0
SECTION
  2
ENTITIES
  0
MTEXT
  5
21F
100
AcDbEntity
  8
0
100
AcDbMText
 62
7
  6
CONTINUOUS
  7
STANDARD
 71
1
 72
1
 10
15.9560215477
 20
0.9479130325
 30
0.0
 11
1.0
 21
0.0
 31
0.0
 44
0.9
  1
SCALE: 1:1.000
 40
0.3
 41
3.36
  0
LINE
  5
220
100
AcDbEntity
  8
0
100
AcDbLine
 62
7
  6
CONTINUOUS
 10
0.0
 20
0.0
 11
0.0
 21
17.0
  0
LINE
  5
221
100
AcDbEntity
  8
0
100
AcDbLine
 62
7
  6
CONTINUOUS
 10
0.0
 20
0.0
 11
22.0
 21
0.0
  0
LINE
  5
222
100
AcDbEntity
  8
0
100
AcDbLine
 62
7
  6
CONTINUOUS
 10
0.0
 20
17.0
 11
22.0
 21
17.0
  0
LINE
  5
223
100
AcDbEntity
  8
0
100
AcDbLine
 62
7
  6
CONTINUOUS
 10
22.0
 20
0.0
 11
22.0
 21
17.0
  0
LINE
  5
224
100
AcDbEntity
  8
0
100
AcDbLine
 62
7
  6
CONTINUOUS
 10
2.4428672762
 20
5.7101198968
 11
2.4428672762
 21
5.6251198968
  0
LINE
  5
225
100
AcDbEntity
  8
0
100
AcDbLine
 62
7
  6
CONTINUOUS
 10
2.4428672762
 20
5.6251198968
 11
2.5321406616
 21
5.3299225688
  0
LINE
  5
226
100
AcDbEntity
  8
0
100
AcDbLine
 62
7
  6
CONTINUOUS
 10
2.9428672762
 20
5.6251198968
 11
2.9428672762
 21
5.6751198968
  0
LINE
  5
227
100
AcDbEntity
  8
LAYER_FEATURE
100
AcDbLine
 62
7
  6
CONTINUOUS
 10
3.0678672762
 20
5.6751198968
 11
3.0678672762
 21
5.6251198968
  0
LINE
  5
228
100
AcDbEntity
  8
0
100
AcDbLine
 62
7
  6
CONTINUOUS
 10
2.8535938907
 20
5.3299225688
 11
2.9428672762
 21
5.6251198968
  0
LINE
  5
229
100
AcDbEntity
  8
LAYER_FEATURE
100
AcDbLine
 62
7
  6
CONTINUOUS
 10
3.0678672762
 20
5.6251198968
 11
3.1571406616
 21
5.3299225688
  0
LINE
  5
22A
100
AcDbEntity
  8
LAYER_FEATURE
100
AcDbLine
 62
7
  6
CONTINUOUS
 10
3.5678672762
 20
5.6251198968
 11
3.5678672762
 21
5.6751198968
  0
LINE
  5
22B
100
AcDbEntity
  8
LAYER_FEATURE
100
AcDbLine
 62
7
  6
CONTINUOUS
 10
3.6928672762
 20
5.6751198968
 11
3.6928672762
 21
5.6251198968
  0
LINE
  5
22C
100
AcDbEntity
  8
LAYER_FEATURE
100
AcDbLine
 62
7
  6
CONTINUOUS
 10
3.4785938907
 20
5.3299225688
 11
3.5678672762
 21
5.6251198968
  0
LINE
  5
22D
100
AcDbEntity
  8
LAYER_FEATURE
100
AcDbLine
 62
7
  6
CONTINUOUS
 10
3.6928672762
 20
5.6251198968
 11
3.7821406616
 21
5.3299225688
  0
LINE
  5
22E
100
AcDbEntity
  8
LAYER_FEATURE
100
AcDbLine
 62
7
  6
CONTINUOUS
 10
4.1928672762
 20
5.6251198968
 11
4.1928672762
 21
5.6751198968
  0
LINE
  5
22F
100
AcDbEntity
  8
LAYER_FEATURE
100
AcDbLine
 62
7
  6
CONTINUOUS
 10
4.3178672762
 20
5.6751198968
 11
4.3178672762
 21
5.6251198968
  0
LINE
  5
230
100
AcDbEntity
  8
LAYER_FEATURE
100
AcDbLine
 62
7
  6
CONTINUOUS
 10
4.1035938907
 20
5.3299225688
 11
4.1928672762
 21
5.6251198968
  0
LINE
  5
231
100
AcDbEntity
  8
LAYER_FEATURE
100
AcDbLine
 62
7
  6
CONTINUOUS
 10
4.3178672762
 20
5.6251198968
 11
4.4071406616
 21
5.3299225688
  0
LINE
  5
232
100
AcDbEntity
  8
LAYER_FEATURE
100
AcDbLine
 62
7
  6
CONTINUOUS
 10
4.8178672762
 20
5.6251198968
 11
4.8178672762
 21
5.6751198968
  0
LINE
  5
233
100
AcDbEntity
  8
LAYER_FEATURE
100
AcDbLine
 62
7
  6
CONTINUOUS
 10
4.7285938907
 20
5.3299225688
 11
4.8178672762
 21
5.6251198968
  0
LINE
  5
234
100
AcDbEntity
  8
LAYER_FEATURE
100
AcDbLine
 62
7
  6
CONTINUOUS
 10
4.9428672762
 20
5.6751198968
 11
4.9428672762
 21
5.6251198968
  0
LINE
  5
235
100
AcDbEntity
  8
LAYER_FEATURE
100
AcDbLine
 62
7
  6
CONTINUOUS
 10
4.9428672762
 20
5.6251198968
 11
5.0321406616
 21
5.3299225688
  0
LINE
  5
236
100
AcDbEntity
  8
LAYER_FEATURE
100
AcDbLine
 62
7
  6
CONTINUOUS
 10
5.4428672762
 20
5.6251198968
 11
5.4428672762
 21
5.6751198968
  0
LINE
  5
237
100
AcDbEntity
  8
LAYER_FEATURE
100
AcDbLine
 62
7
  6
CONTINUOUS
 10
5.5678672762
 20
5.6751198968
 11
5.5678672762
 21
5.6251198968
  0
LINE
  5
238
100
AcDbEntity
  8
LAYER_FEATURE
100
AcDbLine
 62
7
  6
CONTINUOUS
 10
5.3535938907
 20
5.3299225688
 11
5.4428672762
 21
5.6251198968
  0
LINE
  5
239
100
AcDbEntity
  8
LAYER_FEATURE
100
AcDbLine
 62
7
  6
CONTINUOUS
 10
5.5678672762
 20
5.6251198968
 11
5.6571406616
 21
5.3299225688
  0
LINE
  5
23A
100
AcDbEntity
  8
LAYER_FEATURE
100
AcDbLine
 62
7
  6
CONTINUOUS
 10
6.0678672762
 20
5.6251198968
 11
6.0678672762
 21
5.6751198968
  0
LINE
  5
23B
100
AcDbEntity
  8
LAYER_FEATURE
100
AcDbLine
 62
7
  6
CONTINUOUS
 10
5.9785938907
 20
5.3299225688
 11
6.0678672762
 21
5.6251198968
  0
LINE
  5
23C
100
AcDbEntity
  8
0
100
AcDbLine
 62
7
  6
CONTINUOUS
 10
2.5520820483
 20
5.3151198968
 11
2.833652504
 21
5.3151198968
  0
LINE
  5
23D
100
AcDbEntity
  8
LAYER_FEATURE
100
AcDbLine
 62
7
  6
CONTINUOUS
 10
3.1770820483
 20
5.3151198968
 11
3.458652504
 21
5.3151198968
  0
LINE
  5
23E
100
AcDbEntity
  8
LAYER_FEATURE
100
AcDbLine
 62
7
  6
CONTINUOUS
 10
3.8020820483
 20
5.3151198968
 11
4.083652504
 21
5.3151198968
  0
LINE
  5
23F
100
AcDbEntity
  8
LAYER_FEATURE
100
AcDbLine
 62
7
  6
CONTINUOUS
 10
4.4270820483
 20
5.3151198968
 11
4.708652504
 21
5.3151198968
  0
LINE
  5
240
100
AcDbEntity
  8
LAYER_FEATURE
100
AcDbLine
 62
7
  6
CONTINUOUS
 10
5.0520820483
 20
5.3151198968
 11
5.333652504
 21
5.3151198968
  0
LINE
  5
241
100
AcDbEntity
  8
LAYER_FEATURE
100
AcDbLine
 62
7
  6
CONTINUOUS
 10
5.6770820483
 20
5.3151198968
 11
5.958652504
 21
5.3151198968
  0
LINE
  5
242
100
AcDbEntity
  8
LAYER_FEATURE
100
AcDbLine
 62
7
  6
CONTINUOUS
 10
6.3020820483
 20
5.3151198968
 11
6.583652504
 21
5.3151198968
  0
LINE
  5
243
100
AcDbEntity
  8
LAYER_FEATURE
100
AcDbLine
 62
7
  6
CONTINUOUS
 10
6.9270820483
 20
5.3151198968
 11
7.208652504
 21
5.3151198968
  0
LINE
  5
244
100
AcDbEntity
  8
LAYER_FEATURE
100
AcDbLine
 62
7
  6
CONTINUOUS
 10
7.5520820483
 20
5.3151198968
 11
7.833652504
 21
5.3151198968
  0
LINE
  5
245
100
AcDbEntity
  8
LAYER_FEATURE
100
AcDbLine
 62
7
  6
CONTINUOUS
 10
8.1770820483
 20
5.3151198968
 11
8.458652504
 21
5.3151198968
  0
LINE
  5
246
100
AcDbEntity
  8
LAYER_FEATURE
100
AcDbLine
 62
7
  6
CONTINUOUS
 10
8.8020820483
 20
5.3151198968
 11
9.083652504
 21
5.3151198968
  0
LINE
  5
247
100
AcDbEntity
  8
LAYER_FEATURE
100
AcDbLine
 62
7
  6
CONTINUOUS
 10
9.4270820483
 20
5.3151198968
 11
9.708652504
 21
5.3151198968
  0
LINE
  5
248
100
AcDbEntity
  8
LAYER_FEATURE
100
AcDbLine
 62
7
  6
CONTINUOUS
 10
6.1928672762
 20
5.6751198968
 11
6.1928672762
 21
5.6251198968
  0
LINE
  5
249
100
AcDbEntity
  8
LAYER_FEATURE
100
AcDbLine
 62
7
  6
CONTINUOUS
 10
2.9428672762
 20
5.6751198968
 11
3.0678672762
 21
5.6751198968
  0
LINE
  5
24A
100
AcDbEntity
  8
LAYER_FEATURE
100
AcDbLine
 62
7
  6
CONTINUOUS
 10
3.5678672762
 20
5.6751198968
 11
3.6928672762
 21
5.6751198968
  0
LINE
  5
24B
100
AcDbEntity
  8
LAYER_FEATURE
100
AcDbLine
 62
7
  6
CONTINUOUS
 10
4.1928672762
 20
5.6751198968
 11
4.3178672762
 21
5.6751198968
  0
LINE
  5
24C
100
AcDbEntity
  8
LAYER_FEATURE
100
AcDbLine
 62
7
  6
CONTINUOUS
 10
4.8178672762
 20
5.6751198968
 11
4.9428672762
 21
5.6751198968
  0
LINE
  5
24D
100
AcDbEntity
  8
LAYER_FEATURE
100
AcDbLine
 62
7
  6
CONTINUOUS
 10
5.4428672762
 20
5.6751198968
 11
5.5678672762
 21
5.6751198968
  0
LINE
  5
24E
100
AcDbEntity
  8
LAYER_FEATURE
100
AcDbLine
 62
7
  6
CONTINUOUS
 10
6.0678672762
 20
5.6751198968
 11
6.1928672762
 21
5.6751198968
  0
LINE
  5
24F
100
AcDbEntity
  8
LAYER_FEATURE
100
AcDbLine
 62
7
  6
CONTINUOUS
 10
6.6928672762
 20
5.6751198968
 11
6.8178672762
 21
5.6751198968
  0
LINE
  5
250
100
AcDbEntity
  8
LAYER_FEATURE
100
AcDbLine
 62
7
  6
CONTINUOUS
 10
7.3178672762
 20
5.6751198968
 11
7.4428672762
 21
5.6751198968
  0
LINE
  5
251
100
AcDbEntity
  8
LAYER_FEATURE
100
AcDbLine
 62
7
  6
CONTINUOUS
 10
7.9428672762
 20
5.6751198968
 11
8.0678672762
 21
5.6751198968
  0
LINE
  5
252
100
AcDbEntity
  8
LAYER_FEATURE
100
AcDbLine
 62
7
  6
CONTINUOUS
 10
8.5678672762
 20
5.6751198968
 11
8.6928672762
 21
5.6751198968
  0
LINE
  5
253
100
AcDbEntity
  8
LAYER_FEATURE
100
AcDbLine
 62
7
  6
CONTINUOUS
 10
9.1928672762
 20
5.6751198968
 11
9.3178672762
 21
5.6751198968
  0
LINE
  5
254
100
AcDbEntity
  8
0
100
AcDbLine
 62
7
  6
CONTINUOUS
 10
9.8028672762
 20
5.7251198968
 11
2.4578672762
 21
5.7251198968
  0
LINE
  5
255
100
AcDbEntity
  8
LAYER_FEATURE
100
AcDbLine
 62
7
  6
CONTINUOUS
 10
6.1928672762
 20
5.6251198968
 11
6.2821406616
 21
5.3299225688
  0
LINE
  5
256
100
AcDbEntity
  8
LAYER_FEATURE
100
AcDbLine
 62
7
  6
CONTINUOUS
 10
6.6035938907
 20
5.3299225688
 11
6.6928672762
 21
5.6251198968
  0
LINE
  5
257
100
AcDbEntity
  8
LAYER_FEATURE
100
AcDbLine
 62
7
  6
CONTINUOUS
 10
6.6928672762
 20
5.6251198968
 11
6.6928672762
 21
5.6751198968
  0
LINE
  5
258
100
AcDbEntity
  8
LAYER_FEATURE
100
AcDbLine
 62
7
  6
CONTINUOUS
 10
6.8178672762
 20
5.6751198968
 11
6.8178672762
 21
5.6251198968
  0
LINE
  5
259
100
AcDbEntity
  8
LAYER_FEATURE
100
AcDbLine
 62
7
  6
CONTINUOUS
 10
6.8178672762
 20
5.6251198968
 11
6.9071406616
 21
5.3299225688
  0
LINE
  5
25A
100
AcDbEntity
  8
LAYER_FEATURE
100
AcDbLine
 62
7
  6
CONTINUOUS
 10
7.3178672762
 20
5.6251198968
 11
7.3178672762
 21
5.6751198968
  0
LINE
  5
25B
100
AcDbEntity
  8
LAYER_FEATURE
100
AcDbLine
 62
7
  6
CONTINUOUS
 10
7.2285938907
 20
5.3299225688
 11
7.3178672762
 21
5.6251198968
  0
LINE
  5
25C
100
AcDbEntity
  8
LAYER_FEATURE
100
AcDbLine
 62
7
  6
CONTINUOUS
 10
7.4428672762
 20
5.6751198968
 11
7.4428672762
 21
5.6251198968
  0
LINE
  5
25D
100
AcDbEntity
  8
LAYER_FEATURE
100
AcDbLine
 62
7
  6
CONTINUOUS
 10
7.4428672762
 20
5.6251198968
 11
7.5321406616
 21
5.3299225688
  0
LINE
  5
25E
100
AcDbEntity
  8
LAYER_FEATURE
100
AcDbLine
 62
7
  6
CONTINUOUS
 10
7.8535938907
 20
5.3299225688
 11
7.9428672762
 21
5.6251198968
  0
LINE
  5
25F
100
AcDbEntity
  8
LAYER_FEATURE
100
AcDbLine
 62
7
  6
CONTINUOUS
 10
7.9428672762
 20
5.6251198968
 11
7.9428672762
 21
5.6751198968
  0
LINE
  5
260
100
AcDbEntity
  8
LAYER_FEATURE
100
AcDbLine
 62
7
  6
CONTINUOUS
 10
8.0678672762
 20
5.6751198968
 11
8.0678672762
 21
5.6251198968
  0
LINE
  5
261
100
AcDbEntity
  8
LAYER_FEATURE
100
AcDbLine
 62
7
  6
CONTINUOUS
 10
8.0678672762
 20
5.6251198968
 11
8.1571406616
 21
5.3299225688
  0
LINE
  5
262
100
AcDbEntity
  8
LAYER_FEATURE
100
AcDbLine
 62
7
  6
CONTINUOUS
 10
8.5678672762
 20
5.6251198968
 11
8.5678672762
 21
5.6751198968
  0
LINE
  5
263
100
AcDbEntity
  8
LAYER_FEATURE
100
AcDbLine
 62
7
  6
CONTINUOUS
 10
8.4785938907
 20
5.3299225688
 11
8.5678672762
 21
5.6251198968
  0
LINE
  5
264
100
AcDbEntity
  8
LAYER_FEATURE
100
AcDbLine
 62
7
  6
CONTINUOUS
 10
8.6928672762
 20
5.6251198968
 11
8.7821406616
 21
5.3299225688
  0
LINE
  5
265
100
AcDbEntity
  8
LAYER_FEATURE
100
AcDbLine
 62
7
  6
CONTINUOUS
 10
8.6928672762
 20
5.6751198968
 11
8.6928672762
 21
5.6251198968
  0
LINE
  5
266
100
AcDbEntity
  8
LAYER_FEATURE
100
AcDbLine
 62
7
  6
CONTINUOUS
 10
9.1035938907
 20
5.3299225688
 11
9.1928672762
 21
5.6251198968
  0
LINE
  5
267
100
AcDbEntity
  8
LAYER_FEATURE
100
AcDbLine
 62
7
  6
CONTINUOUS
 10
9.1928672762
 20
5.6251198968
 11
9.1928672762
 21
5.6751198968
  0
LINE
  5
268
100
AcDbEntity
  8
LAYER_FEATURE
100
AcDbLine
 62
7
  6
CONTINUOUS
 10
9.3178672762
 20
5.6751198968
 11
9.3178672762
 21
5.6251198968
  0
LINE
  5
269
100
AcDbEntity
  8
LAYER_FEATURE
100
AcDbLine
 62
7
  6
CONTINUOUS
 10
9.3178672762
 20
5.6251198968
 11
9.4071406616
 21
5.3299225688
  0
LINE
  5
26A
100
AcDbEntity
  8
0
100
AcDbLine
 62
7
  6
CONTINUOUS
 10
9.8178672762
 20
5.6251198968
 11
9.8178672762
 21
5.7101198968
  0
LINE
  5
26B
100
AcDbEntity
  8
LAYER_FEATURE
100
AcDbLine
 62
7
  6
CONTINUOUS
 10
9.7285938907
 20
5.3299225688
 11
9.8178672762
 21
5.6251198968
  0
LINE
  5
26C
100
AcDbEntity
  8
0
100
AcDbLine
 62
7
  6
CONTINUOUS
 10
2.3833720839
 20
14.6000477814
 11
2.3833720839
 21
10.6000477814
  0
LINE
  5
26D
100
AcDbEntity
  8
0
100
AcDbLine
 62
7
  6
CONTINUOUS
 10
9.7583720839
 20
10.6000477814
 11
2.3833720839
 21
10.6000477814
  0
LINE
  5
26E
100
AcDbEntity
  8
0
100
AcDbLine
 62
7
  6
CONTINUOUS
 10
2.3833720839
 20
14.6000477814
 11
9.7583720839
 21
14.6000477814
  0
LINE
  5
26F
100
AcDbEntity
  8
0
100
AcDbLine
 62
7
  6
CONTINUOUS
 10
9.7583720839
 20
10.6000477814
 11
9.7583720839
 21
14.6000477814
  0
LINE
  5
270
100
AcDbEntity
  8
LAYER_FEATURE
100
AcDbLine
 62
7
  6
CONTINUOUS
 10
13.5603552569
 20
5.2556247044
 11
13.5603552569
 21
5.5656247044
  0
LINE
  5
271
100
AcDbEntity
  8
0
100
AcDbLine
 62
7
  6
CONTINUOUS
 10
13.5603552569
 20
5.5656247044
 11
13.5603552569
 21
5.6656247044
  0
LINE
  5
272
100
AcDbEntity
  8
LAYER_FEATURE
100
AcDbLine
 62
7
  6
CONTINUOUS
 10
13.5603552569
 20
5.2556247044
 11
17.5603552569
 21
5.2556247044
  0
LINE
  5
273
100
AcDbEntity
  8
LAYER_FEATURE
100
AcDbLine
 62
7
  6
CONTINUOUS
 10
17.5603552569
 20
5.5656247044
 11
13.5603552569
 21
5.5656247044
  0
LINE
  5
274
100
AcDbEntity
  8
0
100
AcDbLine
 62
7
  6
CONTINUOUS
 10
13.5603552569
 20
5.6656247044
 11
17.5603552569
 21
5.6656247044
  0
LINE
  5
275
100
AcDbEntity
  8
0
100
AcDbLine
 62
7
  6
CONTINUOUS
 10
17.5603552569
 20
5.6656247044
 11
17.5603552569
 21
5.5656247044
  0
LINE
  5
276
100
AcDbEntity
  8
LAYER_FEATURE
100
AcDbLine
 62
7
  6
CONTINUOUS
 10
17.5603552569
 20
5.2556247044
 11
17.5603552569
 21
5.5656247044
  0
LINE
  5
277
100
AcDbEntity
  8
0
100
AcDbLine
 62
7
  6
CONTINUOUS
 10
11.5740428738
 20
11.0622570676
 11
11.5999714325
 21
11.0094202203
  0
LINE
  5
278
100
AcDbEntity
  8
0
100
AcDbLine
 62
7
  6
CONTINUOUS
 10
11.5999714325
 20
11.0094202203
 11
11.7722452096
 21
10.8259226187
  0
LINE
  5
279
100
AcDbEntity
  8
0
100
AcDbLine
 62
7
  6
CONTINUOUS
 10
12.0605019295
 20
11.0094202203
 11
12.0452498362
 21
11.0405007187
  0
LINE
  5
27A
100
AcDbEntity
  8
0
100
AcDbLine
 62
7
  6
CONTINUOUS
 10
12.0683232403
 20
10.8259226187
 11
12.0605019295
 21
11.0094202203
  0
LINE
  5
27B
100
AcDbEntity
  8
LAYER_FEATURE
100
AcDbLine
 62
7
  6
CONTINUOUS
 10
12.1756345538
 20
11.0094202203
 11
12.3479083309
 21
10.8259226187
  0
LINE
  5
27C
100
AcDbEntity
  8
LAYER_FEATURE
100
AcDbLine
 62
7
  6
CONTINUOUS
 10
12.1603824604
 20
11.0405007187
 11
12.1756345538
 21
11.0094202203
  0
LINE
  5
27D
100
AcDbEntity
  8
0
100
AcDbLine
 62
7
  6
CONTINUOUS
 10
12.068020987
 20
10.8235203561
 11
12.0683232403
 21
10.8259226187
  0
LINE
  5
27E
100
AcDbEntity
  8
0
100
AcDbLine
 62
7
  6
CONTINUOUS
 10
12.5417927697
 20
14.1999934167
 11
11.5735274761
 21
11.0666857782
  0
LINE
  5
27F
100
AcDbEntity
  8
LAYER_FEATURE
100
AcDbLine
 62
7
  6
CONTINUOUS
 10
12.6361650508
 20
11.0094202203
 11
12.6209129574
 21
11.0405007187
  0
LINE
  5
280
100
AcDbEntity
  8
LAYER_FEATURE
100
AcDbLine
 62
7
  6
CONTINUOUS
 10
12.7360455817
 20
11.0405007187
 11
12.751297675
 21
11.0094202203
  0
LINE
  5
281
100
AcDbEntity
  8
LAYER_FEATURE
100
AcDbLine
 62
7
  6
CONTINUOUS
 10
12.6439863615
 20
10.8259226187
 11
12.6361650508
 21
11.0094202203
  0
LINE
  5
282
100
AcDbEntity
  8
0
100
AcDbLine
 62
7
  6
CONTINUOUS
 10
12.0701065299
 20
11.0405007187
 11
12.0605019295
 21
11.0094202203
  0
LINE
  5
283
100
AcDbEntity
  8
LAYER_FEATURE
100
AcDbLine
 62
7
  6
CONTINUOUS
 10
12.751297675
 20
11.0094202203
 11
12.9235714521
 21
10.8259226187
  0
LINE
  5
284
100
AcDbEntity
  8
LAYER_FEATURE
100
AcDbLine
 62
7
  6
CONTINUOUS
 10
12.6436841082
 20
10.8235203561
 11
12.6439863615
 21
10.8259226187
  0
LINE
  5
285
100
AcDbEntity
  8
0
100
AcDbLine
 62
7
  6
CONTINUOUS
 10
12.0680210036
 20
10.8235203509
 11
12.1350730086
 21
11.0405007187
  0
LINE
  5
286
100
AcDbEntity
  8
LAYER_FEATURE
100
AcDbLine
 62
7
  6
CONTINUOUS
 10
13.3269607963
 20
11.0094202203
 11
13.4992345734
 21
10.8259226187
  0
LINE
  5
287
100
AcDbEntity
  8
LAYER_FEATURE
100
AcDbLine
 62
7
  6
CONTINUOUS
 10
13.211828172
 20
11.0094202203
 11
13.1965760787
 21
11.0405007187
  0
LINE
  5
288
100
AcDbEntity
  8
LAYER_FEATURE
100
AcDbLine
 62
7
  6
CONTINUOUS
 10
13.3117087029
 20
11.0405007187
 11
13.3269607963
 21
11.0094202203
  0
LINE
  5
289
100
AcDbEntity
  8
LAYER_FEATURE
100
AcDbLine
 62
7
  6
CONTINUOUS
 10
13.2196494828
 20
10.8259226187
 11
13.211828172
 21
11.0094202203
  0
LINE
  5
28A
100
AcDbEntity
  8
LAYER_FEATURE
100
AcDbLine
 62
7
  6
CONTINUOUS
 10
12.6457696512
 20
11.0405007187
 11
12.6361650508
 21
11.0094202203
  0
LINE
  5
28B
100
AcDbEntity
  8
LAYER_FEATURE
100
AcDbLine
 62
7
  6
CONTINUOUS
 10
13.2193472295
 20
10.8235203561
 11
13.2196494828
 21
10.8259226187
  0
LINE
  5
28C
100
AcDbEntity
  8
LAYER_FEATURE
100
AcDbLine
 62
7
  6
CONTINUOUS
 10
12.6436841249
 20
10.8235203509
 11
12.7107361299
 21
11.0405007187
  0
LINE
  5
28D
100
AcDbEntity
  8
LAYER_FEATURE
100
AcDbLine
 62
7
  6
CONTINUOUS
 10
13.9026239175
 20
11.0094202203
 11
14.0748976946
 21
10.8259226187
  0
LINE
  5
28E
100
AcDbEntity
  8
LAYER_FEATURE
100
AcDbLine
 62
7
  6
CONTINUOUS
 10
13.7874912933
 20
11.0094202203
 11
13.7722391999
 21
11.0405007187
  0
LINE
  5
28F
100
AcDbEntity
  8
LAYER_FEATURE
100
AcDbLine
 62
7
  6
CONTINUOUS
 10
13.8873718242
 20
11.0405007187
 11
13.9026239175
 21
11.0094202203
  0
LINE
  5
290
100
AcDbEntity
  8
LAYER_FEATURE
100
AcDbLine
 62
7
  6
CONTINUOUS
 10
13.7953126041
 20
10.8259226187
 11
13.7874912933
 21
11.0094202203
  0
LINE
  5
291
100
AcDbEntity
  8
LAYER_FEATURE
100
AcDbLine
 62
7
  6
CONTINUOUS
 10
13.2214327725
 20
11.0405007187
 11
13.211828172
 21
11.0094202203
  0
LINE
  5
292
100
AcDbEntity
  8
0
100
AcDbLine
 62
7
  6
CONTINUOUS
 10
11.7951278777
 20
10.8167211302
 11
12.0544714416
 21
10.8167211302
  0
LINE
  5
293
100
AcDbEntity
  8
LAYER_FEATURE
100
AcDbLine
 62
7
  6
CONTINUOUS
 10
12.370790999
 20
10.8167211302
 11
12.6301345628
 21
10.8167211302
  0
LINE
  5
294
100
AcDbEntity
  8
LAYER_FEATURE
100
AcDbLine
 62
7
  6
CONTINUOUS
 10
12.9464541203
 20
10.8167211302
 11
13.2057976841
 21
10.8167211302
  0
LINE
  5
295
100
AcDbEntity
  8
LAYER_FEATURE
100
AcDbLine
 62
7
  6
CONTINUOUS
 10
13.5221172415
 20
10.8167211302
 11
13.7814608053
 21
10.8167211302
  0
LINE
  5
296
100
AcDbEntity
  8
LAYER_FEATURE
100
AcDbLine
 62
7
  6
CONTINUOUS
 10
14.0977803628
 20
10.8167211302
 11
14.3571239266
 21
10.8167211302
  0
LINE
  5
297
100
AcDbEntity
  8
LAYER_FEATURE
100
AcDbLine
 62
7
  6
CONTINUOUS
 10
14.673443484
 20
10.8167211302
 11
14.9327870478
 21
10.8167211302
  0
LINE
  5
298
100
AcDbEntity
  8
LAYER_FEATURE
100
AcDbLine
 62
7
  6
CONTINUOUS
 10
15.2491066053
 20
10.8167211302
 11
15.5084501691
 21
10.8167211302
  0
LINE
  5
299
100
AcDbEntity
  8
LAYER_FEATURE
100
AcDbLine
 62
7
  6
CONTINUOUS
 10
15.8247697265
 20
10.8167211302
 11
16.0841132903
 21
10.8167211302
  0
LINE
  5
29A
100
AcDbEntity
  8
LAYER_FEATURE
100
AcDbLine
 62
7
  6
CONTINUOUS
 10
16.4004328478
 20
10.8167211302
 11
16.6597764116
 21
10.8167211302
  0
LINE
  5
29B
100
AcDbEntity
  8
LAYER_FEATURE
100
AcDbLine
 62
7
  6
CONTINUOUS
 10
16.976095969
 20
10.8167211302
 11
17.2354395328
 21
10.8167211302
  0
LINE
  5
29C
100
AcDbEntity
  8
LAYER_FEATURE
100
AcDbLine
 62
7
  6
CONTINUOUS
 10
17.5517590903
 20
10.8167211302
 11
17.8111026541
 21
10.8167211302
  0
LINE
  5
29D
100
AcDbEntity
  8
LAYER_FEATURE
100
AcDbLine
 62
7
  6
CONTINUOUS
 10
18.1274222115
 20
10.8167211302
 11
18.3867657754
 21
10.8167211302
  0
LINE
  5
29E
100
AcDbEntity
  8
LAYER_FEATURE
100
AcDbLine
 62
7
  6
CONTINUOUS
 10
14.4782870388
 20
11.0094202203
 11
14.6505608159
 21
10.8259226187
  0
LINE
  5
29F
100
AcDbEntity
  8
LAYER_FEATURE
100
AcDbLine
 62
7
  6
CONTINUOUS
 10
13.7950103507
 20
10.8235203561
 11
13.7953126041
 21
10.8259226187
  0
LINE
  5
2A0
100
AcDbEntity
  8
LAYER_FEATURE
100
AcDbLine
 62
7
  6
CONTINUOUS
 10
13.2193472461
 20
10.8235203509
 11
13.2863992512
 21
11.0405007187
  0
LINE
  5
2A1
100
AcDbEntity
  8
LAYER_FEATURE
100
AcDbLine
 62
7
  6
CONTINUOUS
 10
12.0452498362
 20
11.0405007187
 11
12.1603824604
 21
11.0405007187
  0
LINE
  5
2A2
100
AcDbEntity
  8
LAYER_FEATURE
100
AcDbLine
 62
7
  6
CONTINUOUS
 10
12.6209129574
 20
11.0405007187
 11
12.7360455817
 21
11.0405007187
  0
LINE
  5
2A3
100
AcDbEntity
  8
LAYER_FEATURE
100
AcDbLine
 62
7
  6
CONTINUOUS
 10
13.1965760787
 20
11.0405007187
 11
13.3117087029
 21
11.0405007187
  0
LINE
  5
2A4
100
AcDbEntity
  8
LAYER_FEATURE
100
AcDbLine
 62
7
  6
CONTINUOUS
 10
13.7722391999
 20
11.0405007187
 11
13.8873718242
 21
11.0405007187
  0
LINE
  5
2A5
100
AcDbEntity
  8
LAYER_FEATURE
100
AcDbLine
 62
7
  6
CONTINUOUS
 10
14.3479023212
 20
11.0405007187
 11
14.4630349454
 21
11.0405007187
  0
LINE
  5
2A6
100
AcDbEntity
  8
LAYER_FEATURE
100
AcDbLine
 62
7
  6
CONTINUOUS
 10
14.9235654424
 20
11.0405007187
 11
15.0386980667
 21
11.0405007187
  0
LINE
  5
2A7
100
AcDbEntity
  8
LAYER_FEATURE
100
AcDbLine
 62
7
  6
CONTINUOUS
 10
15.4992285637
 20
11.0405007187
 11
15.6143611879
 21
11.0405007187
  0
LINE
  5
2A8
100
AcDbEntity
  8
LAYER_FEATURE
100
AcDbLine
 62
7
  6
CONTINUOUS
 10
16.0748916849
 20
11.0405007187
 11
16.1900243092
 21
11.0405007187
  0
LINE
  5
2A9
100
AcDbEntity
  8
LAYER_FEATURE
100
AcDbLine
 62
7
  6
CONTINUOUS
 10
16.6505548062
 20
11.0405007187
 11
16.7656874304
 21
11.0405007187
  0
LINE
  5
2AA
100
AcDbEntity
  8
LAYER_FEATURE
100
AcDbLine
 62
7
  6
CONTINUOUS
 10
17.2262179274
 20
11.0405007187
 11
17.3413505517
 21
11.0405007187
  0
LINE
  5
2AB
100
AcDbEntity
  8
LAYER_FEATURE
100
AcDbLine
 62
7
  6
CONTINUOUS
 10
17.8018810487
 20
11.0405007187
 11
17.9170136729
 21
11.0405007187
  0
LINE
  5
2AC
100
AcDbEntity
  8
0
100
AcDbLine
 62
7
  6
CONTINUOUS
 10
18.3484761617
 20
11.0715812171
 11
11.5832831608
 21
11.0715812171
  0
LINE
  5
2AD
100
AcDbEntity
  8
LAYER_FEATURE
100
AcDbLine
 62
7
  6
CONTINUOUS
 10
14.3631544145
 20
11.0094202203
 11
14.3479023212
 21
11.0405007187
  0
LINE
  5
2AE
100
AcDbEntity
  8
LAYER_FEATURE
100
AcDbLine
 62
7
  6
CONTINUOUS
 10
14.4630349454
 20
11.0405007187
 11
14.4782870388
 21
11.0094202203
  0
LINE
  5
2AF
100
AcDbEntity
  8
LAYER_FEATURE
100
AcDbLine
 62
7
  6
CONTINUOUS
 10
14.3709757253
 20
10.8259226187
 11
14.3631544145
 21
11.0094202203
  0
LINE
  5
2B0
100
AcDbEntity
  8
LAYER_FEATURE
100
AcDbLine
 62
7
  6
CONTINUOUS
 10
13.7970958937
 20
11.0405007187
 11
13.7874912933
 21
11.0094202203
  0
LINE
  5
2B1
100
AcDbEntity
  8
LAYER_FEATURE
100
AcDbLine
 62
7
  6
CONTINUOUS
 10
13.7950103674
 20
10.8235203509
 11
13.8620623724
 21
11.0405007187
  0
LINE
  5
2B2
100
AcDbEntity
  8
LAYER_FEATURE
100
AcDbLine
 62
7
  6
CONTINUOUS
 10
15.05395016
 20
11.0094202203
 11
15.2262239371
 21
10.8259226187
  0
LINE
  5
2B3
100
AcDbEntity
  8
LAYER_FEATURE
100
AcDbLine
 62
7
  6
CONTINUOUS
 10
14.9388175358
 20
11.0094202203
 11
14.9235654424
 21
11.0405007187
  0
LINE
  5
2B4
100
AcDbEntity
  8
LAYER_FEATURE
100
AcDbLine
 62
7
  6
CONTINUOUS
 10
14.370673472
 20
10.8235203561
 11
14.3709757253
 21
10.8259226187
  0
LINE
  5
2B5
100
AcDbEntity
  8
LAYER_FEATURE
100
AcDbLine
 62
7
  6
CONTINUOUS
 10
15.6296132813
 20
11.0094202203
 11
15.8018870584
 21
10.8259226187
  0
LINE
  5
2B6
100
AcDbEntity
  8
LAYER_FEATURE
100
AcDbLine
 62
7
  6
CONTINUOUS
 10
15.0386980667
 20
11.0405007187
 11
15.05395016
 21
11.0094202203
  0
LINE
  5
2B7
100
AcDbEntity
  8
LAYER_FEATURE
100
AcDbLine
 62
7
  6
CONTINUOUS
 10
14.9466388466
 20
10.8259226187
 11
14.9388175358
 21
11.0094202203
  0
LINE
  5
2B8
100
AcDbEntity
  8
LAYER_FEATURE
100
AcDbLine
 62
7
  6
CONTINUOUS
 10
14.372759015
 20
11.0405007187
 11
14.3631544145
 21
11.0094202203
  0
LINE
  5
2B9
100
AcDbEntity
  8
LAYER_FEATURE
100
AcDbLine
 62
7
  6
CONTINUOUS
 10
14.3706734886
 20
10.8235203509
 11
14.4377254937
 21
11.0405007187
  0
LINE
  5
2BA
100
AcDbEntity
  8
LAYER_FEATURE
100
AcDbLine
 62
7
  6
CONTINUOUS
 10
15.514480657
 20
11.0094202203
 11
15.4992285637
 21
11.0405007187
  0
LINE
  5
2BB
100
AcDbEntity
  8
LAYER_FEATURE
100
AcDbLine
 62
7
  6
CONTINUOUS
 10
14.9463377745
 20
10.8235199917
 11
14.9466388466
 21
10.8259226187
  0
LINE
  5
2BC
100
AcDbEntity
  8
LAYER_FEATURE
100
AcDbLine
 62
7
  6
CONTINUOUS
 10
16.2052764025
 20
11.0094202203
 11
16.3775501796
 21
10.8259226187
  0
LINE
  5
2BD
100
AcDbEntity
  8
LAYER_FEATURE
100
AcDbLine
 62
7
  6
CONTINUOUS
 10
15.6143611879
 20
11.0405007187
 11
15.6296132813
 21
11.0094202203
  0
LINE
  5
2BE
100
AcDbEntity
  8
LAYER_FEATURE
100
AcDbLine
 62
7
  6
CONTINUOUS
 10
15.5223019678
 20
10.8259226187
 11
15.514480657
 21
11.0094202203
  0
LINE
  5
2BF
100
AcDbEntity
  8
LAYER_FEATURE
100
AcDbLine
 62
7
  6
CONTINUOUS
 10
14.9484221362
 20
11.0405007187
 11
14.9388175358
 21
11.0094202203
  0
LINE
  5
2C0
100
AcDbEntity
  8
LAYER_FEATURE
100
AcDbLine
 62
7
  6
CONTINUOUS
 10
14.9463366099
 20
10.8235203509
 11
15.0133886149
 21
11.0405007187
  0
LINE
  5
2C1
100
AcDbEntity
  8
LAYER_FEATURE
100
AcDbLine
 62
7
  6
CONTINUOUS
 10
16.7809395238
 20
11.0094202203
 11
16.9532133009
 21
10.8259226187
  0
LINE
  5
2C2
100
AcDbEntity
  8
LAYER_FEATURE
100
AcDbLine
 62
7
  6
CONTINUOUS
 10
16.0901437783
 20
11.0094202203
 11
16.0748916849
 21
11.0405007187
  0
LINE
  5
2C3
100
AcDbEntity
  8
LAYER_FEATURE
100
AcDbLine
 62
7
  6
CONTINUOUS
 10
16.1900243092
 20
11.0405007187
 11
16.2052764025
 21
11.0094202203
  0
LINE
  5
2C4
100
AcDbEntity
  8
LAYER_FEATURE
100
AcDbLine
 62
7
  6
CONTINUOUS
 10
15.5219997145
 20
10.8235203561
 11
15.5223019678
 21
10.8259226187
  0
LINE
  5
2C5
100
AcDbEntity
  8
LAYER_FEATURE
100
AcDbLine
 62
7
  6
CONTINUOUS
 10
16.0979650891
 20
10.8259226187
 11
16.0901437783
 21
11.0094202203
  0
LINE
  5
2C6
100
AcDbEntity
  8
LAYER_FEATURE
100
AcDbLine
 62
7
  6
CONTINUOUS
 10
15.5240852575
 20
11.0405007187
 11
15.514480657
 21
11.0094202203
  0
LINE
  5
2C7
100
AcDbEntity
  8
LAYER_FEATURE
100
AcDbLine
 62
7
  6
CONTINUOUS
 10
15.5219997311
 20
10.8235203509
 11
15.5890517362
 21
11.0405007187
  0
LINE
  5
2C8
100
AcDbEntity
  8
LAYER_FEATURE
100
AcDbLine
 62
7
  6
CONTINUOUS
 10
17.356602645
 20
11.0094202203
 11
17.5288764221
 21
10.8259226187
  0
LINE
  5
2C9
100
AcDbEntity
  8
LAYER_FEATURE
100
AcDbLine
 62
7
  6
CONTINUOUS
 10
16.6658068995
 20
11.0094202203
 11
16.6505548062
 21
11.0405007187
  0
LINE
  5
2CA
100
AcDbEntity
  8
LAYER_FEATURE
100
AcDbLine
 62
7
  6
CONTINUOUS
 10
16.7656874304
 20
11.0405007187
 11
16.7809395238
 21
11.0094202203
  0
LINE
  5
2CB
100
AcDbEntity
  8
LAYER_FEATURE
100
AcDbLine
 62
7
  6
CONTINUOUS
 10
16.0976628357
 20
10.8235203561
 11
16.0979650891
 21
10.8259226187
  0
LINE
  5
2CC
100
AcDbEntity
  8
LAYER_FEATURE
100
AcDbLine
 62
7
  6
CONTINUOUS
 10
17.9322657663
 20
11.0094202203
 11
18.1045395434
 21
10.8259226187
  0
LINE
  5
2CD
100
AcDbEntity
  8
LAYER_FEATURE
100
AcDbLine
 62
7
  6
CONTINUOUS
 10
16.6736282103
 20
10.8259226187
 11
16.6658068995
 21
11.0094202203
  0
LINE
  5
2CE
100
AcDbEntity
  8
LAYER_FEATURE
100
AcDbLine
 62
7
  6
CONTINUOUS
 10
16.0997483787
 20
11.0405007187
 11
16.0901437783
 21
11.0094202203
  0
LINE
  5
2CF
100
AcDbEntity
  8
LAYER_FEATURE
100
AcDbLine
 62
7
  6
CONTINUOUS
 10
16.0976628524
 20
10.8235203509
 11
16.1647148574
 21
11.0405007187
  0
LINE
  5
2D0
100
AcDbEntity
  8
LAYER_FEATURE
100
AcDbLine
 62
7
  6
CONTINUOUS
 10
17.2414700208
 20
11.0094202203
 11
17.2262179274
 21
11.0405007187
  0
LINE
  5
2D1
100
AcDbEntity
  8
LAYER_FEATURE
100
AcDbLine
 62
7
  6
CONTINUOUS
 10
17.3413505517
 20
11.0405007187
 11
17.356602645
 21
11.0094202203
  0
LINE
  5
2D2
100
AcDbEntity
  8
LAYER_FEATURE
100
AcDbLine
 62
7
  6
CONTINUOUS
 10
16.673325957
 20
10.8235203561
 11
16.6736282103
 21
10.8259226187
  0
LINE
  5
2D3
100
AcDbEntity
  8
LAYER_FEATURE
100
AcDbLine
 62
7
  6
CONTINUOUS
 10
17.817133142
 20
11.0094202203
 11
17.8018810487
 21
11.0405007187
  0
LINE
  5
2D4
100
AcDbEntity
  8
LAYER_FEATURE
100
AcDbLine
 62
7
  6
CONTINUOUS
 10
17.2492913316
 20
10.8259226187
 11
17.2414700208
 21
11.0094202203
  0
LINE
  5
2D5
100
AcDbEntity
  8
LAYER_FEATURE
100
AcDbLine
 62
7
  6
CONTINUOUS
 10
16.6754115
 20
11.0405007187
 11
16.6658068995
 21
11.0094202203
  0
LINE
  5
2D6
100
AcDbEntity
  8
LAYER_FEATURE
100
AcDbLine
 62
7
  6
CONTINUOUS
 10
16.6733259736
 20
10.8235203509
 11
16.7403779787
 21
11.0405007187
  0
LINE
  5
2D7
100
AcDbEntity
  8
0
100
AcDbLine
 62
7
  6
CONTINUOUS
 10
12.5515484544
 20
14.2048888557
 11
19.3167414553
 21
14.2048888557
  0
LINE
  5
2D8
100
AcDbEntity
  8
LAYER_FEATURE
100
AcDbLine
 62
7
  6
CONTINUOUS
 10
17.9170136729
 20
11.0405007187
 11
17.9322657663
 21
11.0094202203
  0
LINE
  5
2D9
100
AcDbEntity
  8
LAYER_FEATURE
100
AcDbLine
 62
7
  6
CONTINUOUS
 10
17.2489890782
 20
10.8235203561
 11
17.2492913316
 21
10.8259226187
  0
LINE
  5
2DA
100
AcDbEntity
  8
0
100
AcDbLine
 62
7
  6
CONTINUOUS
 10
18.3927962633
 20
11.0094202203
 11
18.3668677046
 21
11.0622570676
  0
LINE
  5
2DB
100
AcDbEntity
  8
LAYER_FEATURE
100
AcDbLine
 62
7
  6
CONTINUOUS
 10
17.8249544528
 20
10.8259226187
 11
17.817133142
 21
11.0094202203
  0
LINE
  5
2DC
100
AcDbEntity
  8
LAYER_FEATURE
100
AcDbLine
 62
7
  6
CONTINUOUS
 10
17.2510746212
 20
11.0405007187
 11
17.2414700208
 21
11.0094202203
  0
LINE
  5
2DD
100
AcDbEntity
  8
LAYER_FEATURE
100
AcDbLine
 62
7
  6
CONTINUOUS
 10
17.2489890949
 20
10.8235203509
 11
17.3160410999
 21
11.0405007187
  0
LINE
  5
2DE
100
AcDbEntity
  8
LAYER_FEATURE
100
AcDbLine
 62
7
  6
CONTINUOUS
 10
17.8246521995
 20
10.8235203561
 11
17.8249544528
 21
10.8259226187
  0
LINE
  5
2DF
100
AcDbEntity
  8
LAYER_FEATURE
100
AcDbLine
 62
7
  6
CONTINUOUS
 10
18.4006175741
 20
10.8259226187
 11
18.3927962633
 21
11.0094202203
  0
LINE
  5
2E0
100
AcDbEntity
  8
LAYER_FEATURE
100
AcDbLine
 62
7
  6
CONTINUOUS
 10
17.8267377425
 20
11.0405007187
 11
17.817133142
 21
11.0094202203
  0
LINE
  5
2E1
100
AcDbEntity
  8
LAYER_FEATURE
100
AcDbLine
 62
7
  6
CONTINUOUS
 10
17.8246522161
 20
10.8235203509
 11
17.8917042212
 21
11.0405007187
  0
LINE
  5
2E2
100
AcDbEntity
  8
LAYER_FEATURE
100
AcDbLine
 62
7
  6
CONTINUOUS
 10
18.4003153207
 20
10.8235203561
 11
18.4006175741
 21
10.8259226187
  0
LINE
  5
2E3
100
AcDbEntity
  8
LAYER_FEATURE
100
AcDbLine
 62
7
  6
CONTINUOUS
 10
19.3610615569
 20
14.1427278588
 11
18.3927962633
 21
11.0094202203
  0
LINE
  5
2E4
100
AcDbEntity
  8
LAYER_FEATURE
100
AcDbLine
 62
7
  6
CONTINUOUS
 10
18.4003153374
 20
10.8235203509
 11
19.368580631
 21
13.9568279894
  0
LINE
  5
2E5
100
AcDbEntity
  8
LAYER_FEATURE
100
AcDbLine
 62
7
  6
CONTINUOUS
 10
19.3688828677
 20
13.9592302572
 11
19.3685806144
 21
13.9568279946
  0
LINE
  5
2E6
100
AcDbEntity
  8
LAYER_FEATURE
100
AcDbLine
 62
7
  6
CONTINUOUS
 10
19.3688828677
 20
13.9592302572
 11
19.3610615569
 21
14.1427278588
  0
LINE
  5
2E7
100
AcDbEntity
  8
0
100
AcDbLine
 62
7
  6
CONTINUOUS
 10
19.3351329982
 20
14.1955647061
 11
19.3610615569
 21
14.1427278588
  0
ARC
  5
2E8
100
AcDbEntity
  8
0
100
AcDbCircle
 62
7
  6
CONTINUOUS
 10
2.5520820483
 20
5.3359532301
 40
0.0208333333
100
AcDbArc
 50
196.8263326308
 51
270.0
  0
ARC
  5
2E9
100
AcDbEntity
  8
0
100
AcDbCircle
 62
7
  6
CONTINUOUS
 10
2.833652504
 20
5.3359532301
 40
0.0208333333
100
AcDbArc
 50
270.0
 51
343.1736673692
  0
ARC
  5
2EA
100
AcDbEntity
  8
LAYER_FEATURE
100
AcDbCircle
 62
7
  6
CONTINUOUS
 10
3.1770820483
 20
5.3359532301
 40
0.0208333333
100
AcDbArc
 50
196.8263326308
 51
270.0
  0
ARC
  5
2EB
100
AcDbEntity
  8
LAYER_FEATURE
100
AcDbCircle
 62
7
  6
CONTINUOUS
 10
3.458652504
 20
5.3359532301
 40
0.0208333333
100
AcDbArc
 50
270.0
 51
343.1736673692
  0
ARC
  5
2EC
100
AcDbEntity
  8
LAYER_FEATURE
100
AcDbCircle
 62
7
  6
CONTINUOUS
 10
3.8020820483
 20
5.3359532301
 40
0.0208333333
100
AcDbArc
 50
196.8263326308
 51
270.0
  0
ARC
  5
2ED
100
AcDbEntity
  8
LAYER_FEATURE
100
AcDbCircle
 62
7
  6
CONTINUOUS
 10
4.083652504
 20
5.3359532301
 40
0.0208333333
100
AcDbArc
 50
270.0
 51
343.1736673692
  0
ARC
  5
2EE
100
AcDbEntity
  8
LAYER_FEATURE
100
AcDbCircle
 62
7
  6
CONTINUOUS
 10
4.4270820483
 20
5.3359532301
 40
0.0208333333
100
AcDbArc
 50
196.8263326308
 51
270.0
  0
ARC
  5
2EF
100
AcDbEntity
  8
LAYER_FEATURE
100
AcDbCircle
 62
7
  6
CONTINUOUS
 10
4.708652504
 20
5.3359532301
 40
0.0208333333
100
AcDbArc
 50
270.0
 51
343.1736673692
  0
ARC
  5
2F0
100
AcDbEntity
  8
LAYER_FEATURE
100
AcDbCircle
 62
7
  6
CONTINUOUS
 10
5.0520820483
 20
5.3359532301
 40
0.0208333333
100
AcDbArc
 50
196.8263326308
 51
270.0
  0
ARC
  5
2F1
100
AcDbEntity
  8
LAYER_FEATURE
100
AcDbCircle
 62
7
  6
CONTINUOUS
 10
5.333652504
 20
5.3359532301
 40
0.0208333333
100
AcDbArc
 50
270.0
 51
343.1736673692
  0
ARC
  5
2F2
100
AcDbEntity
  8
LAYER_FEATURE
100
AcDbCircle
 62
7
  6
CONTINUOUS
 10
5.6770820483
 20
5.3359532301
 40
0.0208333333
100
AcDbArc
 50
196.8263326308
 51
270.0
  0
ARC
  5
2F3
100
AcDbEntity
  8
LAYER_FEATURE
100
AcDbCircle
 62
7
  6
CONTINUOUS
 10
5.958652504
 20
5.3359532301
 40
0.0208333333
100
AcDbArc
 50
270.0
 51
343.1736673692
  0
ARC
  5
2F4
100
AcDbEntity
  8
LAYER_FEATURE
100
AcDbCircle
 62
7
  6
CONTINUOUS
 10
6.3020820483
 20
5.3359532301
 40
0.0208333333
100
AcDbArc
 50
196.8263326308
 51
270.0
  0
ARC
  5
2F5
100
AcDbEntity
  8
LAYER_FEATURE
100
AcDbCircle
 62
7
  6
CONTINUOUS
 10
6.583652504
 20
5.3359532301
 40
0.0208333333
100
AcDbArc
 50
270.0
 51
343.1736673692
  0
ARC
  5
2F6
100
AcDbEntity
  8
LAYER_FEATURE
100
AcDbCircle
 62
7
  6
CONTINUOUS
 10
6.9270820483
 20
5.3359532301
 40
0.0208333333
100
AcDbArc
 50
196.8263326308
 51
270.0
  0
ARC
  5
2F7
100
AcDbEntity
  8
LAYER_FEATURE
100
AcDbCircle
 62
7
  6
CONTINUOUS
 10
7.208652504
 20
5.3359532301
 40
0.0208333333
100
AcDbArc
 50
270.0
 51
343.1736673692
  0
ARC
  5
2F8
100
AcDbEntity
  8
LAYER_FEATURE
100
AcDbCircle
 62
7
  6
CONTINUOUS
 10
7.5520820483
 20
5.3359532301
 40
0.0208333333
100
AcDbArc
 50
196.8263326308
 51
270.0
  0
ARC
  5
2F9
100
AcDbEntity
  8
LAYER_FEATURE
100
AcDbCircle
 62
7
  6
CONTINUOUS
 10
7.833652504
 20
5.3359532301
 40
0.0208333333
100
AcDbArc
 50
270.0
 51
343.1736673692
  0
ARC
  5
2FA
100
AcDbEntity
  8
LAYER_FEATURE
100
AcDbCircle
 62
7
  6
CONTINUOUS
 10
8.1770820483
 20
5.3359532301
 40
0.0208333333
100
AcDbArc
 50
196.8263326308
 51
270.0
  0
ARC
  5
2FB
100
AcDbEntity
  8
LAYER_FEATURE
100
AcDbCircle
 62
7
  6
CONTINUOUS
 10
8.458652504
 20
5.3359532301
 40
0.0208333333
100
AcDbArc
 50
270.0
 51
343.1736673692
  0
ARC
  5
2FC
100
AcDbEntity
  8
LAYER_FEATURE
100
AcDbCircle
 62
7
  6
CONTINUOUS
 10
9.708652504
 20
5.3359532301
 40
0.0208333333
100
AcDbArc
 50
270.0
 51
343.1736673692
  0
ARC
  5
2FD
100
AcDbEntity
  8
LAYER_FEATURE
100
AcDbCircle
 62
7
  6
CONTINUOUS
 10
9.4270820483
 20
5.3359532301
 40
0.0208333333
100
AcDbArc
 50
196.8263326308
 51
270.0
  0
ARC
  5
2FE
100
AcDbEntity
  8
LAYER_FEATURE
100
AcDbCircle
 62
7
  6
CONTINUOUS
 10
9.083652504
 20
5.3359532301
 40
0.0208333333
100
AcDbArc
 50
270.0
 51
343.1736673692
  0
ARC
  5
2FF
100
AcDbEntity
  8
LAYER_FEATURE
100
AcDbCircle
 62
7
  6
CONTINUOUS
 10
8.8020820483
 20
5.3359532301
 40
0.0208333333
100
AcDbArc
 50
196.8263326308
 51
270.0
  0
ARC
  5
300
100
AcDbEntity
  8
0
100
AcDbCircle
 62
7
  6
CONTINUOUS
 10
2.4578672762
 20
5.7101198968
 40
0.015
100
AcDbArc
 50
90.0
 51
180.0
  0
ARC
  5
301
100
AcDbEntity
  8
0
100
AcDbCircle
 62
7
  6
CONTINUOUS
 10
9.8028672762
 20
5.7101198968
 40
0.015
100
AcDbArc
 50
0.0
 51
90.0
  0
SPLINE
  5
302
100
AcDbEntity
  8
0
100
AcDbSpline
 62
7
  6
CONTINUOUS
 70
0
 71
3
 72
15
 73
11
 74
0
 42
0.0000001
 43
0.0000001
 44
0.0000000001
 40
0.0
 40
0.0
 40
0.0
 40
0.0
 40
0.1294165569
 40
0.2645180781
 40
0.4012970774
 40
0.5362628266
 40
0.6661560434
 40
0.78813941
 40
0.8999194788
 40
1.0
 40
1.0
 40
1.0
 40
1.0
 10
19.3167414553
 20
14.2048888557
 30
0.0
 10
19.3176693088
 20
14.2048888557
 30
0.0
 10
19.3195671131
 20
14.2047586474
 30
0.0
 10
19.3224011761
 20
14.204230214
 30
0.0
 10
19.3251955285
 20
14.2033722375
 30
0.0
 10
19.3278433715
 20
14.2022247571
 30
0.0
 10
19.3302461186
 20
14.2008259336
 30
0.0
 10
19.3323190098
 20
14.1992298494
 30
0.0
 10
19.3339770297
 20
14.1974903145
 30
0.0
 10
19.3348168963
 20
14.1962088541
 30
0.0
 10
19.3351329982
 20
14.1955647061
 30
0.0
  0
SPLINE
  5
303
100
AcDbEntity
  8
0
100
AcDbSpline
 62
7
  6
CONTINUOUS
 70
0
 71
3
 72
10
 73
6
 74
0
 42
0.0000001
 43
0.0000001
 44
0.0000000001
 40
0.0
 40
0.0
 40
0.0
 40
0.0
 40
0.2343758129
 40
0.4761728829
 40
1.0
 40
1.0
 40
1.0
 40
1.0
 10
11.5735275624
 20
11.0666857263
 30
0.0
 10
11.5734223342
 20
11.0663459612
 30
0.0
 10
11.5732843832
 20
11.0656294819
 30
0.0
 10
11.5733212601
 20
11.0641037801
 30
0.0
 10
11.5736926616
 20
11.0629707251
 30
0.0
 10
11.5740428738
 20
11.0622570676
 30
0.0
  0
SPLINE
  5
304
100
AcDbEntity
  8
0
100
AcDbSpline
 62
7
  6
CONTINUOUS
 70
0
 71
3
 72
13
 73
9
 74
0
 42
0.0000001
 43
0.0000001
 44
0.0000000001
 40
0.0
 40
0.0
 40
0.0
 40
0.0
 40
0.0997942201
 40
0.2030647278
 40
0.3128498857
 40
0.4312452013
 40
0.6971835619
 40
1.0
 40
1.0
 40
1.0
 40
1.0
 10
12.541792856
 20
14.1999933648
 30
0.0
 10
12.5419072191
 20
14.2003626252
 30
0.0
 10
12.5422310236
 20
14.2010887338
 30
0.0
 10
12.5429677163
 20
14.202062516
 30
0.0
 10
12.5439427106
 20
14.2029102805
 30
0.0
 10
12.545593398
 20
14.203895512
 30
0.0
 10
12.5481661022
 20
14.2047013997
 30
0.0
 10
12.5503754594
 20
14.2048888557
 30
0.0
 10
12.5515484544
 20
14.2048888557
 30
0.0
  0
SPLINE
  5
305
100
AcDbEntity
  8
LAYER_FEATURE
100
AcDbSpline
 62
7
  6
CONTINUOUS
 70
0
 71
3
 72
13
 73
9
 74
0
 42
0.0000001
 43
0.0000001
 44
0.0000000001
 40
0.0
 40
0.0
 40
0.0
 40
0.0
 40
0.3030035107
 40
0.5686420898
 40
0.6869989116
 40
0.7967865215
 40
0.9001290181
 40
1.0
 40
1.0
 40
1.0
 40
1.0
 10
18.3867657754
 20
10.8167211302
 30
0.0
 10
18.3883959806
 20
10.8167211302
 30
0.0
 10
18.3914645261
 20
10.8169792114
 30
0.0
 10
18.3950357333
 20
10.8181013167
 30
0.0
 10
18.3973279914
 20
10.8194670981
 30
0.0
 10
18.3986812986
 20
10.8206456473
 30
0.0
 10
18.3997075728
 20
10.8219969576
 30
0.0
 10
18.4001558999
 20
10.8230072286
 30
0.0
 10
18.4003142982
 20
10.8235206719
 30
0.0
  0
SPLINE
  5
306
100
AcDbEntity
  8
LAYER_FEATURE
100
AcDbSpline
 62
7
  6
CONTINUOUS
 70
0
 71
3
 72
11
 73
7
 74
0
 42
0.0000001
 43
0.0000001
 44
0.0000000001
 40
0.0
 40
0.0
 40
0.0
 40
0.0
 40
0.2304746022
 40
0.4849247816
 40
0.7473243089
 40
1.0
 40
1.0
 40
1.0
 40
1.0
 10
18.1045395434
 20
10.8259226187
 30
0.0
 10
18.1058667556
 20
10.8245089371
 30
0.0
 10
18.1090887804
 20
10.8219320032
 30
0.0
 10
18.1147224059
 20
10.8190658532
 30
0.0
 10
18.1209559199
 20
10.8171987558
 30
0.0
 10
18.1252963566
 20
10.8167211302
 30
0.0
 10
18.1274222115
 20
10.8167211302
 30
0.0
  0
SPLINE
  5
307
100
AcDbEntity
  8
LAYER_FEATURE
100
AcDbSpline
 62
7
  6
CONTINUOUS
 70
0
 71
3
 72
13
 73
9
 74
0
 42
0.0000001
 43
0.0000001
 44
0.0000000001
 40
0.0
 40
0.0
 40
0.0
 40
0.0
 40
0.3030035107
 40
0.5686420898
 40
0.6869989116
 40
0.7967865215
 40
0.9001290181
 40
1.0
 40
1.0
 40
1.0
 40
1.0
 10
17.8111026541
 20
10.8167211302
 30
0.0
 10
17.8127328594
 20
10.8167211302
 30
0.0
 10
17.8158014049
 20
10.8169792114
 30
0.0
 10
17.819372612
 20
10.8181013167
 30
0.0
 10
17.8216648702
 20
10.8194670981
 30
0.0
 10
17.8230181773
 20
10.8206456473
 30
0.0
 10
17.8240444516
 20
10.8219969576
 30
0.0
 10
17.8244927787
 20
10.8230072286
 30
0.0
 10
17.8246511769
 20
10.8235206719
 30
0.0
  0
SPLINE
  5
308
100
AcDbEntity
  8
LAYER_FEATURE
100
AcDbSpline
 62
7
  6
CONTINUOUS
 70
0
 71
3
 72
11
 73
7
 74
0
 42
0.0000001
 43
0.0000001
 44
0.0000000001
 40
0.0
 40
0.0
 40
0.0
 40
0.0
 40
0.2304746022
 40
0.4849247816
 40
0.7473243089
 40
1.0
 40
1.0
 40
1.0
 40
1.0
 10
17.5288764221
 20
10.8259226187
 30
0.0
 10
17.5302036344
 20
10.8245089371
 30
0.0
 10
17.5334256591
 20
10.8219320032
 30
0.0
 10
17.5390592846
 20
10.8190658532
 30
0.0
 10
17.5452927987
 20
10.8171987558
 30
0.0
 10
17.5496332354
 20
10.8167211302
 30
0.0
 10
17.5517590903
 20
10.8167211302
 30
0.0
  0
SPLINE
  5
309
100
AcDbEntity
  8
LAYER_FEATURE
100
AcDbSpline
 62
7
  6
CONTINUOUS
 70
0
 71
3
 72
13
 73
9
 74
0
 42
0.0000001
 43
0.0000001
 44
0.0000000001
 40
0.0
 40
0.0
 40
0.0
 40
0.0
 40
0.3030035107
 40
0.5686420898
 40
0.6869989116
 40
0.7967865215
 40
0.9001290181
 40
1.0
 40
1.0
 40
1.0
 40
1.0
 10
17.2354395328
 20
10.8167211302
 30
0.0
 10
17.2370697381
 20
10.8167211302
 30
0.0
 10
17.2401382836
 20
10.8169792114
 30
0.0
 10
17.2437094908
 20
10.8181013167
 30
0.0
 10
17.2460017489
 20
10.8194670981
 30
0.0
 10
17.2473550561
 20
10.8206456473
 30
0.0
 10
17.2483813303
 20
10.8219969576
 30
0.0
 10
17.2488296574
 20
10.8230072286
 30
0.0
 10
17.2489880557
 20
10.8235206719
 30
0.0
  0
SPLINE
  5
30A
100
AcDbEntity
  8
LAYER_FEATURE
100
AcDbSpline
 62
7
  6
CONTINUOUS
 70
0
 71
3
 72
11
 73
7
 74
0
 42
0.0000001
 43
0.0000001
 44
0.0000000001
 40
0.0
 40
0.0
 40
0.0
 40
0.0
 40
0.2304746022
 40
0.4849247816
 40
0.7473243089
 40
1.0
 40
1.0
 40
1.0
 40
1.0
 10
16.9532133009
 20
10.8259226187
 30
0.0
 10
16.9545405131
 20
10.8245089371
 30
0.0
 10
16.9577625379
 20
10.8219320032
 30
0.0
 10
16.9633961634
 20
10.8190658532
 30
0.0
 10
16.9696296774
 20
10.8171987558
 30
0.0
 10
16.9739701141
 20
10.8167211302
 30
0.0
 10
16.976095969
 20
10.8167211302
 30
0.0
  0
SPLINE
  5
30B
100
AcDbEntity
  8
LAYER_FEATURE
100
AcDbSpline
 62
7
  6
CONTINUOUS
 70
0
 71
3
 72
13
 73
9
 74
0
 42
0.0000001
 43
0.0000001
 44
0.0000000001
 40
0.0
 40
0.0
 40
0.0
 40
0.0
 40
0.3030035107
 40
0.5686420898
 40
0.6869989116
 40
0.7967865215
 40
0.9001290181
 40
1.0
 40
1.0
 40
1.0
 40
1.0
 10
16.6597764116
 20
10.8167211302
 30
0.0
 10
16.6614066169
 20
10.8167211302
 30
0.0
 10
16.6644751624
 20
10.8169792114
 30
0.0
 10
16.6680463695
 20
10.8181013167
 30
0.0
 10
16.6703386277
 20
10.8194670981
 30
0.0
 10
16.6716919348
 20
10.8206456473
 30
0.0
 10
16.6727182091
 20
10.8219969576
 30
0.0
 10
16.6731665362
 20
10.8230072286
 30
0.0
 10
16.6733249344
 20
10.8235206719
 30
0.0
  0
SPLINE
  5
30C
100
AcDbEntity
  8
LAYER_FEATURE
100
AcDbSpline
 62
7
  6
CONTINUOUS
 70
0
 71
3
 72
11
 73
7
 74
0
 42
0.0000001
 43
0.0000001
 44
0.0000000001
 40
0.0
 40
0.0
 40
0.0
 40
0.0
 40
0.2304746022
 40
0.4849247816
 40
0.7473243089
 40
1.0
 40
1.0
 40
1.0
 40
1.0
 10
16.3775501796
 20
10.8259226187
 30
0.0
 10
16.3788773919
 20
10.8245089371
 30
0.0
 10
16.3820994166
 20
10.8219320032
 30
0.0
 10
16.3877330421
 20
10.8190658532
 30
0.0
 10
16.3939665562
 20
10.8171987558
 30
0.0
 10
16.3983069929
 20
10.8167211302
 30
0.0
 10
16.4004328478
 20
10.8167211302
 30
0.0
  0
SPLINE
  5
30D
100
AcDbEntity
  8
LAYER_FEATURE
100
AcDbSpline
 62
7
  6
CONTINUOUS
 70
0
 71
3
 72
13
 73
9
 74
0
 42
0.0000001
 43
0.0000001
 44
0.0000000001
 40
0.0
 40
0.0
 40
0.0
 40
0.0
 40
0.3030035107
 40
0.5686420898
 40
0.6869989116
 40
0.7967865215
 40
0.9001290181
 40
1.0
 40
1.0
 40
1.0
 40
1.0
 10
16.0841132903
 20
10.8167211302
 30
0.0
 10
16.0857434956
 20
10.8167211302
 30
0.0
 10
16.0888120411
 20
10.8169792114
 30
0.0
 10
16.0923832483
 20
10.8181013167
 30
0.0
 10
16.0946755064
 20
10.8194670981
 30
0.0
 10
16.0960288136
 20
10.8206456473
 30
0.0
 10
16.0970550878
 20
10.8219969576
 30
0.0
 10
16.0975034149
 20
10.8230072286
 30
0.0
 10
16.0976618132
 20
10.8235206719
 30
0.0
  0
SPLINE
  5
30E
100
AcDbEntity
  8
LAYER_FEATURE
100
AcDbSpline
 62
7
  6
CONTINUOUS
 70
0
 71
3
 72
11
 73
7
 74
0
 42
0.0000001
 43
0.0000001
 44
0.0000000001
 40
0.0
 40
0.0
 40
0.0
 40
0.0
 40
0.2304746022
 40
0.4849247816
 40
0.7473243089
 40
1.0
 40
1.0
 40
1.0
 40
1.0
 10
15.8018870584
 20
10.8259226187
 30
0.0
 10
15.8032142706
 20
10.8245089371
 30
0.0
 10
15.8064362954
 20
10.8219320032
 30
0.0
 10
15.8120699209
 20
10.8190658532
 30
0.0
 10
15.8183034349
 20
10.8171987558
 30
0.0
 10
15.8226438716
 20
10.8167211302
 30
0.0
 10
15.8247697265
 20
10.8167211302
 30
0.0
  0
SPLINE
  5
30F
100
AcDbEntity
  8
LAYER_FEATURE
100
AcDbSpline
 62
7
  6
CONTINUOUS
 70
0
 71
3
 72
13
 73
9
 74
0
 42
0.0000001
 43
0.0000001
 44
0.0000000001
 40
0.0
 40
0.0
 40
0.0
 40
0.0
 40
0.3030035107
 40
0.5686420898
 40
0.6869989116
 40
0.7967865215
 40
0.9001290181
 40
1.0
 40
1.0
 40
1.0
 40
1.0
 10
15.5084501691
 20
10.8167211302
 30
0.0
 10
15.5100803744
 20
10.8167211302
 30
0.0
 10
15.5131489199
 20
10.8169792114
 30
0.0
 10
15.516720127
 20
10.8181013167
 30
0.0
 10
15.5190123852
 20
10.8194670981
 30
0.0
 10
15.5203656923
 20
10.8206456473
 30
0.0
 10
15.5213919666
 20
10.8219969576
 30
0.0
 10
15.5218402937
 20
10.8230072286
 30
0.0
 10
15.5219986919
 20
10.8235206719
 30
0.0
  0
SPLINE
  5
310
100
AcDbEntity
  8
LAYER_FEATURE
100
AcDbSpline
 62
7
  6
CONTINUOUS
 70
0
 71
3
 72
11
 73
7
 74
0
 42
0.0000001
 43
0.0000001
 44
0.0000000001
 40
0.0
 40
0.0
 40
0.0
 40
0.0
 40
0.2304746022
 40
0.4849247816
 40
0.7473243089
 40
1.0
 40
1.0
 40
1.0
 40
1.0
 10
15.2262239371
 20
10.8259226187
 30
0.0
 10
15.2275511494
 20
10.8245089371
 30
0.0
 10
15.2307731741
 20
10.8219320032
 30
0.0
 10
15.2364067996
 20
10.8190658532
 30
0.0
 10
15.2426403137
 20
10.8171987558
 30
0.0
 10
15.2469807504
 20
10.8167211302
 30
0.0
 10
15.2491066053
 20
10.8167211302
 30
0.0
  0
SPLINE
  5
311
100
AcDbEntity
  8
LAYER_FEATURE
100
AcDbSpline
 62
7
  6
CONTINUOUS
 70
0
 71
3
 72
13
 73
9
 74
0
 42
0.0000001
 43
0.0000001
 44
0.0000000001
 40
0.0
 40
0.0
 40
0.0
 40
0.0
 40
0.3030039328
 40
0.5686435631
 40
0.6870008836
 40
0.7967891436
 40
0.900131454
 40
1.0
 40
1.0
 40
1.0
 40
1.0
 10
14.9327870478
 20
10.8167211302
 30
0.0
 10
14.9344172553
 20
10.8167211302
 30
0.0
 10
14.9374858069
 20
10.8169792213
 30
0.0
 10
14.9410570278
 20
10.8181013181
 30
0.0
 10
14.9433492924
 20
10.8194671156
 30
0.0
 10
14.9447025838
 20
10.8206456906
 30
0.0
 10
14.9457288529
 20
10.8219969863
 30
0.0
 10
14.9461771979
 20
10.8230072349
 30
0.0
 10
14.9463355911
 20
10.823520666
 30
0.0
  0
SPLINE
  5
312
100
AcDbEntity
  8
LAYER_FEATURE
100
AcDbSpline
 62
7
  6
CONTINUOUS
 70
0
 71
3
 72
11
 73
7
 74
0
 42
0.0000001
 43
0.0000001
 44
0.0000000001
 40
0.0
 40
0.0
 40
0.0
 40
0.0
 40
0.2304746022
 40
0.4849247816
 40
0.7473243089
 40
1.0
 40
1.0
 40
1.0
 40
1.0
 10
14.6505608159
 20
10.8259226187
 30
0.0
 10
14.6518880281
 20
10.8245089371
 30
0.0
 10
14.6551100529
 20
10.8219320032
 30
0.0
 10
14.6607436783
 20
10.8190658532
 30
0.0
 10
14.6669771924
 20
10.8171987558
 30
0.0
 10
14.6713176291
 20
10.8167211302
 30
0.0
 10
14.673443484
 20
10.8167211302
 30
0.0
  0
SPLINE
  5
313
100
AcDbEntity
  8
LAYER_FEATURE
100
AcDbSpline
 62
7
  6
CONTINUOUS
 70
0
 71
3
 72
13
 73
9
 74
0
 42
0.0000001
 43
0.0000001
 44
0.0000000001
 40
0.0
 40
0.0
 40
0.0
 40
0.0
 40
0.3030035107
 40
0.5686420898
 40
0.6869989116
 40
0.7967865215
 40
0.9001290181
 40
1.0
 40
1.0
 40
1.0
 40
1.0
 10
14.3571239266
 20
10.8167211302
 30
0.0
 10
14.3587541319
 20
10.8167211302
 30
0.0
 10
14.3618226774
 20
10.8169792114
 30
0.0
 10
14.3653938845
 20
10.8181013167
 30
0.0
 10
14.3676861427
 20
10.8194670981
 30
0.0
 10
14.3690394498
 20
10.8206456473
 30
0.0
 10
14.3700657241
 20
10.8219969576
 30
0.0
 10
14.3705140511
 20
10.8230072286
 30
0.0
 10
14.3706724494
 20
10.8235206719
 30
0.0
  0
SPLINE
  5
314
100
AcDbEntity
  8
LAYER_FEATURE
100
AcDbSpline
 62
7
  6
CONTINUOUS
 70
0
 71
3
 72
11
 73
7
 74
0
 42
0.0000001
 43
0.0000001
 44
0.0000000001
 40
0.0
 40
0.0
 40
0.0
 40
0.0
 40
0.2304746022
 40
0.4849247816
 40
0.7473243089
 40
1.0
 40
1.0
 40
1.0
 40
1.0
 10
14.0748976946
 20
10.8259226187
 30
0.0
 10
14.0762249069
 20
10.8245089371
 30
0.0
 10
14.0794469316
 20
10.8219320032
 30
0.0
 10
14.0850805571
 20
10.8190658532
 30
0.0
 10
14.0913140712
 20
10.8171987558
 30
0.0
 10
14.0956545078
 20
10.8167211302
 30
0.0
 10
14.0977803628
 20
10.8167211302
 30
0.0
  0
SPLINE
  5
315
100
AcDbEntity
  8
LAYER_FEATURE
100
AcDbSpline
 62
7
  6
CONTINUOUS
 70
0
 71
3
 72
13
 73
9
 74
0
 42
0.0000001
 43
0.0000001
 44
0.0000000001
 40
0.0
 40
0.0
 40
0.0
 40
0.0
 40
0.3030035107
 40
0.5686420898
 40
0.6869989116
 40
0.7967865215
 40
0.9001290181
 40
1.0
 40
1.0
 40
1.0
 40
1.0
 10
13.7814608053
 20
10.8167211302
 30
0.0
 10
13.7830910106
 20
10.8167211302
 30
0.0
 10
13.7861595561
 20
10.8169792114
 30
0.0
 10
13.7897307633
 20
10.8181013167
 30
0.0
 10
13.7920230214
 20
10.8194670981
 30
0.0
 10
13.7933763285
 20
10.8206456473
 30
0.0
 10
13.7944026028
 20
10.8219969576
 30
0.0
 10
13.7948509299
 20
10.8230072286
 30
0.0
 10
13.7950093282
 20
10.8235206719
 30
0.0
  0
SPLINE
  5
316
100
AcDbEntity
  8
LAYER_FEATURE
100
AcDbSpline
 62
7
  6
CONTINUOUS
 70
0
 71
3
 72
11
 73
7
 74
0
 42
0.0000001
 43
0.0000001
 44
0.0000000001
 40
0.0
 40
0.0
 40
0.0
 40
0.0
 40
0.2304746022
 40
0.4849247816
 40
0.7473243089
 40
1.0
 40
1.0
 40
1.0
 40
1.0
 10
13.4992345734
 20
10.8259226187
 30
0.0
 10
13.5005617856
 20
10.8245089371
 30
0.0
 10
13.5037838103
 20
10.8219320032
 30
0.0
 10
13.5094174358
 20
10.8190658532
 30
0.0
 10
13.5156509499
 20
10.8171987558
 30
0.0
 10
13.5199913866
 20
10.8167211302
 30
0.0
 10
13.5221172415
 20
10.8167211302
 30
0.0
  0
SPLINE
  5
317
100
AcDbEntity
  8
LAYER_FEATURE
100
AcDbSpline
 62
7
  6
CONTINUOUS
 70
0
 71
3
 72
13
 73
9
 74
0
 42
0.0000001
 43
0.0000001
 44
0.0000000001
 40
0.0
 40
0.0
 40
0.0
 40
0.0
 40
0.3030035107
 40
0.5686420898
 40
0.6869989116
 40
0.7967865215
 40
0.9001290181
 40
1.0
 40
1.0
 40
1.0
 40
1.0
 10
13.2057976841
 20
10.8167211302
 30
0.0
 10
13.2074278894
 20
10.8167211302
 30
0.0
 10
13.2104964348
 20
10.8169792114
 30
0.0
 10
13.214067642
 20
10.8181013167
 30
0.0
 10
13.2163599001
 20
10.8194670981
 30
0.0
 10
13.2177132073
 20
10.8206456473
 30
0.0
 10
13.2187394816
 20
10.8219969576
 30
0.0
 10
13.2191878086
 20
10.8230072286
 30
0.0
 10
13.2193462069
 20
10.8235206719
 30
0.0
  0
SPLINE
  5
318
100
AcDbEntity
  8
LAYER_FEATURE
100
AcDbSpline
 62
7
  6
CONTINUOUS
 70
0
 71
3
 72
11
 73
7
 74
0
 42
0.0000001
 43
0.0000001
 44
0.0000000001
 40
0.0
 40
0.0
 40
0.0
 40
0.0
 40
0.2304746022
 40
0.4849247816
 40
0.7473243089
 40
1.0
 40
1.0
 40
1.0
 40
1.0
 10
12.9235714521
 20
10.8259226187
 30
0.0
 10
12.9248986644
 20
10.8245089371
 30
0.0
 10
12.9281206891
 20
10.8219320032
 30
0.0
 10
12.9337543146
 20
10.8190658532
 30
0.0
 10
12.9399878287
 20
10.8171987558
 30
0.0
 10
12.9443282653
 20
10.8167211302
 30
0.0
 10
12.9464541203
 20
10.8167211302
 30
0.0
  0
SPLINE
  5
319
100
AcDbEntity
  8
LAYER_FEATURE
100
AcDbSpline
 62
7
  6
CONTINUOUS
 70
0
 71
3
 72
13
 73
9
 74
0
 42
0.0000001
 43
0.0000001
 44
0.0000000001
 40
0.0
 40
0.0
 40
0.0
 40
0.0
 40
0.3030035107
 40
0.5686420898
 40
0.6869989116
 40
0.7967865215
 40
0.9001290181
 40
1.0
 40
1.0
 40
1.0
 40
1.0
 10
12.6301345628
 20
10.8167211302
 30
0.0
 10
12.6317647681
 20
10.8167211302
 30
0.0
 10
12.6348333136
 20
10.8169792114
 30
0.0
 10
12.6384045208
 20
10.8181013167
 30
0.0
 10
12.6406967789
 20
10.8194670981
 30
0.0
 10
12.642050086
 20
10.8206456473
 30
0.0
 10
12.6430763603
 20
10.8219969576
 30
0.0
 10
12.6435246874
 20
10.8230072286
 30
0.0
 10
12.6436830857
 20
10.8235206719
 30
0.0
  0
SPLINE
  5
31A
100
AcDbEntity
  8
LAYER_FEATURE
100
AcDbSpline
 62
7
  6
CONTINUOUS
 70
0
 71
3
 72
11
 73
7
 74
0
 42
0.0000001
 43
0.0000001
 44
0.0000000001
 40
0.0
 40
0.0
 40
0.0
 40
0.0
 40
0.2304746022
 40
0.4849247816
 40
0.7473243089
 40
1.0
 40
1.0
 40
1.0
 40
1.0
 10
12.3479083309
 20
10.8259226187
 30
0.0
 10
12.3492355431
 20
10.8245089371
 30
0.0
 10
12.3524575678
 20
10.8219320032
 30
0.0
 10
12.3580911933
 20
10.8190658532
 30
0.0
 10
12.3643247074
 20
10.8171987558
 30
0.0
 10
12.3686651441
 20
10.8167211302
 30
0.0
 10
12.370790999
 20
10.8167211302
 30
0.0
  0
SPLINE
  5
31B
100
AcDbEntity
  8
0
100
AcDbSpline
 62
7
  6
CONTINUOUS
 70
0
 71
3
 72
13
 73
9
 74
0
 42
0.0000001
 43
0.0000001
 44
0.0000000001
 40
0.0
 40
0.0
 40
0.0
 40
0.0
 40
0.3030035107
 40
0.5686420898
 40
0.6869989116
 40
0.7967865215
 40
0.9001290181
 40
1.0
 40
1.0
 40
1.0
 40
1.0
 10
12.0544714416
 20
10.8167211302
 30
0.0
 10
12.0561016469
 20
10.8167211302
 30
0.0
 10
12.0591701923
 20
10.8169792114
 30
0.0
 10
12.0627413995
 20
10.8181013167
 30
0.0
 10
12.0650336576
 20
10.8194670981
 30
0.0
 10
12.0663869648
 20
10.8206456473
 30
0.0
 10
12.0674132391
 20
10.8219969576
 30
0.0
 10
12.0678615661
 20
10.8230072286
 30
0.0
 10
12.0680199644
 20
10.8235206719
 30
0.0
  0
SPLINE
  5
31C
100
AcDbEntity
  8
0
100
AcDbSpline
 62
7
  6
CONTINUOUS
 70
0
 71
3
 72
11
 73
7
 74
0
 42
0.0000001
 43
0.0000001
 44
0.0000000001
 40
0.0
 40
0.0
 40
0.0
 40
0.0
 40
0.2304746022
 40
0.4849247816
 40
0.7473243089
 40
1.0
 40
1.0
 40
1.0
 40
1.0
 10
11.7722452096
 20
10.8259226187
 30
0.0
 10
11.7735724219
 20
10.8245089371
 30
0.0
 10
11.7767944466
 20
10.8219320032
 30
0.0
 10
11.7824280721
 20
10.8190658532
 30
0.0
 10
11.7886615862
 20
10.8171987558
 30
0.0
 10
11.7930020228
 20
10.8167211302
 30
0.0
 10
11.7951278777
 20
10.8167211302
 30
0.0
  0
SPLINE
  5
31D
100
AcDbEntity
  8
0
100
AcDbSpline
 62
7
  6
CONTINUOUS
 70
0
 71
3
 72
13
 73
9
 74
0
 42
0.0000001
 43
0.0000001
 44
0.0000000001
 40
0.0
 40
0.0
 40
0.0
 40
0.0
 40
0.3028164381
 40
0.5687547987
 40
0.6871501143
 40
0.7969352722
 40
0.9002057799
 40
1.0
 40
1.0
 40
1.0
 40
1.0
 10
11.5832831608
 20
11.0715812171
 30
0.0
 10
11.5821101657
 20
11.0715812171
 30
0.0
 10
11.5799008086
 20
11.0713937612
 30
0.0
 10
11.5773281044
 20
11.0705878735
 30
0.0
 10
11.575677417
 20
11.0696026419
 30
0.0
 10
11.5747024227
 20
11.0687548775
 30
0.0
 10
11.57396573
 20
11.0677810953
 30
0.0
 10
11.5736419255
 20
11.0670549867
 30
0.0
 10
11.5735275624
 20
11.0666857263
 30
0.0
  0
SPLINE
  5
31E
100
AcDbEntity
  8
0
100
AcDbSpline
 62
7
  6
CONTINUOUS
 70
0
 71
3
 72
15
 73
11
 74
0
 42
0.0000001
 43
0.0000001
 44
0.0000000001
 40
0.0
 40
0.0
 40
0.0
 40
0.0
 40
0.1000805212
 40
0.21186059
 40
0.3338439566
 40
0.4637371734
 40
0.5987029226
 40
0.7354819219
 40
0.8705834431
 40
1.0
 40
1.0
 40
1.0
 40
1.0
 10
18.3668677046
 20
11.0622570676
 30
0.0
 10
18.3665516027
 20
11.0629012156
 30
0.0
 10
18.365711736
 20
11.064182676
 30
0.0
 10
18.3640537162
 20
11.0659222109
 30
0.0
 10
18.361980825
 20
11.0675182951
 30
0.0
 10
18.3595780778
 20
11.0689171185
 30
0.0
 10
18.3569302348
 20
11.0700645989
 30
0.0
 10
18.3541358824
 20
11.0709225755
 30
0.0
 10
18.3513018194
 20
11.0714510089
 30
0.0
 10
18.3494040151
 20
11.0715812171
 30
0.0
 10
18.3484761617
 20
11.0715812171
 30
0.0
  0
ENDSEC
  0
SECTION
  2
OBJECTS
  0
DICTIONARY
  5
C
100
AcDbDictionary
280
0
281
1
  3
ACAD_GROUP
350
D
  3
ACAD_MLINESTYLE
350
17
  3
ACAD_LAYOUT
350
1A
  3
ACAD_PLOTSETTINGS
350
19
  3
ACAD_PLOTSTYLENAME
350
E
  0
DICTIONARY
  5
D
102
{ACAD_REACTORS
330
C
102
}
100
AcDbDictionary
280
0
281
1
  0
ACDBDICTIONARYWDFLT
  5
E
102
{ACAD_REACTORS
330
C
102
}
100
AcDbDictionary
281
1
  3
Normal
350
F
100
AcDbDictionaryWithDefault
340
F
  0
DICTIONARY
  5
17
102
{ACAD_REACTORS
330
C
102
}
100
AcDbDictionary
280
0
281
1
  3
Standard
350
18
  0
DICTIONARY
  5
19
102
{ACAD_REACTORS
330
C
102
}
100
AcDbDictionary
281
1
  0
DICTIONARY
  5
1A
102
{ACAD_REACTORS
330
C
102
}
100
AcDbDictionary
281
1
  3
Model
350
31F
  3
Layout1
350
320
  0
ACDBPLACEHOLDER
  5
F
102
{ACAD_REACTORS
330
E
102
}
  0
MLINESTYLE
  5
18
102
{ACAD_REACTORS
330
17
102
}
100
AcDbMlineStyle
  2
STANDARD
 70
0
  3

 62
256
 51
90.0
 52
90.0
 71
2
 49
0.5
 62
256
  6
BYLAYER
 49
-0.5
 62
256
  6
BYLAYER
  0
LAYOUT
  5
31F
102
{ACAD_REACTORS
330
1A
102
}
100
AcDbPlotSettings
  1

  2
none_device
  4
ANSI_C_(22.00_x_17.00_Inches)
  6

 40
0.0
 41
0.0
 42
0.0
 43
0.0
 44
558.8
 45
431.8
 46
0.0
 47
0.0
 48
0.0
 49
0.0
140
0.0
141
0.0
142
1.0
143
1.0
 70
1024
 72
0
 73
0
 74
0
  7

 75
0
147
1.0
148
0.0
149
0.0
100
AcDbLayout
  1
Model
 70
0
 71
0
 10
0.0
 20
0.0
 11
22.0
 21
17.0
 12
0.0
 22
0.0
 32
0.0
 14
0.0
 24
0.0
 34
0.0
 15
0.0
 25
0.0
 35
0.0
146
0.0
 13
0.0
 23
0.0
 33
0.0
 16
1.0
 26
0.0
 36
0.0
 17
0.0
 27
1.0
 37
0.0
 76
0
330
21C
345
0
346
0
  0
LAYOUT
  5
320
102
{ACAD_REACTORS
330
1A
102
}
100
AcDbPlotSettings
  1

  2
none_device
  4
ANSI_C_(22.00_x_17.00_Inches)
  6

 40
0.0
 41
0.0
 42
0.0
 43
0.0
 44
558.8
 45
431.8
 46
0.0
 47
0.0
 48
0.0
 49
0.0
140
0.0
141
0.0
142
1.0
143
1.0
 70
0
 72
0
 73
0
 74
0
  7

 75
0
147
1.0
148
0.0
149
0.0
100
AcDbLayout
  1
Layout1
 70
0
 71
1
 10
0.0
 20
0.0
 11
22.0
 21
17.0
 12
0.0
 22
0.0
 32
0.0
 14
0.0
 24
0.0
 34
0.0
 15
0.0
 25
0.0
 35
0.0
146
0.0
 13
0.0
 23
0.0
 33
0.0
 16
1.0
 26
0.0
 36
0.0
 17
0.0
 27
1.0
 37
0.0
 76
0
330
21D
345
0
346
0
  0
ENDSEC
  0
EOF