999
DXF file: _cgs_temp_output.dxf
999
Pro/ENGINEER 2016360 by Parametric Technology Corporation
  0
SECTION
  2
HEADER
  9
$ACADVER
  1
AC1021
  9
$DWGCODEPAGE
  3
ANSI_1252
  9
$EXTMAX
 10
22.0
 20
17.0
 30
0.0
  9
$EXTMIN
 10
0.0
 20
0.0
 30
0.0
  9
$LIMMIN
 10
0.0
 20
0.0
  9
$LIMMAX
 10
22.0
 20
17.0
  9
$VIEWCTR
 10
11.0
 20
8.5
  9
$VIEWSIZE
 40
17.0
  9
$CLAYER
  8
0
  9
$LTSCALE
 40
1.21
  9
$CELTYPE
  6
BYLAYER
  9
$DIMSCALE
 40
1.0
  9
$DIMASZ
 40
0.1875
  9
$DIMEXO
 40
0.0625
  9
$DIMDLI
 40
0.836
  9
$DIMEXE
 40
0.125
  9
$DIMCEN
 40
0.198
  9
$DIMLFAC
 40
1.0
  9
$DIMBLK
  1
_CLOSED
  9
$DIMALT
 70
0
  9
$DIMALTF
 40
25.4
  9
$DIMTXT
 40
0.15625
  9
$DIMTOL
 70
0
  9
$DIMLIM
 70
0
  9
$DIMTFAC
 40
1.0
  9
$DIMGAP
 40
0.09
  9
$DIMDSEP
 70
46
  9
$AUNITS
 70
0
  9
$PDMODE
 70
3
  9
$PDSIZE
 40
0.3125
  9
$HANDSEED
  5
322
  9
$TILEMODE
 70
1
  9
$MEASUREMENT
 70
0
  9
$INSUNITS
 70
1
  0
ENDSEC
  0
SECTION
  2
CLASSES
  0
CLASS
  1
ACDBDICTIONARYWDFLT
  2
AcDbDictionaryWithDefault
  3
AutoCAD 2000
 90
0
 91
1
280
0
281
0
  0
CLASS
  1
ACDBPLACEHOLDER
  2
AcDbPlaceHolder
  3
AutoCAD 2000
 90
0
 91
1
280
0
281
0
  0
CLASS
  1
LAYOUT
  2
AcDbLayout
  3
AutoCAD 2000
 90
0
 91
0
280
0
281
0
  0
ENDSEC
  0
SECTION
  2
TABLES
  0
TABLE
  2
VPORT
  5
8
100
AcDbSymbolTable
 70
2
  0
VPORT
  5
1F4
100
AcDbSymbolTableRecord
100
AcDbViewportTableRecord
  2
*ACTIVE
 70
0
 10
0.0
 20
0.0
 11
1.0
 21
1.0
 12
11.0
 22
8.5
 13
0.0
 23
0.0
 14
1.0
 24
1.0
 15
0.0
 25
0.0
 16
0.0
 26
0.0
 36
1.0
 17
0.0
 27
0.0
 37
0.0
 40
17.0
 41
1.2941176471
 42
50.0
 43
0.0
 44
0.0
 50
0.0
 51
0.0
 71
0
 72
100
 73
1
 74
1
 75
0
 76
0
 77
0
 78
0
  0
ENDTAB
  0
TABLE
  2
LTYPE
  5
5
100
AcDbSymbolTable
 70
6
  0
LTYPE
  5
14
100
AcDbSymbolTableRecord
100
AcDbLinetypeTableRecord
  2
BYBLOCK
 70
0
  3

 72
65
 73
0
 40
0.0
  0
LTYPE
  5
15
100
AcDbSymbolTableRecord
100
AcDbLinetypeTableRecord
  2
BYLAYER
 70
0
  3

 72
65
 73
0
 40
0.0
  0
LTYPE
  5
16
100
AcDbSymbolTableRecord
100
AcDbLinetypeTableRecord
  2
CONTINUOUS
 70
64
  3
Solid line
 72
65
 73
0
 40
0.0
  0
LTYPE
  5
1F5
100
AcDbSymbolTableRecord
100
AcDbLinetypeTableRecord
  2
CENTER
 70
64
  3
____ _ ____ _ ____ _ ____ _ ____ _ ____ _ ____
 72
65
 73
4
 40
0.6
 49
0.375
 74
0
 49
-0.075
 74
0
 49
0.075
 74
0
 49
-0.075
 74
0
  0
LTYPE
  5
1F6
100
AcDbSymbolTableRecord
100
AcDbLinetypeTableRecord
  2
HIDDEN
 70
64
  3
- - - - - - - - - - - - - - - - - - - -
 72
65
 73
2
 40
0.2
 49
0.1
 74
0
 49
-0.1
 74
0
  0
LTYPE
  5
1F7
100
AcDbSymbolTableRecord
100
AcDbLinetypeTableRecord
  2
PHANTOM
 70
64
  3
_____ _ _ _____ _ _ _____ _ _ _____
 72
65
 73
6
 40
0.8
 49
0.45
 74
0
 49
-0.05
 74
0
 49
0.1
 74
0
 49
-0.05
 74
0
 49
0.1
 74
0
 49
-0.05
 74
0
  0
LTYPE
  5
1F8
100
AcDbSymbolTableRecord
100
AcDbLinetypeTableRecord
  2
DOT
 70
64
  3
. . . . . . . . . . . . . . . . . . . .
 72
65
 73
2
 40
0.2
 49
0.1
 74
0
 49
-0.1
 74
0
  0
LTYPE
  5
1F9
100
AcDbSymbolTableRecord
100
AcDbLinetypeTableRecord
  2
DASHED
 70
64
  3
- - - - - - - - - - - - - - - - - - - -
 72
65
 73
2
 40
0.2
 49
0.1
 74
0
 49
-0.1
 74
0
  0
ENDTAB
  0
TABLE
  2
LAYER
  5
2
100
AcDbSymbolTable
 70
36
  0
LAYER
  5
10
100
AcDbSymbolTableRecord
100
AcDbLayerTableRecord
  2
0
 70
0
 62
7
  6
CONTINUOUS
370
-3
390
F
  0
LAYER
  5
1FA
100
AcDbSymbolTableRecord
100
AcDbLayerTableRecord
  2
DEFAULT_1
 70
0
 62
7
  6
CENTER
370
-3
390
F
  0
LAYER
  5
1FB
100
AcDbSymbolTableRecord
100
AcDbLayerTableRecord
  2
DEFAULT_2
 70
0
 62
8
  6
HIDDEN
370
-3
390
F
  0
LAYER
  5
1FC
100
AcDbSymbolTableRecord
100
AcDbLayerTableRecord
  2
DEFAULT_3
 70
0
 62
7
  6
PHANTOM
370
-3
390
F
  0
LAYER
  5
1FD
100
AcDbSymbolTableRecord
100
AcDbLayerTableRecord
  2
01_ALL_DTM_PLN
 70
0
 62
7
  6
CONTINUOUS
370
-3
390
F
  0
LAYER
  5
1FE
100
AcDbSymbolTableRecord
100
AcDbLayerTableRecord
  2
01__ASM_ALL_DTM_PLN
 70
0
 62
7
  6
CONTINUOUS
370
-3
390
F
  0
LAYER
  5
1FF
100
AcDbSymbolTableRecord
100
AcDbLayerTableRecord
  2
01__ASM_DEF_DTM_PLN
 70
0
 62
7
  6
CONTINUOUS
370
-3
390
F
  0
LAYER
  5
200
100
AcDbSymbolTableRecord
100
AcDbLayerTableRecord
  2
01___PRT_ALL_DTM_PLN
 70
0
 62
7
  6
CONTINUOUS
370
-3
390
F
  0
LAYER
  5
201
100
AcDbSymbolTableRecord
100
AcDbLayerTableRecord
  2
01___PRT_DEF_DTM_PLN
 70
0
 62
7
  6
CONTINUOUS
370
-3
390
F
  0
LAYER
  5
202
100
AcDbSymbolTableRecord
100
AcDbLayerTableRecord
  2
02_ALL_AXES
 70
0
 62
7
  6
CONTINUOUS
370
-3
390
F
  0
LAYER
  5
203
100
AcDbSymbolTableRecord
100
AcDbLayerTableRecord
  2
02__ASM_ALL_AXES
 70
0
 62
7
  6
CONTINUOUS
370
-3
390
F
  0
LAYER
  5
204
100
AcDbSymbolTableRecord
100
AcDbLayerTableRecord
  2
02___PRT_ALL_AXES
 70
0
 62
7
  6
CONTINUOUS
370
-3
390
F
  0
LAYER
  5
205
100
AcDbSymbolTableRecord
100
AcDbLayerTableRecord
  2
03_ALL_CURVES
 70
0
 62
7
  6
CONTINUOUS
370
-3
390
F
  0
LAYER
  5
206
100
AcDbSymbolTableRecord
100
AcDbLayerTableRecord
  2
03__ASM_ALL_CURVES
 70
0
 62
7
  6
CONTINUOUS
370
-3
390
F
  0
LAYER
  5
207
100
AcDbSymbolTableRecord
100
AcDbLayerTableRecord
  2
03___PRT_ALL_CURVES
 70
0
 62
7
  6
CONTINUOUS
370
-3
390
F
  0
LAYER
  5
208
100
AcDbSymbolTableRecord
100
AcDbLayerTableRecord
  2
04_ALL_DTM_PNT
 70
0
 62
7
  6
CONTINUOUS
370
-3
390
F
  0
LAYER
  5
209
100
AcDbSymbolTableRecord
100
AcDbLayerTableRecord
  2
04__ASM_ALL_DTM_PNT
 70
0
 62
7
  6
CONTINUOUS
370
-3
390
F
  0
LAYER
  5
20A
100
AcDbSymbolTableRecord
100
AcDbLayerTableRecord
  2
04___PRT_ALL_DTM_PNT
 70
0
 62
7
  6
CONTINUOUS
370
-3
390
F
  0
LAYER
  5
20B
100
AcDbSymbolTableRecord
100
AcDbLayerTableRecord
  2
05_ALL_DTM_CSYS
 70
0
 62
7
  6
CONTINUOUS
370
-3
390
F
  0
LAYER
  5
20C
100
AcDbSymbolTableRecord
100
AcDbLayerTableRecord
  2
05__ASM_ALL_DTM_CSYS
 70
0
 62
7
  6
CONTINUOUS
370
-3
390
F
  0
LAYER
  5
20D
100
AcDbSymbolTableRecord
100
AcDbLayerTableRecord
  2
05__ASM_DEF_DTM_CSYS
 70
0
 62
7
  6
CONTINUOUS
370
-3
390
F
  0
LAYER
  5
20E
100
AcDbSymbolTableRecord
100
AcDbLayerTableRecord
  2
05___PRT_ALL_DTM_CSYS
 70
0
 62
7
  6
CONTINUOUS
370
-3
390
F
  0
LAYER
  5
20F
100
AcDbSymbolTableRecord
100
AcDbLayerTableRecord
  2
05___PRT_DEF_DTM_CSYS
 70
0
 62
7
  6
CONTINUOUS
370
-3
390
F
  0
LAYER
  5
210
100
AcDbSymbolTableRecord
100
AcDbLayerTableRecord
  2
06_ALL_SURFS
 70
0
 62
7
  6
CONTINUOUS
370
-3
390
F
  0
LAYER
  5
211
100
AcDbSymbolTableRecord
100
AcDbLayerTableRecord
  2
06__ASM_ALL_SURFS
 70
0
 62
7
  6
CONTINUOUS
370
-3
390
F
  0
LAYER
  5
212
100
AcDbSymbolTableRecord
100
AcDbLayerTableRecord
  2
06___PRT_ALL_SURFS
 70
0
 62
7
  6
CONTINUOUS
370
-3
390
F
  0
LAYER
  5
213
100
AcDbSymbolTableRecord
100
AcDbLayerTableRecord
  2
07__ASM_ALL_SKELETONS
 70
0
 62
7
  6
CONTINUOUS
370
-3
390
F
  0
LAYER
  5
214
100
AcDbSymbolTableRecord
100
AcDbLayerTableRecord
  2
LAYER_DIM
 70
0
 62
7
  6
CONTINUOUS
370
-3
390
F
  0
LAYER
  5
215
100
AcDbSymbolTableRecord
100
AcDbLayerTableRecord
  2
LAYER_FEATURE
 70
0
 62
7
  6
CONTINUOUS
370
-3
390
F
  0
LAYER
  5
216
100
AcDbSymbolTableRecord
100
AcDbLayerTableRecord
  2
LAYER_GEOM_FEAT
 70
0
 62
7
  6
CONTINUOUS
370
-3
390
F
  0
LAYER
  5
217
100
AcDbSymbolTableRecord
100
AcDbLayerTableRecord
  2
LAYER_PARAMETER_DIM
 70
0
 62
7
  6
CONTINUOUS
370
-3
390
F
  0
LAYER
  5
218
100
AcDbSymbolTableRecord
100
AcDbLayerTableRecord
  2
LAYER_PROTRUSION_FEAT
 70
0
 62
7
  6
CONTINUOUS
370
-3
390
F
  0
LAYER
  5
219
100
AcDbSymbolTableRecord
100
AcDbLayerTableRecord
  2
LAYER_ROUND_FEAT
 70
0
 62
7
  6
CONTINUOUS
370
-3
390
F
  0
ENDTAB
  0
TABLE
  2
STYLE
  5
3
100
AcDbSymbolTable
 70
1
  0
STYLE
  5
11
100
AcDbSymbolTableRecord
100
AcDbTextStyleTableRecord
  2
STANDARD
 70
0
 40
0.0
 41
0.8
 50
0.0
 71
0
 42
0.2
  3
txt
  4

  0
STYLE
  5
21A
100
AcDbSymbolTableRecord
100
AcDbTextStyleTableRecord
  2
TEXTSTYLE_1
 70
0
 40
0.0
 41
0.8
 50
0.0
 71
0
 42
0.2
  3
gdt
  4

  0
ENDTAB
  0
TABLE
  2
VIEW
  5
6
100
AcDbSymbolTable
 70
0
  0
ENDTAB
  0
TABLE
  2
UCS
  5
7
100
AcDbSymbolTable
 70
0
  0
ENDTAB
  0
TABLE
  2
APPID
  5
9
100
AcDbSymbolTable
 70
1
  0
APPID
  5
21B
100
AcDbSymbolTableRecord
100
AcDbRegAppTableRecord
  2
ACAD
 70
0
  0
ENDTAB
  0
TABLE
  2
BLOCK_RECORD
  5
1
100
AcDbSymbolTable
 70
0
  0
BLOCK_RECORD
  5
21C
100
AcDbSymbolTableRecord
100
AcDbBlockTableRecord
  2
*Model_Space
  0
BLOCK_RECORD
  5
21D
100
AcDbSymbolTableRecord
100
AcDbBlockTableRecord
  2
*Paper_Space
  0
ENDTAB
  0
TABLE
  2
DIMSTYLE
  5
A
100
AcDbSymbolTable
 70
1
100
AcDbDimStyleTable
 71
0
  0
DIMSTYLE
105
21E
100
AcDbSymbolTableRecord
100
AcDbDimStyleTableRecord
  2
STANDARD
 70
0
  3

  4

 40
1.0
 41
0.1875
 42
0.0625
 43
0.38
 44
0.125
 45
0.0
 46
0.0
 47
0.0001
 48
0.0001
140
0.15625
141
0.09
142
0.0
143
25.4
144
1.0
145
0.0
146
1.0
147
0.09
 71
0.0
 72
0.0
 73
1
 74
1
 75
0
 76
0
 77
0
 78
4
 79
1
170
0
171
3
172
0
173
0
174
0
175
0
176
0
177
0
178
0
270
2
179
4
271
4
272
4
273
2
274
2
275
0
280
0
281
0
282
0
283
1
284
4
285
0
286
0
287
3
288
0
340
11
278
46
  0
ENDTAB
  0
ENDSEC
  0
SECTION
  2
BLOCKS
  0
BLOCK
  5
20
100
AcDbEntity
  8
0
100
AcDbBlockBegin
  2
*Model_Space
 70
0
 10
0.0
 20
0.0
 30
0.0
  3
*Model_Space
  1

  0
ENDBLK
  5
21
100
AcDbEntity
  8
0
100
AcDbBlockEnd
  0
BLOCK
  5
1C
100
AcDbEntity
  8
0
100
AcDbBlockBegin
  2
*Paper_Space
 70
0
 10
0.0
 20
0.0
 30
0.0
  3
*Paper_Space
  1

  0
ENDBLK
  5
1D
100
AcDbEntity
  8
0
100
AcDbBlockEnd
  0
ENDSEC
  0
SECTION
  2
ENTITIES
  0
MTEXT
  5
21F
100
AcDbEntity
  8
0
100
AcDbMText
 62
7
  6
CONTINUOUS
  7
STANDARD
 71
1
 72
1
 10
15.9560215477
 20
0.9479130325
 30
0.0
 11
1.0
 21
0.0
 31
0.0
 44
0.9
  1
SCALE: 1:0.500
 40
0.3
 41
3.36
  0
LINE
  5
220
100
AcDbEntity
  8
0
100
AcDbLine
 62
7
  6
CONTINUOUS
 10
0.0
 20
0.0
 11
0.0
 21
17.0
  0
LINE
  5
221
100
AcDbEntity
  8
0
100
AcDbLine
 62
7
  6
CONTINUOUS
 10
0.0
 20
0.0
 11
22.0
 21
0.0
  0
LINE
  5
222
100
AcDbEntity
  8
0
100
AcDbLine
 62
7
  6
CONTINUOUS
 10
0.0
 20
17.0
 11
22.0
 21
17.0
  0
LINE
  5
223
100
AcDbEntity
  8
0
100
AcDbLine
 62
7
  6
CONTINUOUS
 10
22.0
 20
0.0
 11
22.0
 21
17.0
  0
LINE
  5
224
100
AcDbEntity
  8
0
100
AcDbLine
 62
7
  6
CONTINUOUS
 10
3.9028672762
 20
5.6376198968
 11
3.9028672762
 21
5.6001198968
  0
LINE
  5
225
100
AcDbEntity
  8
0
100
AcDbLine
 62
7
  6
CONTINUOUS
 10
3.9028672762
 20
5.6001198968
 11
3.9617913274
 21
5.4048967776
  0
LINE
  5
226
100
AcDbEntity
  8
0
100
AcDbLine
 62
7
  6
CONTINUOUS
 10
4.2328672762
 20
5.6001198968
 11
4.2328672762
 21
5.6226198968
  0
LINE
  5
227
100
AcDbEntity
  8
LAYER_FEATURE
100
AcDbLine
 62
7
  6
CONTINUOUS
 10
4.2778672762
 20
5.6226198968
 11
4.2778672762
 21
5.6001198968
  0
LINE
  5
228
100
AcDbEntity
  8
0
100
AcDbLine
 62
7
  6
CONTINUOUS
 10
4.173943225
 20
5.4048967776
 11
4.2328672762
 21
5.6001198968
  0
LINE
  5
229
100
AcDbEntity
  8
LAYER_FEATURE
100
AcDbLine
 62
7
  6
CONTINUOUS
 10
4.2778672762
 20
5.6001198968
 11
4.3367913274
 21
5.4048967776
  0
LINE
  5
22A
100
AcDbEntity
  8
LAYER_FEATURE
100
AcDbLine
 62
7
  6
CONTINUOUS
 10
4.6078672762
 20
5.6001198968
 11
4.6078672762
 21
5.6226198968
  0
LINE
  5
22B
100
AcDbEntity
  8
LAYER_FEATURE
100
AcDbLine
 62
7
  6
CONTINUOUS
 10
4.6528672762
 20
5.6226198968
 11
4.6528672762
 21
5.6001198968
  0
LINE
  5
22C
100
AcDbEntity
  8
LAYER_FEATURE
100
AcDbLine
 62
7
  6
CONTINUOUS
 10
4.548943225
 20
5.4048967776
 11
4.6078672762
 21
5.6001198968
  0
LINE
  5
22D
100
AcDbEntity
  8
LAYER_FEATURE
100
AcDbLine
 62
7
  6
CONTINUOUS
 10
4.6528672762
 20
5.6001198968
 11
4.7117913274
 21
5.4048967776
  0
LINE
  5
22E
100
AcDbEntity
  8
LAYER_FEATURE
100
AcDbLine
 62
7
  6
CONTINUOUS
 10
4.9828672762
 20
5.6001198968
 11
4.9828672762
 21
5.6226198968
  0
LINE
  5
22F
100
AcDbEntity
  8
LAYER_FEATURE
100
AcDbLine
 62
7
  6
CONTINUOUS
 10
5.0278672762
 20
5.6226198968
 11
5.0278672762
 21
5.6001198968
  0
LINE
  5
230
100
AcDbEntity
  8
LAYER_FEATURE
100
AcDbLine
 62
7
  6
CONTINUOUS
 10
4.923943225
 20
5.4048967776
 11
4.9828672762
 21
5.6001198968
  0
LINE
  5
231
100
AcDbEntity
  8
LAYER_FEATURE
100
AcDbLine
 62
7
  6
CONTINUOUS
 10
5.0278672762
 20
5.6001198968
 11
5.0867913274
 21
5.4048967776
  0
LINE
  5
232
100
AcDbEntity
  8
LAYER_FEATURE
100
AcDbLine
 62
7
  6
CONTINUOUS
 10
5.3578672762
 20
5.6001198968
 11
5.3578672762
 21
5.6226198968
  0
LINE
  5
233
100
AcDbEntity
  8
LAYER_FEATURE
100
AcDbLine
 62
7
  6
CONTINUOUS
 10
5.4028672762
 20
5.6226198968
 11
5.4028672762
 21
5.6001198968
  0
LINE
  5
234
100
AcDbEntity
  8
LAYER_FEATURE
100
AcDbLine
 62
7
  6
CONTINUOUS
 10
5.298943225
 20
5.4048967776
 11
5.3578672762
 21
5.6001198968
  0
LINE
  5
235
100
AcDbEntity
  8
LAYER_FEATURE
100
AcDbLine
 62
7
  6
CONTINUOUS
 10
5.4028672762
 20
5.6001198968
 11
5.4617913274
 21
5.4048967776
  0
LINE
  5
236
100
AcDbEntity
  8
LAYER_FEATURE
100
AcDbLine
 62
7
  6
CONTINUOUS
 10
5.7328672762
 20
5.6001198968
 11
5.7328672762
 21
5.6226198968
  0
LINE
  5
237
100
AcDbEntity
  8
LAYER_FEATURE
100
AcDbLine
 62
7
  6
CONTINUOUS
 10
5.7778672762
 20
5.6226198968
 11
5.7778672762
 21
5.6001198968
  0
LINE
  5
238
100
AcDbEntity
  8
LAYER_FEATURE
100
AcDbLine
 62
7
  6
CONTINUOUS
 10
5.673943225
 20
5.4048967776
 11
5.7328672762
 21
5.6001198968
  0
LINE
  5
239
100
AcDbEntity
  8
LAYER_FEATURE
100
AcDbLine
 62
7
  6
CONTINUOUS
 10
5.7778672762
 20
5.6001198968
 11
5.8367913274
 21
5.4048967776
  0
LINE
  5
23A
100
AcDbEntity
  8
LAYER_FEATURE
100
AcDbLine
 62
7
  6
CONTINUOUS
 10
6.1078672762
 20
5.6001198968
 11
6.1078672762
 21
5.6226198968
  0
LINE
  5
23B
100
AcDbEntity
  8
LAYER_FEATURE
100
AcDbLine
 62
7
  6
CONTINUOUS
 10
6.048943225
 20
5.4048967776
 11
6.1078672762
 21
5.6001198968
  0
LINE
  5
23C
100
AcDbEntity
  8
0
100
AcDbLine
 62
7
  6
CONTINUOUS
 10
3.9749547929
 20
5.3951198968
 11
4.1607797595
 21
5.3951198968
  0
LINE
  5
23D
100
AcDbEntity
  8
LAYER_FEATURE
100
AcDbLine
 62
7
  6
CONTINUOUS
 10
4.3499547929
 20
5.3951198968
 11
4.5357797595
 21
5.3951198968
  0
LINE
  5
23E
100
AcDbEntity
  8
LAYER_FEATURE
100
AcDbLine
 62
7
  6
CONTINUOUS
 10
4.7249547929
 20
5.3951198968
 11
4.9107797595
 21
5.3951198968
  0
LINE
  5
23F
100
AcDbEntity
  8
LAYER_FEATURE
100
AcDbLine
 62
7
  6
CONTINUOUS
 10
5.0999547929
 20
5.3951198968
 11
5.2857797595
 21
5.3951198968
  0
LINE
  5
240
100
AcDbEntity
  8
LAYER_FEATURE
100
AcDbLine
 62
7
  6
CONTINUOUS
 10
5.4749547929
 20
5.3951198968
 11
5.6607797595
 21
5.3951198968
  0
LINE
  5
241
100
AcDbEntity
  8
LAYER_FEATURE
100
AcDbLine
 62
7
  6
CONTINUOUS
 10
5.8499547929
 20
5.3951198968
 11
6.0357797595
 21
5.3951198968
  0
LINE
  5
242
100
AcDbEntity
  8
LAYER_FEATURE
100
AcDbLine
 62
7
  6
CONTINUOUS
 10
6.2249547929
 20
5.3951198968
 11
6.4107797595
 21
5.3951198968
  0
LINE
  5
243
100
AcDbEntity
  8
LAYER_FEATURE
100
AcDbLine
 62
7
  6
CONTINUOUS
 10
6.5999547929
 20
5.3951198968
 11
6.7857797595
 21
5.3951198968
  0
LINE
  5
244
100
AcDbEntity
  8
LAYER_FEATURE
100
AcDbLine
 62
7
  6
CONTINUOUS
 10
6.9749547929
 20
5.3951198968
 11
7.1607797595
 21
5.3951198968
  0
LINE
  5
245
100
AcDbEntity
  8
LAYER_FEATURE
100
AcDbLine
 62
7
  6
CONTINUOUS
 10
7.3499547929
 20
5.3951198968
 11
7.5357797595
 21
5.3951198968
  0
LINE
  5
246
100
AcDbEntity
  8
LAYER_FEATURE
100
AcDbLine
 62
7
  6
CONTINUOUS
 10
7.7249547929
 20
5.3951198968
 11
7.9107797595
 21
5.3951198968
  0
LINE
  5
247
100
AcDbEntity
  8
LAYER_FEATURE
100
AcDbLine
 62
7
  6
CONTINUOUS
 10
8.0999547929
 20
5.3951198968
 11
8.2857797595
 21
5.3951198968
  0
LINE
  5
248
100
AcDbEntity
  8
LAYER_FEATURE
100
AcDbLine
 62
7
  6
CONTINUOUS
 10
6.1528672762
 20
5.6226198968
 11
6.1528672762
 21
5.6001198968
  0
LINE
  5
249
100
AcDbEntity
  8
LAYER_FEATURE
100
AcDbLine
 62
7
  6
CONTINUOUS
 10
4.2328672762
 20
5.6226198968
 11
4.2778672762
 21
5.6226198968
  0
LINE
  5
24A
100
AcDbEntity
  8
LAYER_FEATURE
100
AcDbLine
 62
7
  6
CONTINUOUS
 10
4.6078672762
 20
5.6226198968
 11
4.6528672762
 21
5.6226198968
  0
LINE
  5
24B
100
AcDbEntity
  8
LAYER_FEATURE
100
AcDbLine
 62
7
  6
CONTINUOUS
 10
4.9828672762
 20
5.6226198968
 11
5.0278672762
 21
5.6226198968
  0
LINE
  5
24C
100
AcDbEntity
  8
LAYER_FEATURE
100
AcDbLine
 62
7
  6
CONTINUOUS
 10
5.3578672762
 20
5.6226198968
 11
5.4028672762
 21
5.6226198968
  0
LINE
  5
24D
100
AcDbEntity
  8
LAYER_FEATURE
100
AcDbLine
 62
7
  6
CONTINUOUS
 10
5.7328672762
 20
5.6226198968
 11
5.7778672762
 21
5.6226198968
  0
LINE
  5
24E
100
AcDbEntity
  8
LAYER_FEATURE
100
AcDbLine
 62
7
  6
CONTINUOUS
 10
6.1078672762
 20
5.6226198968
 11
6.1528672762
 21
5.6226198968
  0
LINE
  5
24F
100
AcDbEntity
  8
LAYER_FEATURE
100
AcDbLine
 62
7
  6
CONTINUOUS
 10
6.4828672762
 20
5.6226198968
 11
6.5278672762
 21
5.6226198968
  0
LINE
  5
250
100
AcDbEntity
  8
LAYER_FEATURE
100
AcDbLine
 62
7
  6
CONTINUOUS
 10
6.8578672762
 20
5.6226198968
 11
6.9028672762
 21
5.6226198968
  0
LINE
  5
251
100
AcDbEntity
  8
LAYER_FEATURE
100
AcDbLine
 62
7
  6
CONTINUOUS
 10
7.2328672762
 20
5.6226198968
 11
7.2778672762
 21
5.6226198968
  0
LINE
  5
252
100
AcDbEntity
  8
LAYER_FEATURE
100
AcDbLine
 62
7
  6
CONTINUOUS
 10
7.6078672762
 20
5.6226198968
 11
7.6528672762
 21
5.6226198968
  0
LINE
  5
253
100
AcDbEntity
  8
LAYER_FEATURE
100
AcDbLine
 62
7
  6
CONTINUOUS
 10
7.9828672762
 20
5.6226198968
 11
8.0278672762
 21
5.6226198968
  0
LINE
  5
254
100
AcDbEntity
  8
0
100
AcDbLine
 62
7
  6
CONTINUOUS
 10
8.3503672762
 20
5.6451198968
 11
3.9103672762
 21
5.6451198968
  0
LINE
  5
255
100
AcDbEntity
  8
LAYER_FEATURE
100
AcDbLine
 62
7
  6
CONTINUOUS
 10
6.1528672762
 20
5.6001198968
 11
6.2117913274
 21
5.4048967776
  0
LINE
  5
256
100
AcDbEntity
  8
LAYER_FEATURE
100
AcDbLine
 62
7
  6
CONTINUOUS
 10
6.423943225
 20
5.4048967776
 11
6.4828672762
 21
5.6001198968
  0
LINE
  5
257
100
AcDbEntity
  8
LAYER_FEATURE
100
AcDbLine
 62
7
  6
CONTINUOUS
 10
6.4828672762
 20
5.6001198968
 11
6.4828672762
 21
5.6226198968
  0
LINE
  5
258
100
AcDbEntity
  8
LAYER_FEATURE
100
AcDbLine
 62
7
  6
CONTINUOUS
 10
6.5278672762
 20
5.6226198968
 11
6.5278672762
 21
5.6001198968
  0
LINE
  5
259
100
AcDbEntity
  8
LAYER_FEATURE
100
AcDbLine
 62
7
  6
CONTINUOUS
 10
6.5278672762
 20
5.6001198968
 11
6.5867913274
 21
5.4048967776
  0
LINE
  5
25A
100
AcDbEntity
  8
LAYER_FEATURE
100
AcDbLine
 62
7
  6
CONTINUOUS
 10
6.8578672762
 20
5.6001198968
 11
6.8578672762
 21
5.6226198968
  0
LINE
  5
25B
100
AcDbEntity
  8
LAYER_FEATURE
100
AcDbLine
 62
7
  6
CONTINUOUS
 10
6.798943225
 20
5.4048967776
 11
6.8578672762
 21
5.6001198968
  0
LINE
  5
25C
100
AcDbEntity
  8
LAYER_FEATURE
100
AcDbLine
 62
7
  6
CONTINUOUS
 10
6.9028672762
 20
5.6001198968
 11
6.9617913274
 21
5.4048967776
  0
LINE
  5
25D
100
AcDbEntity
  8
LAYER_FEATURE
100
AcDbLine
 62
7
  6
CONTINUOUS
 10
6.9028672762
 20
5.6226198968
 11
6.9028672762
 21
5.6001198968
  0
LINE
  5
25E
100
AcDbEntity
  8
LAYER_FEATURE
100
AcDbLine
 62
7
  6
CONTINUOUS
 10
7.173943225
 20
5.4048967776
 11
7.2328672762
 21
5.6001198968
  0
LINE
  5
25F
100
AcDbEntity
  8
LAYER_FEATURE
100
AcDbLine
 62
7
  6
CONTINUOUS
 10
7.2328672762
 20
5.6001198968
 11
7.2328672762
 21
5.6226198968
  0
LINE
  5
260
100
AcDbEntity
  8
LAYER_FEATURE
100
AcDbLine
 62
7
  6
CONTINUOUS
 10
7.2778672762
 20
5.6226198968
 11
7.2778672762
 21
5.6001198968
  0
LINE
  5
261
100
AcDbEntity
  8
LAYER_FEATURE
100
AcDbLine
 62
7
  6
CONTINUOUS
 10
7.2778672762
 20
5.6001198968
 11
7.3367913274
 21
5.4048967776
  0
LINE
  5
262
100
AcDbEntity
  8
LAYER_FEATURE
100
AcDbLine
 62
7
  6
CONTINUOUS
 10
7.6078672762
 20
5.6001198968
 11
7.6078672762
 21
5.6226198968
  0
LINE
  5
263
100
AcDbEntity
  8
LAYER_FEATURE
100
AcDbLine
 62
7
  6
CONTINUOUS
 10
7.548943225
 20
5.4048967776
 11
7.6078672762
 21
5.6001198968
  0
LINE
  5
264
100
AcDbEntity
  8
LAYER_FEATURE
100
AcDbLine
 62
7
  6
CONTINUOUS
 10
7.6528672762
 20
5.6001198968
 11
7.7117913274
 21
5.4048967776
  0
LINE
  5
265
100
AcDbEntity
  8
LAYER_FEATURE
100
AcDbLine
 62
7
  6
CONTINUOUS
 10
7.6528672762
 20
5.6226198968
 11
7.6528672762
 21
5.6001198968
  0
LINE
  5
266
100
AcDbEntity
  8
LAYER_FEATURE
100
AcDbLine
 62
7
  6
CONTINUOUS
 10
7.923943225
 20
5.4048967776
 11
7.9828672762
 21
5.6001198968
  0
LINE
  5
267
100
AcDbEntity
  8
LAYER_FEATURE
100
AcDbLine
 62
7
  6
CONTINUOUS
 10
7.9828672762
 20
5.6001198968
 11
7.9828672762
 21
5.6226198968
  0
LINE
  5
268
100
AcDbEntity
  8
LAYER_FEATURE
100
AcDbLine
 62
7
  6
CONTINUOUS
 10
8.0278672762
 20
5.6226198968
 11
8.0278672762
 21
5.6001198968
  0
LINE
  5
269
100
AcDbEntity
  8
LAYER_FEATURE
100
AcDbLine
 62
7
  6
CONTINUOUS
 10
8.0278672762
 20
5.6001198968
 11
8.0867913274
 21
5.4048967776
  0
LINE
  5
26A
100
AcDbEntity
  8
0
100
AcDbLine
 62
7
  6
CONTINUOUS
 10
8.3578672762
 20
5.6001198968
 11
8.3578672762
 21
5.6376198968
  0
LINE
  5
26B
100
AcDbEntity
  8
LAYER_FEATURE
100
AcDbLine
 62
7
  6
CONTINUOUS
 10
8.298943225
 20
5.4048967776
 11
8.3578672762
 21
5.6001198968
  0
LINE
  5
26C
100
AcDbEntity
  8
0
100
AcDbLine
 62
7
  6
CONTINUOUS
 10
3.8433720839
 20
13.6000477814
 11
3.8433720839
 21
11.6000477814
  0
LINE
  5
26D
100
AcDbEntity
  8
0
100
AcDbLine
 62
7
  6
CONTINUOUS
 10
8.2983720839
 20
11.6000477814
 11
3.8433720839
 21
11.6000477814
  0
LINE
  5
26E
100
AcDbEntity
  8
0
100
AcDbLine
 62
7
  6
CONTINUOUS
 10
3.8433720839
 20
13.6000477814
 11
8.2983720839
 21
13.6000477814
  0
LINE
  5
26F
100
AcDbEntity
  8
0
100
AcDbLine
 62
7
  6
CONTINUOUS
 10
8.2983720839
 20
11.6000477814
 11
8.2983720839
 21
13.6000477814
  0
LINE
  5
270
100
AcDbEntity
  8
LAYER_FEATURE
100
AcDbLine
 62
7
  6
CONTINUOUS
 10
14.5603552569
 20
5.3356247044
 11
14.5603552569
 21
5.5406247044
  0
LINE
  5
271
100
AcDbEntity
  8
0
100
AcDbLine
 62
7
  6
CONTINUOUS
 10
14.5603552569
 20
5.5406247044
 11
14.5603552569
 21
5.5856247044
  0
LINE
  5
272
100
AcDbEntity
  8
LAYER_FEATURE
100
AcDbLine
 62
7
  6
CONTINUOUS
 10
14.5603552569
 20
5.3356247044
 11
16.5603552569
 21
5.3356247044
  0
LINE
  5
273
100
AcDbEntity
  8
LAYER_FEATURE
100
AcDbLine
 62
7
  6
CONTINUOUS
 10
16.5603552569
 20
5.5406247044
 11
14.5603552569
 21
5.5406247044
  0
LINE
  5
274
100
AcDbEntity
  8
0
100
AcDbLine
 62
7
  6
CONTINUOUS
 10
14.5603552569
 20
5.5856247044
 11
16.5603552569
 21
5.5856247044
  0
LINE
  5
275
100
AcDbEntity
  8
0
100
AcDbLine
 62
7
  6
CONTINUOUS
 10
16.5603552569
 20
5.5856247044
 11
16.5603552569
 21
5.5406247044
  0
LINE
  5
276
100
AcDbEntity
  8
LAYER_FEATURE
100
AcDbLine
 62
7
  6
CONTINUOUS
 10
16.5603552569
 20
5.3356247044
 11
16.5603552569
 21
5.5406247044
  0
LINE
  5
277
100
AcDbEntity
  8
0
100
AcDbLine
 62
7
  6
CONTINUOUS
 10
13.1691991573
 20
11.8005172546
 11
13.1806382273
 21
11.7772068807
  0
LINE
  5
278
100
AcDbEntity
  8
0
100
AcDbLine
 62
7
  6
CONTINUOUS
 10
13.1806382273
 20
11.7772068807
 11
13.2944620972
 21
11.6558542438
  0
LINE
  5
279
100
AcDbEntity
  8
0
100
AcDbLine
 62
7
  6
CONTINUOUS
 10
13.4898669348
 20
11.6558542438
 11
13.4845883553
 21
11.7772068807
  0
LINE
  5
27A
100
AcDbEntity
  8
0
100
AcDbLine
 62
7
  6
CONTINUOUS
 10
13.6530741053
 20
13.3693854291
 11
13.1689414584
 21
11.8027316098
  0
LINE
  5
27B
100
AcDbEntity
  8
0
100
AcDbLine
 62
7
  6
CONTINUOUS
 10
13.4845883553
 20
11.7772068807
 11
13.4777249133
 21
11.791193105
  0
LINE
  5
27C
100
AcDbEntity
  8
LAYER_FEATURE
100
AcDbLine
 62
7
  6
CONTINUOUS
 10
13.5191726581
 20
11.791193105
 11
13.5260361001
 21
11.7772068807
  0
LINE
  5
27D
100
AcDbEntity
  8
0
100
AcDbLine
 62
7
  6
CONTINUOUS
 10
13.4896680638
 20
11.6542641951
 11
13.4898669348
 21
11.6558542438
  0
LINE
  5
27E
100
AcDbEntity
  8
LAYER_FEATURE
100
AcDbLine
 62
7
  6
CONTINUOUS
 10
13.5260361001
 20
11.7772068807
 11
13.6398599699
 21
11.6558542438
  0
LINE
  5
27F
100
AcDbEntity
  8
LAYER_FEATURE
100
AcDbLine
 62
7
  6
CONTINUOUS
 10
13.8299862281
 20
11.7772068807
 11
13.8231227861
 21
11.791193105
  0
LINE
  5
280
100
AcDbEntity
  8
LAYER_FEATURE
100
AcDbLine
 62
7
  6
CONTINUOUS
 10
13.8352648076
 20
11.6558542438
 11
13.8299862281
 21
11.7772068807
  0
LINE
  5
281
100
AcDbEntity
  8
0
100
AcDbLine
 62
7
  6
CONTINUOUS
 10
13.4889104255
 20
11.791193105
 11
13.4845883553
 21
11.7772068807
  0
LINE
  5
282
100
AcDbEntity
  8
0
100
AcDbLine
 62
7
  6
CONTINUOUS
 10
13.4896676491
 20
11.654264323
 11
13.5272573995
 21
11.7759047997
  0
LINE
  5
283
100
AcDbEntity
  8
LAYER_FEATURE
100
AcDbLine
 62
7
  6
CONTINUOUS
 10
13.8714339728
 20
11.7772068807
 11
13.9852578427
 21
11.6558542438
  0
LINE
  5
284
100
AcDbEntity
  8
LAYER_FEATURE
100
AcDbLine
 62
7
  6
CONTINUOUS
 10
13.8645705308
 20
11.791193105
 11
13.8714339728
 21
11.7772068807
  0
LINE
  5
285
100
AcDbEntity
  8
LAYER_FEATURE
100
AcDbLine
 62
7
  6
CONTINUOUS
 10
13.8350659365
 20
11.6542641951
 11
13.8352648076
 21
11.6558542438
  0
LINE
  5
286
100
AcDbEntity
  8
LAYER_FEATURE
100
AcDbLine
 62
7
  6
CONTINUOUS
 10
14.1753841008
 20
11.7772068807
 11
14.1685206588
 21
11.791193105
  0
LINE
  5
287
100
AcDbEntity
  8
LAYER_FEATURE
100
AcDbLine
 62
7
  6
CONTINUOUS
 10
14.1806626803
 20
11.6558542438
 11
14.1753841008
 21
11.7772068807
  0
LINE
  5
288
100
AcDbEntity
  8
LAYER_FEATURE
100
AcDbLine
 62
7
  6
CONTINUOUS
 10
13.8343082983
 20
11.791193105
 11
13.8299862281
 21
11.7772068807
  0
LINE
  5
289
100
AcDbEntity
  8
LAYER_FEATURE
100
AcDbLine
 62
7
  6
CONTINUOUS
 10
13.8350655219
 20
11.654264323
 11
13.8726552722
 21
11.7759047997
  0
LINE
  5
28A
100
AcDbEntity
  8
LAYER_FEATURE
100
AcDbLine
 62
7
  6
CONTINUOUS
 10
14.2168318456
 20
11.7772068807
 11
14.3306557154
 21
11.6558542438
  0
LINE
  5
28B
100
AcDbEntity
  8
LAYER_FEATURE
100
AcDbLine
 62
7
  6
CONTINUOUS
 10
14.2099684036
 20
11.791193105
 11
14.2168318456
 21
11.7772068807
  0
LINE
  5
28C
100
AcDbEntity
  8
LAYER_FEATURE
100
AcDbLine
 62
7
  6
CONTINUOUS
 10
14.1804638093
 20
11.6542641951
 11
14.1806626803
 21
11.6558542438
  0
LINE
  5
28D
100
AcDbEntity
  8
LAYER_FEATURE
100
AcDbLine
 62
7
  6
CONTINUOUS
 10
14.5622297183
 20
11.7772068807
 11
14.6760535882
 21
11.6558542438
  0
LINE
  5
28E
100
AcDbEntity
  8
LAYER_FEATURE
100
AcDbLine
 62
7
  6
CONTINUOUS
 10
14.5207819736
 20
11.7772068807
 11
14.5139185316
 21
11.791193105
  0
LINE
  5
28F
100
AcDbEntity
  8
LAYER_FEATURE
100
AcDbLine
 62
7
  6
CONTINUOUS
 10
14.5553662763
 20
11.791193105
 11
14.5622297183
 21
11.7772068807
  0
LINE
  5
290
100
AcDbEntity
  8
LAYER_FEATURE
100
AcDbLine
 62
7
  6
CONTINUOUS
 10
14.5260605531
 20
11.6558542438
 11
14.5207819736
 21
11.7772068807
  0
LINE
  5
291
100
AcDbEntity
  8
LAYER_FEATURE
100
AcDbLine
 62
7
  6
CONTINUOUS
 10
14.179706171
 20
11.791193105
 11
14.1753841008
 21
11.7772068807
  0
LINE
  5
292
100
AcDbEntity
  8
LAYER_FEATURE
100
AcDbLine
 62
7
  6
CONTINUOUS
 10
14.1804633946
 20
11.654264323
 11
14.218053145
 21
11.7759047997
  0
LINE
  5
293
100
AcDbEntity
  8
LAYER_FEATURE
100
AcDbLine
 62
7
  6
CONTINUOUS
 10
14.525861682
 20
11.6542641951
 11
14.5260605531
 21
11.6558542438
  0
LINE
  5
294
100
AcDbEntity
  8
0
100
AcDbLine
 62
7
  6
CONTINUOUS
 10
13.3095688098
 20
11.6497768372
 11
13.4807249382
 21
11.6497768372
  0
LINE
  5
295
100
AcDbEntity
  8
LAYER_FEATURE
100
AcDbLine
 62
7
  6
CONTINUOUS
 10
13.6549666825
 20
11.6497768372
 11
13.826122811
 21
11.6497768372
  0
LINE
  5
296
100
AcDbEntity
  8
LAYER_FEATURE
100
AcDbLine
 62
7
  6
CONTINUOUS
 10
14.0003645553
 20
11.6497768372
 11
14.1715206837
 21
11.6497768372
  0
LINE
  5
297
100
AcDbEntity
  8
LAYER_FEATURE
100
AcDbLine
 62
7
  6
CONTINUOUS
 10
14.345762428
 20
11.6497768372
 11
14.5169185565
 21
11.6497768372
  0
LINE
  5
298
100
AcDbEntity
  8
LAYER_FEATURE
100
AcDbLine
 62
7
  6
CONTINUOUS
 10
14.6911603008
 20
11.6497768372
 11
14.8623164292
 21
11.6497768372
  0
LINE
  5
299
100
AcDbEntity
  8
LAYER_FEATURE
100
AcDbLine
 62
7
  6
CONTINUOUS
 10
15.0365581735
 20
11.6497768372
 11
15.207714302
 21
11.6497768372
  0
LINE
  5
29A
100
AcDbEntity
  8
LAYER_FEATURE
100
AcDbLine
 62
7
  6
CONTINUOUS
 10
15.3819560463
 20
11.6497768372
 11
15.5531121747
 21
11.6497768372
  0
LINE
  5
29B
100
AcDbEntity
  8
LAYER_FEATURE
100
AcDbLine
 62
7
  6
CONTINUOUS
 10
15.727353919
 20
11.6497768372
 11
15.8985100475
 21
11.6497768372
  0
LINE
  5
29C
100
AcDbEntity
  8
LAYER_FEATURE
100
AcDbLine
 62
7
  6
CONTINUOUS
 10
16.0727517918
 20
11.6497768372
 11
16.2439079202
 21
11.6497768372
  0
LINE
  5
29D
100
AcDbEntity
  8
LAYER_FEATURE
100
AcDbLine
 62
7
  6
CONTINUOUS
 10
16.4181496645
 20
11.6497768372
 11
16.589305793
 21
11.6497768372
  0
LINE
  5
29E
100
AcDbEntity
  8
LAYER_FEATURE
100
AcDbLine
 62
7
  6
CONTINUOUS
 10
16.7635475373
 20
11.6497768372
 11
16.9347036657
 21
11.6497768372
  0
LINE
  5
29F
100
AcDbEntity
  8
LAYER_FEATURE
100
AcDbLine
 62
7
  6
CONTINUOUS
 10
17.10894541
 20
11.6497768372
 11
17.2801015385
 21
11.6497768372
  0
LINE
  5
2A0
100
AcDbEntity
  8
LAYER_FEATURE
100
AcDbLine
 62
7
  6
CONTINUOUS
 10
14.9076275911
 20
11.7772068807
 11
15.0214514609
 21
11.6558542438
  0
LINE
  5
2A1
100
AcDbEntity
  8
LAYER_FEATURE
100
AcDbLine
 62
7
  6
CONTINUOUS
 10
14.8661798463
 20
11.7772068807
 11
14.8593164043
 21
11.791193105
  0
LINE
  5
2A2
100
AcDbEntity
  8
LAYER_FEATURE
100
AcDbLine
 62
7
  6
CONTINUOUS
 10
14.9007641491
 20
11.791193105
 11
14.9076275911
 21
11.7772068807
  0
LINE
  5
2A3
100
AcDbEntity
  8
LAYER_FEATURE
100
AcDbLine
 62
7
  6
CONTINUOUS
 10
14.8714584258
 20
11.6558542438
 11
14.8661798463
 21
11.7772068807
  0
LINE
  5
2A4
100
AcDbEntity
  8
LAYER_FEATURE
100
AcDbLine
 62
7
  6
CONTINUOUS
 10
14.5251040438
 20
11.791193105
 11
14.5207819736
 21
11.7772068807
  0
LINE
  5
2A5
100
AcDbEntity
  8
LAYER_FEATURE
100
AcDbLine
 62
7
  6
CONTINUOUS
 10
14.5258612674
 20
11.654264323
 11
14.5634510178
 21
11.7759047997
  0
LINE
  5
2A6
100
AcDbEntity
  8
LAYER_FEATURE
100
AcDbLine
 62
7
  6
CONTINUOUS
 10
13.4777249133
 20
11.791193105
 11
13.5191726581
 21
11.791193105
  0
LINE
  5
2A7
100
AcDbEntity
  8
LAYER_FEATURE
100
AcDbLine
 62
7
  6
CONTINUOUS
 10
13.8231227861
 20
11.791193105
 11
13.8645705308
 21
11.791193105
  0
LINE
  5
2A8
100
AcDbEntity
  8
LAYER_FEATURE
100
AcDbLine
 62
7
  6
CONTINUOUS
 10
14.1685206588
 20
11.791193105
 11
14.2099684036
 21
11.791193105
  0
LINE
  5
2A9
100
AcDbEntity
  8
LAYER_FEATURE
100
AcDbLine
 62
7
  6
CONTINUOUS
 10
14.5139185316
 20
11.791193105
 11
14.5553662763
 21
11.791193105
  0
LINE
  5
2AA
100
AcDbEntity
  8
LAYER_FEATURE
100
AcDbLine
 62
7
  6
CONTINUOUS
 10
14.8593164043
 20
11.791193105
 11
14.9007641491
 21
11.791193105
  0
LINE
  5
2AB
100
AcDbEntity
  8
LAYER_FEATURE
100
AcDbLine
 62
7
  6
CONTINUOUS
 10
15.2047142771
 20
11.791193105
 11
15.2461620218
 21
11.791193105
  0
LINE
  5
2AC
100
AcDbEntity
  8
LAYER_FEATURE
100
AcDbLine
 62
7
  6
CONTINUOUS
 10
15.5501121499
 20
11.791193105
 11
15.5915598946
 21
11.791193105
  0
LINE
  5
2AD
100
AcDbEntity
  8
LAYER_FEATURE
100
AcDbLine
 62
7
  6
CONTINUOUS
 10
15.8955100226
 20
11.791193105
 11
15.9369577673
 21
11.791193105
  0
LINE
  5
2AE
100
AcDbEntity
  8
LAYER_FEATURE
100
AcDbLine
 62
7
  6
CONTINUOUS
 10
16.2409078954
 20
11.791193105
 11
16.2823556401
 21
11.791193105
  0
LINE
  5
2AF
100
AcDbEntity
  8
LAYER_FEATURE
100
AcDbLine
 62
7
  6
CONTINUOUS
 10
16.5863057681
 20
11.791193105
 11
16.6277535128
 21
11.791193105
  0
LINE
  5
2B0
100
AcDbEntity
  8
LAYER_FEATURE
100
AcDbLine
 62
7
  6
CONTINUOUS
 10
16.9317036409
 20
11.791193105
 11
16.9731513856
 21
11.791193105
  0
LINE
  5
2B1
100
AcDbEntity
  8
0
100
AcDbLine
 62
7
  6
CONTINUOUS
 10
17.2633301142
 20
11.8051793293
 11
13.1738193008
 21
11.8051793293
  0
LINE
  5
2B2
100
AcDbEntity
  8
LAYER_FEATURE
100
AcDbLine
 62
7
  6
CONTINUOUS
 10
15.2530254638
 20
11.7772068807
 11
15.3668493337
 21
11.6558542438
  0
LINE
  5
2B3
100
AcDbEntity
  8
LAYER_FEATURE
100
AcDbLine
 62
7
  6
CONTINUOUS
 10
14.8712595548
 20
11.6542641951
 11
14.8714584258
 21
11.6558542438
  0
LINE
  5
2B4
100
AcDbEntity
  8
LAYER_FEATURE
100
AcDbLine
 62
7
  6
CONTINUOUS
 10
15.2115777191
 20
11.7772068807
 11
15.2047142771
 21
11.791193105
  0
LINE
  5
2B5
100
AcDbEntity
  8
LAYER_FEATURE
100
AcDbLine
 62
7
  6
CONTINUOUS
 10
15.2461620218
 20
11.791193105
 11
15.2530254638
 21
11.7772068807
  0
LINE
  5
2B6
100
AcDbEntity
  8
LAYER_FEATURE
100
AcDbLine
 62
7
  6
CONTINUOUS
 10
14.8705019165
 20
11.791193105
 11
14.8661798463
 21
11.7772068807
  0
LINE
  5
2B7
100
AcDbEntity
  8
LAYER_FEATURE
100
AcDbLine
 62
7
  6
CONTINUOUS
 10
14.8712591401
 20
11.654264323
 11
14.9088488905
 21
11.7759047997
  0
LINE
  5
2B8
100
AcDbEntity
  8
LAYER_FEATURE
100
AcDbLine
 62
7
  6
CONTINUOUS
 10
15.5984233366
 20
11.7772068807
 11
15.7122472064
 21
11.6558542438
  0
LINE
  5
2B9
100
AcDbEntity
  8
LAYER_FEATURE
100
AcDbLine
 62
7
  6
CONTINUOUS
 10
15.2168562986
 20
11.6558542438
 11
15.2115777191
 21
11.7772068807
  0
LINE
  5
2BA
100
AcDbEntity
  8
LAYER_FEATURE
100
AcDbLine
 62
7
  6
CONTINUOUS
 10
15.2166574275
 20
11.6542641951
 11
15.2168562986
 21
11.6558542438
  0
LINE
  5
2BB
100
AcDbEntity
  8
LAYER_FEATURE
100
AcDbLine
 62
7
  6
CONTINUOUS
 10
15.9438212093
 20
11.7772068807
 11
16.0576450792
 21
11.6558542438
  0
LINE
  5
2BC
100
AcDbEntity
  8
LAYER_FEATURE
100
AcDbLine
 62
7
  6
CONTINUOUS
 10
15.5569755918
 20
11.7772068807
 11
15.5501121499
 21
11.791193105
  0
LINE
  5
2BD
100
AcDbEntity
  8
LAYER_FEATURE
100
AcDbLine
 62
7
  6
CONTINUOUS
 10
15.5915598946
 20
11.791193105
 11
15.5984233366
 21
11.7772068807
  0
LINE
  5
2BE
100
AcDbEntity
  8
LAYER_FEATURE
100
AcDbLine
 62
7
  6
CONTINUOUS
 10
15.2158997893
 20
11.791193105
 11
15.2115777191
 21
11.7772068807
  0
LINE
  5
2BF
100
AcDbEntity
  8
LAYER_FEATURE
100
AcDbLine
 62
7
  6
CONTINUOUS
 10
15.2166570129
 20
11.654264323
 11
15.2542467633
 21
11.7759047997
  0
LINE
  5
2C0
100
AcDbEntity
  8
LAYER_FEATURE
100
AcDbLine
 62
7
  6
CONTINUOUS
 10
15.5622541714
 20
11.6558542438
 11
15.5569755918
 21
11.7772068807
  0
LINE
  5
2C1
100
AcDbEntity
  8
LAYER_FEATURE
100
AcDbLine
 62
7
  6
CONTINUOUS
 10
16.2892190821
 20
11.7772068807
 11
16.4030429519
 21
11.6558542438
  0
LINE
  5
2C2
100
AcDbEntity
  8
LAYER_FEATURE
100
AcDbLine
 62
7
  6
CONTINUOUS
 10
15.9023734646
 20
11.7772068807
 11
15.8955100226
 21
11.791193105
  0
LINE
  5
2C3
100
AcDbEntity
  8
LAYER_FEATURE
100
AcDbLine
 62
7
  6
CONTINUOUS
 10
15.9369577673
 20
11.791193105
 11
15.9438212093
 21
11.7772068807
  0
LINE
  5
2C4
100
AcDbEntity
  8
LAYER_FEATURE
100
AcDbLine
 62
7
  6
CONTINUOUS
 10
15.5620553003
 20
11.6542641951
 11
15.5622541714
 21
11.6558542438
  0
LINE
  5
2C5
100
AcDbEntity
  8
LAYER_FEATURE
100
AcDbLine
 62
7
  6
CONTINUOUS
 10
15.561297662
 20
11.791193105
 11
15.5569755918
 21
11.7772068807
  0
LINE
  5
2C6
100
AcDbEntity
  8
LAYER_FEATURE
100
AcDbLine
 62
7
  6
CONTINUOUS
 10
15.5620548856
 20
11.654264323
 11
15.599644636
 21
11.7759047997
  0
LINE
  5
2C7
100
AcDbEntity
  8
LAYER_FEATURE
100
AcDbLine
 62
7
  6
CONTINUOUS
 10
16.6346169548
 20
11.7772068807
 11
16.7484408247
 21
11.6558542438
  0
LINE
  5
2C8
100
AcDbEntity
  8
LAYER_FEATURE
100
AcDbLine
 62
7
  6
CONTINUOUS
 10
15.9076520441
 20
11.6558542438
 11
15.9023734646
 21
11.7772068807
  0
LINE
  5
2C9
100
AcDbEntity
  8
LAYER_FEATURE
100
AcDbLine
 62
7
  6
CONTINUOUS
 10
16.2477713374
 20
11.7772068807
 11
16.2409078954
 21
11.791193105
  0
LINE
  5
2CA
100
AcDbEntity
  8
LAYER_FEATURE
100
AcDbLine
 62
7
  6
CONTINUOUS
 10
16.2823556401
 20
11.791193105
 11
16.2892190821
 21
11.7772068807
  0
LINE
  5
2CB
100
AcDbEntity
  8
LAYER_FEATURE
100
AcDbLine
 62
7
  6
CONTINUOUS
 10
15.907453173
 20
11.6542641951
 11
15.9076520441
 21
11.6558542438
  0
LINE
  5
2CC
100
AcDbEntity
  8
LAYER_FEATURE
100
AcDbLine
 62
7
  6
CONTINUOUS
 10
15.9066955348
 20
11.791193105
 11
15.9023734646
 21
11.7772068807
  0
LINE
  5
2CD
100
AcDbEntity
  8
LAYER_FEATURE
100
AcDbLine
 62
7
  6
CONTINUOUS
 10
15.9074527584
 20
11.654264323
 11
15.9450425088
 21
11.7759047997
  0
LINE
  5
2CE
100
AcDbEntity
  8
LAYER_FEATURE
100
AcDbLine
 62
7
  6
CONTINUOUS
 10
16.9800148276
 20
11.7772068807
 11
17.0938386974
 21
11.6558542438
  0
LINE
  5
2CF
100
AcDbEntity
  8
LAYER_FEATURE
100
AcDbLine
 62
7
  6
CONTINUOUS
 10
16.2530499169
 20
11.6558542438
 11
16.2477713374
 21
11.7772068807
  0
LINE
  5
2D0
100
AcDbEntity
  8
LAYER_FEATURE
100
AcDbLine
 62
7
  6
CONTINUOUS
 10
16.5931692101
 20
11.7772068807
 11
16.5863057681
 21
11.791193105
  0
LINE
  5
2D1
100
AcDbEntity
  8
LAYER_FEATURE
100
AcDbLine
 62
7
  6
CONTINUOUS
 10
16.6277535128
 20
11.791193105
 11
16.6346169548
 21
11.7772068807
  0
LINE
  5
2D2
100
AcDbEntity
  8
LAYER_FEATURE
100
AcDbLine
 62
7
  6
CONTINUOUS
 10
16.2528510458
 20
11.6542641951
 11
16.2530499169
 21
11.6558542438
  0
LINE
  5
2D3
100
AcDbEntity
  8
LAYER_FEATURE
100
AcDbLine
 62
7
  6
CONTINUOUS
 10
16.2520934075
 20
11.791193105
 11
16.2477713374
 21
11.7772068807
  0
LINE
  5
2D4
100
AcDbEntity
  8
LAYER_FEATURE
100
AcDbLine
 62
7
  6
CONTINUOUS
 10
16.2528506312
 20
11.654264323
 11
16.2904403815
 21
11.7759047997
  0
LINE
  5
2D5
100
AcDbEntity
  8
0
100
AcDbLine
 62
7
  6
CONTINUOUS
 10
13.6579519476
 20
13.3718331486
 11
17.747462761
 21
13.3718331486
  0
LINE
  5
2D6
100
AcDbEntity
  8
LAYER_FEATURE
100
AcDbLine
 62
7
  6
CONTINUOUS
 10
16.9385670829
 20
11.7772068807
 11
16.9317036409
 21
11.791193105
  0
LINE
  5
2D7
100
AcDbEntity
  8
LAYER_FEATURE
100
AcDbLine
 62
7
  6
CONTINUOUS
 10
16.5984477896
 20
11.6558542438
 11
16.5931692101
 21
11.7772068807
  0
LINE
  5
2D8
100
AcDbEntity
  8
LAYER_FEATURE
100
AcDbLine
 62
7
  6
CONTINUOUS
 10
16.9731513856
 20
11.791193105
 11
16.9800148276
 21
11.7772068807
  0
LINE
  5
2D9
100
AcDbEntity
  8
LAYER_FEATURE
100
AcDbLine
 62
7
  6
CONTINUOUS
 10
16.5982489185
 20
11.6542641951
 11
16.5984477896
 21
11.6558542438
  0
LINE
  5
2DA
100
AcDbEntity
  8
LAYER_FEATURE
100
AcDbLine
 62
7
  6
CONTINUOUS
 10
16.5974912803
 20
11.791193105
 11
16.5931692101
 21
11.7772068807
  0
LINE
  5
2DB
100
AcDbEntity
  8
LAYER_FEATURE
100
AcDbLine
 62
7
  6
CONTINUOUS
 10
16.5982485039
 20
11.654264323
 11
16.6358382543
 21
11.7759047997
  0
LINE
  5
2DC
100
AcDbEntity
  8
0
100
AcDbLine
 62
7
  6
CONTINUOUS
 10
17.2839649556
 20
11.7772068807
 11
17.2725258856
 21
11.8005172546
  0
LINE
  5
2DD
100
AcDbEntity
  8
LAYER_FEATURE
100
AcDbLine
 62
7
  6
CONTINUOUS
 10
16.9438456624
 20
11.6558542438
 11
16.9385670829
 21
11.7772068807
  0
LINE
  5
2DE
100
AcDbEntity
  8
LAYER_FEATURE
100
AcDbLine
 62
7
  6
CONTINUOUS
 10
16.9436467913
 20
11.6542641951
 11
16.9438456624
 21
11.6558542438
  0
LINE
  5
2DF
100
AcDbEntity
  8
LAYER_FEATURE
100
AcDbLine
 62
7
  6
CONTINUOUS
 10
16.9428891531
 20
11.791193105
 11
16.9385670829
 21
11.7772068807
  0
LINE
  5
2E0
100
AcDbEntity
  8
LAYER_FEATURE
100
AcDbLine
 62
7
  6
CONTINUOUS
 10
16.9436463767
 20
11.654264323
 11
16.981236127
 21
11.7759047997
  0
LINE
  5
2E1
100
AcDbEntity
  8
LAYER_FEATURE
100
AcDbLine
 62
7
  6
CONTINUOUS
 10
17.2892435351
 20
11.6558542438
 11
17.2839649556
 21
11.7772068807
  0
LINE
  5
2E2
100
AcDbEntity
  8
LAYER_FEATURE
100
AcDbLine
 62
7
  6
CONTINUOUS
 10
17.289044664
 20
11.6542641951
 11
17.2892435351
 21
11.6558542438
  0
LINE
  5
2E3
100
AcDbEntity
  8
LAYER_FEATURE
100
AcDbLine
 62
7
  6
CONTINUOUS
 10
17.7680976024
 20
13.3438607
 11
17.2839649556
 21
11.7772068807
  0
LINE
  5
2E4
100
AcDbEntity
  8
LAYER_FEATURE
100
AcDbLine
 62
7
  6
CONTINUOUS
 10
17.2890442494
 20
11.654264323
 11
17.7731768962
 21
13.2209181422
  0
LINE
  5
2E5
100
AcDbEntity
  8
LAYER_FEATURE
100
AcDbLine
 62
7
  6
CONTINUOUS
 10
17.7733761819
 20
13.2225080631
 11
17.7680976024
 21
13.3438607
  0
LINE
  5
2E6
100
AcDbEntity
  8
LAYER_FEATURE
100
AcDbLine
 62
7
  6
CONTINUOUS
 10
17.7733761819
 20
13.2225080631
 11
17.7731773108
 21
13.2209180144
  0
LINE
  5
2E7
100
AcDbEntity
  8
0
100
AcDbLine
 62
7
  6
CONTINUOUS
 10
17.7566585324
 20
13.3671710738
 11
17.7680976024
 21
13.3438607
  0
ARC
  5
2E8
100
AcDbEntity
  8
0
100
AcDbCircle
 62
7
  6
CONTINUOUS
 10
3.9749547929
 20
5.4088698968
 40
0.01375
100
AcDbArc
 50
196.7953511265
 51
270.0
  0
ARC
  5
2E9
100
AcDbEntity
  8
0
100
AcDbCircle
 62
7
  6
CONTINUOUS
 10
4.1607797595
 20
5.4088698968
 40
0.01375
100
AcDbArc
 50
270.0
 51
343.2046488735
  0
ARC
  5
2EA
100
AcDbEntity
  8
LAYER_FEATURE
100
AcDbCircle
 62
7
  6
CONTINUOUS
 10
4.3499547929
 20
5.4088698968
 40
0.01375
100
AcDbArc
 50
196.7953511265
 51
270.0
  0
ARC
  5
2EB
100
AcDbEntity
  8
LAYER_FEATURE
100
AcDbCircle
 62
7
  6
CONTINUOUS
 10
4.5357797595
 20
5.4088698968
 40
0.01375
100
AcDbArc
 50
270.0
 51
343.2046488735
  0
ARC
  5
2EC
100
AcDbEntity
  8
LAYER_FEATURE
100
AcDbCircle
 62
7
  6
CONTINUOUS
 10
4.7249547929
 20
5.4088698968
 40
0.01375
100
AcDbArc
 50
196.7953511265
 51
270.0
  0
ARC
  5
2ED
100
AcDbEntity
  8
LAYER_FEATURE
100
AcDbCircle
 62
7
  6
CONTINUOUS
 10
4.9107797595
 20
5.4088698968
 40
0.01375
100
AcDbArc
 50
270.0
 51
343.2046488735
  0
ARC
  5
2EE
100
AcDbEntity
  8
LAYER_FEATURE
100
AcDbCircle
 62
7
  6
CONTINUOUS
 10
5.0999547929
 20
5.4088698968
 40
0.01375
100
AcDbArc
 50
196.7953511265
 51
270.0
  0
ARC
  5
2EF
100
AcDbEntity
  8
LAYER_FEATURE
100
AcDbCircle
 62
7
  6
CONTINUOUS
 10
5.2857797595
 20
5.4088698968
 40
0.01375
100
AcDbArc
 50
270.0
 51
343.2046488735
  0
ARC
  5
2F0
100
AcDbEntity
  8
LAYER_FEATURE
100
AcDbCircle
 62
7
  6
CONTINUOUS
 10
5.4749547929
 20
5.4088698968
 40
0.01375
100
AcDbArc
 50
196.7953511265
 51
270.0
  0
ARC
  5
2F1
100
AcDbEntity
  8
LAYER_FEATURE
100
AcDbCircle
 62
7
  6
CONTINUOUS
 10
5.6607797595
 20
5.4088698968
 40
0.01375
100
AcDbArc
 50
270.0
 51
343.2046488735
  0
ARC
  5
2F2
100
AcDbEntity
  8
LAYER_FEATURE
100
AcDbCircle
 62
7
  6
CONTINUOUS
 10
5.8499547929
 20
5.4088698968
 40
0.01375
100
AcDbArc
 50
196.7953511265
 51
270.0
  0
ARC
  5
2F3
100
AcDbEntity
  8
LAYER_FEATURE
100
AcDbCircle
 62
7
  6
CONTINUOUS
 10
6.0357797595
 20
5.4088698968
 40
0.01375
100
AcDbArc
 50
270.0
 51
343.2046488735
  0
ARC
  5
2F4
100
AcDbEntity
  8
LAYER_FEATURE
100
AcDbCircle
 62
7
  6
CONTINUOUS
 10
6.2249547929
 20
5.4088698968
 40
0.01375
100
AcDbArc
 50
196.7953511265
 51
270.0
  0
ARC
  5
2F5
100
AcDbEntity
  8
LAYER_FEATURE
100
AcDbCircle
 62
7
  6
CONTINUOUS
 10
6.4107797595
 20
5.4088698968
 40
0.01375
100
AcDbArc
 50
270.0
 51
343.2046488735
  0
ARC
  5
2F6
100
AcDbEntity
  8
LAYER_FEATURE
100
AcDbCircle
 62
7
  6
CONTINUOUS
 10
6.5999547929
 20
5.4088698968
 40
0.01375
100
AcDbArc
 50
196.7953511265
 51
270.0
  0
ARC
  5
2F7
100
AcDbEntity
  8
LAYER_FEATURE
100
AcDbCircle
 62
7
  6
CONTINUOUS
 10
6.7857797595
 20
5.4088698968
 40
0.01375
100
AcDbArc
 50
270.0
 51
343.2046488735
  0
ARC
  5
2F8
100
AcDbEntity
  8
LAYER_FEATURE
100
AcDbCircle
 62
7
  6
CONTINUOUS
 10
6.9749547929
 20
5.4088698968
 40
0.01375
100
AcDbArc
 50
196.7953511265
 51
270.0
  0
ARC
  5
2F9
100
AcDbEntity
  8
LAYER_FEATURE
100
AcDbCircle
 62
7
  6
CONTINUOUS
 10
7.1607797595
 20
5.4088698968
 40
0.01375
100
AcDbArc
 50
270.0
 51
343.2046488735
  0
ARC
  5
2FA
100
AcDbEntity
  8
LAYER_FEATURE
100
AcDbCircle
 62
7
  6
CONTINUOUS
 10
7.3499547929
 20
5.4088698968
 40
0.01375
100
AcDbArc
 50
196.7953511265
 51
270.0
  0
ARC
  5
2FB
100
AcDbEntity
  8
LAYER_FEATURE
100
AcDbCircle
 62
7
  6
CONTINUOUS
 10
7.5357797595
 20
5.4088698968
 40
0.01375
100
AcDbArc
 50
270.0
 51
343.2046488735
  0
ARC
  5
2FC
100
AcDbEntity
  8
LAYER_FEATURE
100
AcDbCircle
 62
7
  6
CONTINUOUS
 10
8.2857797595
 20
5.4088698968
 40
0.01375
100
AcDbArc
 50
270.0
 51
343.2046488735
  0
ARC
  5
2FD
100
AcDbEntity
  8
LAYER_FEATURE
100
AcDbCircle
 62
7
  6
CONTINUOUS
 10
8.0999547929
 20
5.4088698968
 40
0.01375
100
AcDbArc
 50
196.7953511265
 51
270.0
  0
ARC
  5
2FE
100
AcDbEntity
  8
LAYER_FEATURE
100
AcDbCircle
 62
7
  6
CONTINUOUS
 10
7.9107797595
 20
5.4088698968
 40
0.01375
100
AcDbArc
 50
270.0
 51
343.2046488735
  0
ARC
  5
2FF
100
AcDbEntity
  8
LAYER_FEATURE
100
AcDbCircle
 62
7
  6
CONTINUOUS
 10
7.7249547929
 20
5.4088698968
 40
0.01375
100
AcDbArc
 50
196.7953511265
 51
270.0
  0
ARC
  5
300
100
AcDbEntity
  8
0
100
AcDbCircle
 62
7
  6
CONTINUOUS
 10
3.9103672762
 20
5.6376198968
 40
0.0075
100
AcDbArc
 50
90.0
 51
180.0
  0
ARC
  5
301
100
AcDbEntity
  8
0
100
AcDbCircle
 62
7
  6
CONTINUOUS
 10
8.3503672762
 20
5.6376198968
 40
0.0075
100
AcDbArc
 50
0.0
 51
90.0
  0
ARC
  5
302
100
AcDbEntity
  8
0
100
AcDbCircle
 62
7
  6
CONTINUOUS
 10
13.1713013874
 20
11.8020018751
 40
0.0024701287
100
AcDbArc
 50
162.8176811642
 51
173.1764857042
  0
SPLINE
  5
303
100
AcDbEntity
  8
0
100
AcDbSpline
 62
7
  6
CONTINUOUS
 70
0
 71
3
 72
11
 73
7
 74
0
 42
0.0000001
 43
0.0000001
 44
0.0000000001
 40
0.0
 40
0.0
 40
0.0
 40
0.0
 40
0.2646775377
 40
0.5366308069
 40
0.7885558833
 40
1.0
 40
1.0
 40
1.0
 40
1.0
 10
17.747462761
 20
13.3718331486
 30
0.0
 10
17.7484093209
 20
13.3718331486
 30
0.0
 10
17.7503323593
 20
13.3715738213
 30
0.0
 10
17.7530005352
 20
13.3705947927
 30
0.0
 10
17.7552230559
 20
13.3691496743
 30
0.0
 10
17.7563254017
 20
13.3678499228
 30
0.0
 10
17.7566585324
 20
13.3671710738
 30
0.0
  0
SPLINE
  5
304
100
AcDbEntity
  8
0
100
AcDbSpline
 62
7
  6
CONTINUOUS
 70
0
 71
3
 72
9
 73
5
 74
0
 42
0.0000001
 43
0.0000001
 44
0.0000000001
 40
0.0
 40
0.0
 40
0.0
 40
0.0
 40
0.2357230423
 40
1.0
 40
1.0
 40
1.0
 40
1.0
 10
13.168848755
 20
11.8022953548
 30
0.0
 10
13.1688316862
 20
11.802152807
 30
0.0
 10
13.1688112922
 20
11.8015416352
 30
0.0
 10
13.1689940938
 20
11.8009351302
 30
0.0
 10
13.1691991573
 20
11.8005172546
 30
0.0
  0
SPLINE
  5
305
100
AcDbEntity
  8
0
100
AcDbSpline
 62
7
  6
CONTINUOUS
 70
0
 71
3
 72
11
 73
7
 74
0
 42
0.0000001
 43
0.0000001
 44
0.0000000001
 40
0.0
 40
0.0
 40
0.0
 40
0.0
 40
0.2022219841
 40
0.4299972305
 40
0.6965191172
 40
1.0
 40
1.0
 40
1.0
 40
1.0
 10
13.6530741484
 20
13.3693854031
 30
0.0
 10
13.6531897668
 20
13.3697587168
 30
0.0
 10
13.653640237
 20
13.3704972239
 30
0.0
 10
13.6547736707
 20
13.3712731948
 30
0.0
 10
13.6562596945
 20
13.3717392226
 30
0.0
 10
13.6573654501
 20
13.3718331486
 30
0.0
 10
13.6579519476
 20
13.3718331486
 30
0.0
  0
SPLINE
  5
306
100
AcDbEntity
  8
LAYER_FEATURE
100
AcDbSpline
 62
7
  6
CONTINUOUS
 70
0
 71
3
 72
12
 73
8
 74
0
 42
0.0000001
 43
0.0000001
 44
0.0000000001
 40
0.0
 40
0.0
 40
0.0
 40
0.0
 40
0.3032810003
 40
0.5691605411
 40
0.7966025566
 40
0.9000392632
 40
1.0
 40
1.0
 40
1.0
 40
1.0
 10
17.2801015385
 20
11.6497768372
 30
0.0
 10
17.2811774813
 20
11.6497768372
 30
0.0
 10
17.2832047487
 20
11.6499489645
 30
0.0
 10
17.2859275029
 20
11.6508000567
 30
0.0
 10
17.2877119726
 20
11.6520322215
 30
0.0
 10
17.2886430617
 20
11.6532589191
 30
0.0
 10
17.2889390327
 20
11.6539256625
 30
0.0
 10
17.289043572
 20
11.6542645324
 30
0.0
  0
SPLINE
  5
307
100
AcDbEntity
  8
LAYER_FEATURE
100
AcDbSpline
 62
7
  6
CONTINUOUS
 70
0
 71
3
 72
11
 73
7
 74
0
 42
0.0000001
 43
0.0000001
 44
0.0000000001
 40
0.0
 40
0.0
 40
0.0
 40
0.0
 40
0.2304439672
 40
0.4848885946
 40
0.747304656
 40
1.0
 40
1.0
 40
1.0
 40
1.0
 10
17.0938386974
 20
11.6558542438
 30
0.0
 10
17.0947144238
 20
11.6549205934
 30
0.0
 10
17.0968410624
 20
11.6532186131
 30
0.0
 10
17.1005601531
 20
11.6513255929
 30
0.0
 10
17.1046758016
 20
11.6500923412
 30
0.0
 10
17.1075417293
 20
11.6497768372
 30
0.0
 10
17.10894541
 20
11.6497768372
 30
0.0
  0
SPLINE
  5
308
100
AcDbEntity
  8
LAYER_FEATURE
100
AcDbSpline
 62
7
  6
CONTINUOUS
 70
0
 71
3
 72
12
 73
8
 74
0
 42
0.0000001
 43
0.0000001
 44
0.0000000001
 40
0.0
 40
0.0
 40
0.0
 40
0.0
 40
0.3032810003
 40
0.5691605411
 40
0.7966025566
 40
0.9000392632
 40
1.0
 40
1.0
 40
1.0
 40
1.0
 10
16.9347036657
 20
11.6497768372
 30
0.0
 10
16.9357796085
 20
11.6497768372
 30
0.0
 10
16.9378068759
 20
11.6499489645
 30
0.0
 10
16.9405296302
 20
11.6508000567
 30
0.0
 10
16.9423140999
 20
11.6520322215
 30
0.0
 10
16.9432451889
 20
11.6532589191
 30
0.0
 10
16.94354116
 20
11.6539256625
 30
0.0
 10
16.9436456992
 20
11.6542645324
 30
0.0
  0
SPLINE
  5
309
100
AcDbEntity
  8
LAYER_FEATURE
100
AcDbSpline
 62
7
  6
CONTINUOUS
 70
0
 71
3
 72
11
 73
7
 74
0
 42
0.0000001
 43
0.0000001
 44
0.0000000001
 40
0.0
 40
0.0
 40
0.0
 40
0.0
 40
0.2304439672
 40
0.4848885946
 40
0.747304656
 40
1.0
 40
1.0
 40
1.0
 40
1.0
 10
16.7484408247
 20
11.6558542438
 30
0.0
 10
16.7493165511
 20
11.6549205934
 30
0.0
 10
16.7514431897
 20
11.6532186131
 30
0.0
 10
16.7551622803
 20
11.6513255929
 30
0.0
 10
16.7592779288
 20
11.6500923412
 30
0.0
 10
16.7621438565
 20
11.6497768372
 30
0.0
 10
16.7635475373
 20
11.6497768372
 30
0.0
  0
SPLINE
  5
30A
100
AcDbEntity
  8
LAYER_FEATURE
100
AcDbSpline
 62
7
  6
CONTINUOUS
 70
0
 71
3
 72
12
 73
8
 74
0
 42
0.0000001
 43
0.0000001
 44
0.0000000001
 40
0.0
 40
0.0
 40
0.0
 40
0.0
 40
0.3032810003
 40
0.5691605411
 40
0.7966025566
 40
0.9000392632
 40
1.0
 40
1.0
 40
1.0
 40
1.0
 10
16.589305793
 20
11.6497768372
 30
0.0
 10
16.5903817357
 20
11.6497768372
 30
0.0
 10
16.5924090032
 20
11.6499489645
 30
0.0
 10
16.5951317574
 20
11.6508000567
 30
0.0
 10
16.5969162271
 20
11.6520322215
 30
0.0
 10
16.5978473162
 20
11.6532589191
 30
0.0
 10
16.5981432872
 20
11.6539256625
 30
0.0
 10
16.5982478265
 20
11.6542645324
 30
0.0
  0
SPLINE
  5
30B
100
AcDbEntity
  8
LAYER_FEATURE
100
AcDbSpline
 62
7
  6
CONTINUOUS
 70
0
 71
3
 72
11
 73
7
 74
0
 42
0.0000001
 43
0.0000001
 44
0.0000000001
 40
0.0
 40
0.0
 40
0.0
 40
0.0
 40
0.2304439672
 40
0.4848885946
 40
0.747304656
 40
1.0
 40
1.0
 40
1.0
 40
1.0
 10
16.4030429519
 20
11.6558542438
 30
0.0
 10
16.4039186783
 20
11.6549205934
 30
0.0
 10
16.4060453169
 20
11.6532186131
 30
0.0
 10
16.4097644076
 20
11.6513255929
 30
0.0
 10
16.4138800561
 20
11.6500923412
 30
0.0
 10
16.4167459838
 20
11.6497768372
 30
0.0
 10
16.4181496645
 20
11.6497768372
 30
0.0
  0
SPLINE
  5
30C
100
AcDbEntity
  8
LAYER_FEATURE
100
AcDbSpline
 62
7
  6
CONTINUOUS
 70
0
 71
3
 72
12
 73
8
 74
0
 42
0.0000001
 43
0.0000001
 44
0.0000000001
 40
0.0
 40
0.0
 40
0.0
 40
0.0
 40
0.3032810003
 40
0.5691605411
 40
0.7966025566
 40
0.9000392632
 40
1.0
 40
1.0
 40
1.0
 40
1.0
 10
16.2439079202
 20
11.6497768372
 30
0.0
 10
16.244983863
 20
11.6497768372
 30
0.0
 10
16.2470111304
 20
11.6499489645
 30
0.0
 10
16.2497338847
 20
11.6508000567
 30
0.0
 10
16.2515183544
 20
11.6520322215
 30
0.0
 10
16.2524494434
 20
11.6532589191
 30
0.0
 10
16.2527454145
 20
11.6539256625
 30
0.0
 10
16.2528499537
 20
11.6542645324
 30
0.0
  0
SPLINE
  5
30D
100
AcDbEntity
  8
LAYER_FEATURE
100
AcDbSpline
 62
7
  6
CONTINUOUS
 70
0
 71
3
 72
11
 73
7
 74
0
 42
0.0000001
 43
0.0000001
 44
0.0000000001
 40
0.0
 40
0.0
 40
0.0
 40
0.0
 40
0.2304439672
 40
0.4848885946
 40
0.747304656
 40
1.0
 40
1.0
 40
1.0
 40
1.0
 10
16.0576450792
 20
11.6558542438
 30
0.0
 10
16.0585208056
 20
11.6549205934
 30
0.0
 10
16.0606474442
 20
11.6532186131
 30
0.0
 10
16.0643665348
 20
11.6513255929
 30
0.0
 10
16.0684821833
 20
11.6500923412
 30
0.0
 10
16.071348111
 20
11.6497768372
 30
0.0
 10
16.0727517918
 20
11.6497768372
 30
0.0
  0
SPLINE
  5
30E
100
AcDbEntity
  8
LAYER_FEATURE
100
AcDbSpline
 62
7
  6
CONTINUOUS
 70
0
 71
3
 72
12
 73
8
 74
0
 42
0.0000001
 43
0.0000001
 44
0.0000000001
 40
0.0
 40
0.0
 40
0.0
 40
0.0
 40
0.3032810003
 40
0.5691605411
 40
0.7966025566
 40
0.9000392632
 40
1.0
 40
1.0
 40
1.0
 40
1.0
 10
15.8985100475
 20
11.6497768372
 30
0.0
 10
15.8995859902
 20
11.6497768372
 30
0.0
 10
15.9016132577
 20
11.6499489645
 30
0.0
 10
15.9043360119
 20
11.6508000567
 30
0.0
 10
15.9061204816
 20
11.6520322215
 30
0.0
 10
15.9070515707
 20
11.6532589191
 30
0.0
 10
15.9073475417
 20
11.6539256625
 30
0.0
 10
15.907452081
 20
11.6542645324
 30
0.0
  0
SPLINE
  5
30F
100
AcDbEntity
  8
LAYER_FEATURE
100
AcDbSpline
 62
7
  6
CONTINUOUS
 70
0
 71
3
 72
11
 73
7
 74
0
 42
0.0000001
 43
0.0000001
 44
0.0000000001
 40
0.0
 40
0.0
 40
0.0
 40
0.0
 40
0.2304439672
 40
0.4848885946
 40
0.747304656
 40
1.0
 40
1.0
 40
1.0
 40
1.0
 10
15.7122472064
 20
11.6558542438
 30
0.0
 10
15.7131229328
 20
11.6549205934
 30
0.0
 10
15.7152495714
 20
11.6532186131
 30
0.0
 10
15.7189686621
 20
11.6513255929
 30
0.0
 10
15.7230843106
 20
11.6500923412
 30
0.0
 10
15.7259502383
 20
11.6497768372
 30
0.0
 10
15.727353919
 20
11.6497768372
 30
0.0
  0
SPLINE
  5
310
100
AcDbEntity
  8
LAYER_FEATURE
100
AcDbSpline
 62
7
  6
CONTINUOUS
 70
0
 71
3
 72
12
 73
8
 74
0
 42
0.0000001
 43
0.0000001
 44
0.0000000001
 40
0.0
 40
0.0
 40
0.0
 40
0.0
 40
0.3032810003
 40
0.5691605411
 40
0.7966025566
 40
0.9000392632
 40
1.0
 40
1.0
 40
1.0
 40
1.0
 10
15.5531121747
 20
11.6497768372
 30
0.0
 10
15.5541881175
 20
11.6497768372
 30
0.0
 10
15.5562153849
 20
11.6499489645
 30
0.0
 10
15.5589381392
 20
11.6508000567
 30
0.0
 10
15.5607226089
 20
11.6520322215
 30
0.0
 10
15.5616536979
 20
11.6532589191
 30
0.0
 10
15.561949669
 20
11.6539256625
 30
0.0
 10
15.5620542082
 20
11.6542645324
 30
0.0
  0
SPLINE
  5
311
100
AcDbEntity
  8
LAYER_FEATURE
100
AcDbSpline
 62
7
  6
CONTINUOUS
 70
0
 71
3
 72
11
 73
7
 74
0
 42
0.0000001
 43
0.0000001
 44
0.0000000001
 40
0.0
 40
0.0
 40
0.0
 40
0.0
 40
0.2304439672
 40
0.4848885946
 40
0.747304656
 40
1.0
 40
1.0
 40
1.0
 40
1.0
 10
15.3668493337
 20
11.6558542438
 30
0.0
 10
15.3677250601
 20
11.6549205934
 30
0.0
 10
15.3698516987
 20
11.6532186131
 30
0.0
 10
15.3735707893
 20
11.6513255929
 30
0.0
 10
15.3776864378
 20
11.6500923412
 30
0.0
 10
15.3805523655
 20
11.6497768372
 30
0.0
 10
15.3819560463
 20
11.6497768372
 30
0.0
  0
SPLINE
  5
312
100
AcDbEntity
  8
LAYER_FEATURE
100
AcDbSpline
 62
7
  6
CONTINUOUS
 70
0
 71
3
 72
12
 73
8
 74
0
 42
0.0000001
 43
0.0000001
 44
0.0000000001
 40
0.0
 40
0.0
 40
0.0
 40
0.0
 40
0.3032810003
 40
0.5691605411
 40
0.7966025566
 40
0.9000392632
 40
1.0
 40
1.0
 40
1.0
 40
1.0
 10
15.207714302
 20
11.6497768372
 30
0.0
 10
15.2087902447
 20
11.6497768372
 30
0.0
 10
15.2108175122
 20
11.6499489645
 30
0.0
 10
15.2135402664
 20
11.6508000567
 30
0.0
 10
15.2153247361
 20
11.6520322215
 30
0.0
 10
15.2162558252
 20
11.6532589191
 30
0.0
 10
15.2165517962
 20
11.6539256625
 30
0.0
 10
15.2166563355
 20
11.6542645324
 30
0.0
  0
SPLINE
  5
313
100
AcDbEntity
  8
LAYER_FEATURE
100
AcDbSpline
 62
7
  6
CONTINUOUS
 70
0
 71
3
 72
11
 73
7
 74
0
 42
0.0000001
 43
0.0000001
 44
0.0000000001
 40
0.0
 40
0.0
 40
0.0
 40
0.0
 40
0.2304439672
 40
0.4848885946
 40
0.747304656
 40
1.0
 40
1.0
 40
1.0
 40
1.0
 10
15.0214514609
 20
11.6558542438
 30
0.0
 10
15.0223271873
 20
11.6549205934
 30
0.0
 10
15.0244538259
 20
11.6532186131
 30
0.0
 10
15.0281729166
 20
11.6513255929
 30
0.0
 10
15.0322885651
 20
11.6500923412
 30
0.0
 10
15.0351544928
 20
11.6497768372
 30
0.0
 10
15.0365581735
 20
11.6497768372
 30
0.0
  0
SPLINE
  5
314
100
AcDbEntity
  8
LAYER_FEATURE
100
AcDbSpline
 62
7
  6
CONTINUOUS
 70
0
 71
3
 72
12
 73
8
 74
0
 42
0.0000001
 43
0.0000001
 44
0.0000000001
 40
0.0
 40
0.0
 40
0.0
 40
0.0
 40
0.3032810003
 40
0.5691605411
 40
0.7966025566
 40
0.9000392632
 40
1.0
 40
1.0
 40
1.0
 40
1.0
 10
14.8623164292
 20
11.6497768372
 30
0.0
 10
14.863392372
 20
11.6497768372
 30
0.0
 10
14.8654196394
 20
11.6499489645
 30
0.0
 10
14.8681423937
 20
11.6508000567
 30
0.0
 10
14.8699268634
 20
11.6520322215
 30
0.0
 10
14.8708579524
 20
11.6532589191
 30
0.0
 10
14.8711539235
 20
11.6539256625
 30
0.0
 10
14.8712584627
 20
11.6542645324
 30
0.0
  0
SPLINE
  5
315
100
AcDbEntity
  8
LAYER_FEATURE
100
AcDbSpline
 62
7
  6
CONTINUOUS
 70
0
 71
3
 72
11
 73
7
 74
0
 42
0.0000001
 43
0.0000001
 44
0.0000000001
 40
0.0
 40
0.0
 40
0.0
 40
0.0
 40
0.2304439672
 40
0.4848885946
 40
0.747304656
 40
1.0
 40
1.0
 40
1.0
 40
1.0
 10
14.6760535882
 20
11.6558542438
 30
0.0
 10
14.6769293146
 20
11.6549205934
 30
0.0
 10
14.6790559532
 20
11.6532186131
 30
0.0
 10
14.6827750438
 20
11.6513255929
 30
0.0
 10
14.6868906923
 20
11.6500923412
 30
0.0
 10
14.68975662
 20
11.6497768372
 30
0.0
 10
14.6911603008
 20
11.6497768372
 30
0.0
  0
SPLINE
  5
316
100
AcDbEntity
  8
LAYER_FEATURE
100
AcDbSpline
 62
7
  6
CONTINUOUS
 70
0
 71
3
 72
12
 73
8
 74
0
 42
0.0000001
 43
0.0000001
 44
0.0000000001
 40
0.0
 40
0.0
 40
0.0
 40
0.0
 40
0.3032810003
 40
0.5691605411
 40
0.7966025566
 40
0.9000392632
 40
1.0
 40
1.0
 40
1.0
 40
1.0
 10
14.5169185565
 20
11.6497768372
 30
0.0
 10
14.5179944992
 20
11.6497768372
 30
0.0
 10
14.5200217667
 20
11.6499489645
 30
0.0
 10
14.5227445209
 20
11.6508000567
 30
0.0
 10
14.5245289906
 20
11.6520322215
 30
0.0
 10
14.5254600797
 20
11.6532589191
 30
0.0
 10
14.5257560507
 20
11.6539256625
 30
0.0
 10
14.52586059
 20
11.6542645324
 30
0.0
  0
SPLINE
  5
317
100
AcDbEntity
  8
LAYER_FEATURE
100
AcDbSpline
 62
7
  6
CONTINUOUS
 70
0
 71
3
 72
11
 73
7
 74
0
 42
0.0000001
 43
0.0000001
 44
0.0000000001
 40
0.0
 40
0.0
 40
0.0
 40
0.0
 40
0.2304439672
 40
0.4848885946
 40
0.747304656
 40
1.0
 40
1.0
 40
1.0
 40
1.0
 10
14.3306557154
 20
11.6558542438
 30
0.0
 10
14.3315314418
 20
11.6549205934
 30
0.0
 10
14.3336580804
 20
11.6532186131
 30
0.0
 10
14.3373771711
 20
11.6513255929
 30
0.0
 10
14.3414928196
 20
11.6500923412
 30
0.0
 10
14.3443587473
 20
11.6497768372
 30
0.0
 10
14.345762428
 20
11.6497768372
 30
0.0
  0
SPLINE
  5
318
100
AcDbEntity
  8
LAYER_FEATURE
100
AcDbSpline
 62
7
  6
CONTINUOUS
 70
0
 71
3
 72
12
 73
8
 74
0
 42
0.0000001
 43
0.0000001
 44
0.0000000001
 40
0.0
 40
0.0
 40
0.0
 40
0.0
 40
0.3032810003
 40
0.5691605411
 40
0.7966025566
 40
0.9000392632
 40
1.0
 40
1.0
 40
1.0
 40
1.0
 10
14.1715206837
 20
11.6497768372
 30
0.0
 10
14.1725966265
 20
11.6497768372
 30
0.0
 10
14.1746238939
 20
11.6499489645
 30
0.0
 10
14.1773466482
 20
11.6508000567
 30
0.0
 10
14.1791311179
 20
11.6520322215
 30
0.0
 10
14.1800622069
 20
11.6532589191
 30
0.0
 10
14.180358178
 20
11.6539256625
 30
0.0
 10
14.1804627172
 20
11.6542645324
 30
0.0
  0
SPLINE
  5
319
100
AcDbEntity
  8
LAYER_FEATURE
100
AcDbSpline
 62
7
  6
CONTINUOUS
 70
0
 71
3
 72
11
 73
7
 74
0
 42
0.0000001
 43
0.0000001
 44
0.0000000001
 40
0.0
 40
0.0
 40
0.0
 40
0.0
 40
0.2304439672
 40
0.4848885946
 40
0.747304656
 40
1.0
 40
1.0
 40
1.0
 40
1.0
 10
13.9852578427
 20
11.6558542438
 30
0.0
 10
13.9861335691
 20
11.6549205934
 30
0.0
 10
13.9882602077
 20
11.6532186131
 30
0.0
 10
13.9919792983
 20
11.6513255929
 30
0.0
 10
13.9960949468
 20
11.6500923412
 30
0.0
 10
13.9989608745
 20
11.6497768372
 30
0.0
 10
14.0003645553
 20
11.6497768372
 30
0.0
  0
SPLINE
  5
31A
100
AcDbEntity
  8
LAYER_FEATURE
100
AcDbSpline
 62
7
  6
CONTINUOUS
 70
0
 71
3
 72
12
 73
8
 74
0
 42
0.0000001
 43
0.0000001
 44
0.0000000001
 40
0.0
 40
0.0
 40
0.0
 40
0.0
 40
0.3032810003
 40
0.5691605411
 40
0.7966025566
 40
0.9000392632
 40
1.0
 40
1.0
 40
1.0
 40
1.0
 10
13.826122811
 20
11.6497768372
 30
0.0
 10
13.8271987537
 20
11.6497768372
 30
0.0
 10
13.8292260212
 20
11.6499489645
 30
0.0
 10
13.8319487754
 20
11.6508000567
 30
0.0
 10
13.8337332451
 20
11.6520322215
 30
0.0
 10
13.8346643342
 20
11.6532589191
 30
0.0
 10
13.8349603052
 20
11.6539256625
 30
0.0
 10
13.8350648445
 20
11.6542645324
 30
0.0
  0
SPLINE
  5
31B
100
AcDbEntity
  8
LAYER_FEATURE
100
AcDbSpline
 62
7
  6
CONTINUOUS
 70
0
 71
3
 72
11
 73
7
 74
0
 42
0.0000001
 43
0.0000001
 44
0.0000000001
 40
0.0
 40
0.0
 40
0.0
 40
0.0
 40
0.2304439672
 40
0.4848885946
 40
0.747304656
 40
1.0
 40
1.0
 40
1.0
 40
1.0
 10
13.6398599699
 20
11.6558542438
 30
0.0
 10
13.6407356963
 20
11.6549205934
 30
0.0
 10
13.6428623349
 20
11.6532186131
 30
0.0
 10
13.6465814256
 20
11.6513255929
 30
0.0
 10
13.6506970741
 20
11.6500923412
 30
0.0
 10
13.6535630018
 20
11.6497768372
 30
0.0
 10
13.6549666825
 20
11.6497768372
 30
0.0
  0
SPLINE
  5
31C
100
AcDbEntity
  8
0
100
AcDbSpline
 62
7
  6
CONTINUOUS
 70
0
 71
3
 72
12
 73
8
 74
0
 42
0.0000001
 43
0.0000001
 44
0.0000000001
 40
0.0
 40
0.0
 40
0.0
 40
0.0
 40
0.3032810003
 40
0.5691605411
 40
0.7966025566
 40
0.9000392632
 40
1.0
 40
1.0
 40
1.0
 40
1.0
 10
13.4807249382
 20
11.6497768372
 30
0.0
 10
13.481800881
 20
11.6497768372
 30
0.0
 10
13.4838281484
 20
11.6499489645
 30
0.0
 10
13.4865509027
 20
11.6508000567
 30
0.0
 10
13.4883353724
 20
11.6520322215
 30
0.0
 10
13.4892664614
 20
11.6532589191
 30
0.0
 10
13.4895624325
 20
11.6539256625
 30
0.0
 10
13.4896669717
 20
11.6542645324
 30
0.0
  0
SPLINE
  5
31D
100
AcDbEntity
  8
0
100
AcDbSpline
 62
7
  6
CONTINUOUS
 70
0
 71
3
 72
11
 73
7
 74
0
 42
0.0000001
 43
0.0000001
 44
0.0000000001
 40
0.0
 40
0.0
 40
0.0
 40
0.0
 40
0.2304439672
 40
0.4848885946
 40
0.747304656
 40
1.0
 40
1.0
 40
1.0
 40
1.0
 10
13.2944620972
 20
11.6558542438
 30
0.0
 10
13.2953378236
 20
11.6549205934
 30
0.0
 10
13.2974644622
 20
11.6532186131
 30
0.0
 10
13.3011835528
 20
11.6513255929
 30
0.0
 10
13.3052992013
 20
11.6500923412
 30
0.0
 10
13.308165129
 20
11.6497768372
 30
0.0
 10
13.3095688098
 20
11.6497768372
 30
0.0
  0
SPLINE
  5
31E
100
AcDbEntity
  8
0
100
AcDbSpline
 62
7
  6
CONTINUOUS
 70
0
 71
3
 72
11
 73
7
 74
0
 42
0.0000001
 43
0.0000001
 44
0.0000000001
 40
0.0
 40
0.0
 40
0.0
 40
0.0
 40
0.3034808828
 40
0.5700027695
 40
0.7977780159
 40
1.0
 40
1.0
 40
1.0
 40
1.0
 10
13.1738193008
 20
11.8051793293
 30
0.0
 10
13.1732328033
 20
11.8051793293
 30
0.0
 10
13.1721270477
 20
11.8050854034
 30
0.0
 10
13.1706410239
 20
11.8046193755
 30
0.0
 10
13.1695075902
 20
11.8038434047
 30
0.0
 10
13.16905712
 20
11.8031048975
 30
0.0
 10
13.1689415016
 20
11.8027315839
 30
0.0
  0
SPLINE
  5
31F
100
AcDbEntity
  8
0
100
AcDbSpline
 62
7
  6
CONTINUOUS
 70
0
 71
3
 72
11
 73
7
 74
0
 42
0.0000001
 43
0.0000001
 44
0.0000000001
 40
0.0
 40
0.0
 40
0.0
 40
0.0
 40
0.2114441167
 40
0.4633691931
 40
0.7353224623
 40
1.0
 40
1.0
 40
1.0
 40
1.0
 10
17.2725258856
 20
11.8005172546
 30
0.0
 10
17.2721927549
 20
11.8011961035
 30
0.0
 10
17.2710904091
 20
11.802495855
 30
0.0
 10
17.2688678884
 20
11.8039409735
 30
0.0
 10
17.2661997124
 20
11.8049200021
 30
0.0
 10
17.2642766741
 20
11.8051793293
 30
0.0
 10
17.2633301142
 20
11.8051793293
 30
0.0
  0
ENDSEC
  0
SECTION
  2
OBJECTS
  0
DICTIONARY
  5
C
100
AcDbDictionary
280
0
281
1
  3
ACAD_GROUP
350
D
  3
ACAD_MLINESTYLE
350
17
  3
ACAD_LAYOUT
350
1A
  3
ACAD_PLOTSETTINGS
350
19
  3
ACAD_PLOTSTYLENAME
350
E
  0
DICTIONARY
  5
D
102
{ACAD_REACTORS
330
C
102
}
100
AcDbDictionary
280
0
281
1
  0
ACDBDICTIONARYWDFLT
  5
E
102
{ACAD_REACTORS
330
C
102
}
100
AcDbDictionary
281
1
  3
Normal
350
F
100
AcDbDictionaryWithDefault
340
F
  0
DICTIONARY
  5
17
102
{ACAD_REACTORS
330
C
102
}
100
AcDbDictionary
280
0
281
1
  3
Standard
350
18
  0
DICTIONARY
  5
19
102
{ACAD_REACTORS
330
C
102
}
100
AcDbDictionary
281
1
  0
DICTIONARY
  5
1A
102
{ACAD_REACTORS
330
C
102
}
100
AcDbDictionary
281
1
  3
Model
350
320
  3
Layout1
350
321
  0
ACDBPLACEHOLDER
  5
F
102
{ACAD_REACTORS
330
E
102
}
  0
MLINESTYLE
  5
18
102
{ACAD_REACTORS
330
17
102
}
100
AcDbMlineStyle
  2
STANDARD
 70
0
  3

 62
256
 51
90.0
 52
90.0
 71
2
 49
0.5
 62
256
  6
BYLAYER
 49
-0.5
 62
256
  6
BYLAYER
  0
LAYOUT
  5
320
102
{ACAD_REACTORS
330
1A
102
}
100
AcDbPlotSettings
  1

  2
none_device
  4
ANSI_C_(22.00_x_17.00_Inches)
  6

 40
0.0
 41
0.0
 42
0.0
 43
0.0
 44
558.8
 45
431.8
 46
0.0
 47
0.0
 48
0.0
 49
0.0
140
0.0
141
0.0
142
1.0
143
1.0
 70
1024
 72
0
 73
0
 74
0
  7

 75
0
147
1.0
148
0.0
149
0.0
100
AcDbLayout
  1
Model
 70
0
 71
0
 10
0.0
 20
0.0
 11
22.0
 21
17.0
 12
0.0
 22
0.0
 32
0.0
 14
0.0
 24
0.0
 34
0.0
 15
0.0
 25
0.0
 35
0.0
146
0.0
 13
0.0
 23
0.0
 33
0.0
 16
1.0
 26
0.0
 36
0.0
 17
0.0
 27
1.0
 37
0.0
 76
0
330
21C
345
0
346
0
  0
LAYOUT
  5
321
102
{ACAD_REACTORS
330
1A
102
}
100
AcDbPlotSettings
  1

  2
none_device
  4
ANSI_C_(22.00_x_17.00_Inches)
  6

 40
0.0
 41
0.0
 42
0.0
 43
0.0
 44
558.8
 45
431.8
 46
0.0
 47
0.0
 48
0.0
 49
0.0
140
0.0
141
0.0
142
1.0
143
1.0
 70
0
 72
0
 73
0
 74
0
  7

 75
0
147
1.0
148
0.0
149
0.0
100
AcDbLayout
  1
Layout1
 70
0
 71
1
 10
0.0
 20
0.0
 11
22.0
 21
17.0
 12
0.0
 22
0.0
 32
0.0
 14
0.0
 24
0.0
 34
0.0
 15
0.0
 25
0.0
 35
0.0
146
0.0
 13
0.0
 23
0.0
 33
0.0
 16
1.0
 26
0.0
 36
0.0
 17
0.0
 27
1.0
 37
0.0
 76
0
330
21D
345
0
346
0
  0
ENDSEC
  0
EOF