999
DXF file: _cgs_temp_output.dxf
999
Pro/ENGINEER 2016360 by Parametric Technology Corporation
  0
SECTION
  2
HEADER
  9
$ACADVER
  1
AC1021
  9
$DWGCODEPAGE
  3
ANSI_1252
  9
$EXTMAX
 10
22.0
 20
17.0
 30
0.0
  9
$EXTMIN
 10
0.0
 20
0.0
 30
0.0
  9
$LIMMIN
 10
0.0
 20
0.0
  9
$LIMMAX
 10
22.0
 20
17.0
  9
$VIEWCTR
 10
11.0
 20
8.5
  9
$VIEWSIZE
 40
17.0
  9
$CLAYER
  8
0
  9
$LTSCALE
 40
1.21
  9
$CELTYPE
  6
BYLAYER
  9
$DIMSCALE
 40
1.0
  9
$DIMASZ
 40
0.1875
  9
$DIMEXO
 40
0.0625
  9
$DIMDLI
 40
0.836
  9
$DIMEXE
 40
0.125
  9
$DIMCEN
 40
0.198
  9
$DIMLFAC
 40
1.0
  9
$DIMBLK
  1
_CLOSED
  9
$DIMALT
 70
0
  9
$DIMALTF
 40
25.4
  9
$DIMTXT
 40
0.15625
  9
$DIMTOL
 70
0
  9
$DIMLIM
 70
0
  9
$DIMTFAC
 40
1.0
  9
$DIMGAP
 40
0.09
  9
$DIMDSEP
 70
46
  9
$AUNITS
 70
0
  9
$PDMODE
 70
3
  9
$PDSIZE
 40
0.3125
  9
$HANDSEED
  5
321
  9
$TILEMODE
 70
1
  9
$MEASUREMENT
 70
0
  9
$INSUNITS
 70
1
  0
ENDSEC
  0
SECTION
  2
CLASSES
  0
CLASS
  1
ACDBDICTIONARYWDFLT
  2
AcDbDictionaryWithDefault
  3
AutoCAD 2000
 90
0
 91
1
280
0
281
0
  0
CLASS
  1
ACDBPLACEHOLDER
  2
AcDbPlaceHolder
  3
AutoCAD 2000
 90
0
 91
1
280
0
281
0
  0
CLASS
  1
LAYOUT
  2
AcDbLayout
  3
AutoCAD 2000
 90
0
 91
0
280
0
281
0
  0
ENDSEC
  0
SECTION
  2
TABLES
  0
TABLE
  2
VPORT
  5
8
100
AcDbSymbolTable
 70
2
  0
VPORT
  5
1F4
100
AcDbSymbolTableRecord
100
AcDbViewportTableRecord
  2
*ACTIVE
 70
0
 10
0.0
 20
0.0
 11
1.0
 21
1.0
 12
11.0
 22
8.5
 13
0.0
 23
0.0
 14
1.0
 24
1.0
 15
0.0
 25
0.0
 16
0.0
 26
0.0
 36
1.0
 17
0.0
 27
0.0
 37
0.0
 40
17.0
 41
1.2941176471
 42
50.0
 43
0.0
 44
0.0
 50
0.0
 51
0.0
 71
0
 72
100
 73
1
 74
1
 75
0
 76
0
 77
0
 78
0
  0
ENDTAB
  0
TABLE
  2
LTYPE
  5
5
100
AcDbSymbolTable
 70
6
  0
LTYPE
  5
14
100
AcDbSymbolTableRecord
100
AcDbLinetypeTableRecord
  2
BYBLOCK
 70
0
  3

 72
65
 73
0
 40
0.0
  0
LTYPE
  5
15
100
AcDbSymbolTableRecord
100
AcDbLinetypeTableRecord
  2
BYLAYER
 70
0
  3

 72
65
 73
0
 40
0.0
  0
LTYPE
  5
16
100
AcDbSymbolTableRecord
100
AcDbLinetypeTableRecord
  2
CONTINUOUS
 70
64
  3
Solid line
 72
65
 73
0
 40
0.0
  0
LTYPE
  5
1F5
100
AcDbSymbolTableRecord
100
AcDbLinetypeTableRecord
  2
CENTER
 70
64
  3
____ _ ____ _ ____ _ ____ _ ____ _ ____ _ ____
 72
65
 73
4
 40
0.6
 49
0.375
 74
0
 49
-0.075
 74
0
 49
0.075
 74
0
 49
-0.075
 74
0
  0
LTYPE
  5
1F6
100
AcDbSymbolTableRecord
100
AcDbLinetypeTableRecord
  2
HIDDEN
 70
64
  3
- - - - - - - - - - - - - - - - - - - -
 72
65
 73
2
 40
0.2
 49
0.1
 74
0
 49
-0.1
 74
0
  0
LTYPE
  5
1F7
100
AcDbSymbolTableRecord
100
AcDbLinetypeTableRecord
  2
PHANTOM
 70
64
  3
_____ _ _ _____ _ _ _____ _ _ _____
 72
65
 73
6
 40
0.8
 49
0.45
 74
0
 49
-0.05
 74
0
 49
0.1
 74
0
 49
-0.05
 74
0
 49
0.1
 74
0
 49
-0.05
 74
0
  0
LTYPE
  5
1F8
100
AcDbSymbolTableRecord
100
AcDbLinetypeTableRecord
  2
DOT
 70
64
  3
. . . . . . . . . . . . . . . . . . . .
 72
65
 73
2
 40
0.2
 49
0.1
 74
0
 49
-0.1
 74
0
  0
LTYPE
  5
1F9
100
AcDbSymbolTableRecord
100
AcDbLinetypeTableRecord
  2
DASHED
 70
64
  3
- - - - - - - - - - - - - - - - - - - -
 72
65
 73
2
 40
0.2
 49
0.1
 74
0
 49
-0.1
 74
0
  0
ENDTAB
  0
TABLE
  2
LAYER
  5
2
100
AcDbSymbolTable
 70
36
  0
LAYER
  5
10
100
AcDbSymbolTableRecord
100
AcDbLayerTableRecord
  2
0
 70
0
 62
7
  6
CONTINUOUS
370
-3
390
F
  0
LAYER
  5
1FA
100
AcDbSymbolTableRecord
100
AcDbLayerTableRecord
  2
DEFAULT_1
 70
0
 62
7
  6
CENTER
370
-3
390
F
  0
LAYER
  5
1FB
100
AcDbSymbolTableRecord
100
AcDbLayerTableRecord
  2
DEFAULT_2
 70
0
 62
8
  6
HIDDEN
370
-3
390
F
  0
LAYER
  5
1FC
100
AcDbSymbolTableRecord
100
AcDbLayerTableRecord
  2
DEFAULT_3
 70
0
 62
7
  6
PHANTOM
370
-3
390
F
  0
LAYER
  5
1FD
100
AcDbSymbolTableRecord
100
AcDbLayerTableRecord
  2
01_ALL_DTM_PLN
 70
0
 62
7
  6
CONTINUOUS
370
-3
390
F
  0
LAYER
  5
1FE
100
AcDbSymbolTableRecord
100
AcDbLayerTableRecord
  2
01__ASM_ALL_DTM_PLN
 70
0
 62
7
  6
CONTINUOUS
370
-3
390
F
  0
LAYER
  5
1FF
100
AcDbSymbolTableRecord
100
AcDbLayerTableRecord
  2
01__ASM_DEF_DTM_PLN
 70
0
 62
7
  6
CONTINUOUS
370
-3
390
F
  0
LAYER
  5
200
100
AcDbSymbolTableRecord
100
AcDbLayerTableRecord
  2
01___PRT_ALL_DTM_PLN
 70
0
 62
7
  6
CONTINUOUS
370
-3
390
F
  0
LAYER
  5
201
100
AcDbSymbolTableRecord
100
AcDbLayerTableRecord
  2
01___PRT_DEF_DTM_PLN
 70
0
 62
7
  6
CONTINUOUS
370
-3
390
F
  0
LAYER
  5
202
100
AcDbSymbolTableRecord
100
AcDbLayerTableRecord
  2
02_ALL_AXES
 70
0
 62
7
  6
CONTINUOUS
370
-3
390
F
  0
LAYER
  5
203
100
AcDbSymbolTableRecord
100
AcDbLayerTableRecord
  2
02__ASM_ALL_AXES
 70
0
 62
7
  6
CONTINUOUS
370
-3
390
F
  0
LAYER
  5
204
100
AcDbSymbolTableRecord
100
AcDbLayerTableRecord
  2
02___PRT_ALL_AXES
 70
0
 62
7
  6
CONTINUOUS
370
-3
390
F
  0
LAYER
  5
205
100
AcDbSymbolTableRecord
100
AcDbLayerTableRecord
  2
03_ALL_CURVES
 70
0
 62
7
  6
CONTINUOUS
370
-3
390
F
  0
LAYER
  5
206
100
AcDbSymbolTableRecord
100
AcDbLayerTableRecord
  2
03__ASM_ALL_CURVES
 70
0
 62
7
  6
CONTINUOUS
370
-3
390
F
  0
LAYER
  5
207
100
AcDbSymbolTableRecord
100
AcDbLayerTableRecord
  2
03___PRT_ALL_CURVES
 70
0
 62
7
  6
CONTINUOUS
370
-3
390
F
  0
LAYER
  5
208
100
AcDbSymbolTableRecord
100
AcDbLayerTableRecord
  2
04_ALL_DTM_PNT
 70
0
 62
7
  6
CONTINUOUS
370
-3
390
F
  0
LAYER
  5
209
100
AcDbSymbolTableRecord
100
AcDbLayerTableRecord
  2
04__ASM_ALL_DTM_PNT
 70
0
 62
7
  6
CONTINUOUS
370
-3
390
F
  0
LAYER
  5
20A
100
AcDbSymbolTableRecord
100
AcDbLayerTableRecord
  2
04___PRT_ALL_DTM_PNT
 70
0
 62
7
  6
CONTINUOUS
370
-3
390
F
  0
LAYER
  5
20B
100
AcDbSymbolTableRecord
100
AcDbLayerTableRecord
  2
05_ALL_DTM_CSYS
 70
0
 62
7
  6
CONTINUOUS
370
-3
390
F
  0
LAYER
  5
20C
100
AcDbSymbolTableRecord
100
AcDbLayerTableRecord
  2
05__ASM_ALL_DTM_CSYS
 70
0
 62
7
  6
CONTINUOUS
370
-3
390
F
  0
LAYER
  5
20D
100
AcDbSymbolTableRecord
100
AcDbLayerTableRecord
  2
05__ASM_DEF_DTM_CSYS
 70
0
 62
7
  6
CONTINUOUS
370
-3
390
F
  0
LAYER
  5
20E
100
AcDbSymbolTableRecord
100
AcDbLayerTableRecord
  2
05___PRT_ALL_DTM_CSYS
 70
0
 62
7
  6
CONTINUOUS
370
-3
390
F
  0
LAYER
  5
20F
100
AcDbSymbolTableRecord
100
AcDbLayerTableRecord
  2
05___PRT_DEF_DTM_CSYS
 70
0
 62
7
  6
CONTINUOUS
370
-3
390
F
  0
LAYER
  5
210
100
AcDbSymbolTableRecord
100
AcDbLayerTableRecord
  2
06_ALL_SURFS
 70
0
 62
7
  6
CONTINUOUS
370
-3
390
F
  0
LAYER
  5
211
100
AcDbSymbolTableRecord
100
AcDbLayerTableRecord
  2
06__ASM_ALL_SURFS
 70
0
 62
7
  6
CONTINUOUS
370
-3
390
F
  0
LAYER
  5
212
100
AcDbSymbolTableRecord
100
AcDbLayerTableRecord
  2
06___PRT_ALL_SURFS
 70
0
 62
7
  6
CONTINUOUS
370
-3
390
F
  0
LAYER
  5
213
100
AcDbSymbolTableRecord
100
AcDbLayerTableRecord
  2
07__ASM_ALL_SKELETONS
 70
0
 62
7
  6
CONTINUOUS
370
-3
390
F
  0
LAYER
  5
214
100
AcDbSymbolTableRecord
100
AcDbLayerTableRecord
  2
LAYER_DIM
 70
0
 62
7
  6
CONTINUOUS
370
-3
390
F
  0
LAYER
  5
215
100
AcDbSymbolTableRecord
100
AcDbLayerTableRecord
  2
LAYER_FEATURE
 70
0
 62
7
  6
CONTINUOUS
370
-3
390
F
  0
LAYER
  5
216
100
AcDbSymbolTableRecord
100
AcDbLayerTableRecord
  2
LAYER_GEOM_FEAT
 70
0
 62
7
  6
CONTINUOUS
370
-3
390
F
  0
LAYER
  5
217
100
AcDbSymbolTableRecord
100
AcDbLayerTableRecord
  2
LAYER_PARAMETER_DIM
 70
0
 62
7
  6
CONTINUOUS
370
-3
390
F
  0
LAYER
  5
218
100
AcDbSymbolTableRecord
100
AcDbLayerTableRecord
  2
LAYER_PROTRUSION_FEAT
 70
0
 62
7
  6
CONTINUOUS
370
-3
390
F
  0
LAYER
  5
219
100
AcDbSymbolTableRecord
100
AcDbLayerTableRecord
  2
LAYER_ROUND_FEAT
 70
0
 62
7
  6
CONTINUOUS
370
-3
390
F
  0
ENDTAB
  0
TABLE
  2
STYLE
  5
3
100
AcDbSymbolTable
 70
1
  0
STYLE
  5
11
100
AcDbSymbolTableRecord
100
AcDbTextStyleTableRecord
  2
STANDARD
 70
0
 40
0.0
 41
0.8
 50
0.0
 71
0
 42
0.2
  3
txt
  4

  0
STYLE
  5
21A
100
AcDbSymbolTableRecord
100
AcDbTextStyleTableRecord
  2
TEXTSTYLE_1
 70
0
 40
0.0
 41
0.8
 50
0.0
 71
0
 42
0.2
  3
gdt
  4

  0
ENDTAB
  0
TABLE
  2
VIEW
  5
6
100
AcDbSymbolTable
 70
0
  0
ENDTAB
  0
TABLE
  2
UCS
  5
7
100
AcDbSymbolTable
 70
0
  0
ENDTAB
  0
TABLE
  2
APPID
  5
9
100
AcDbSymbolTable
 70
1
  0
APPID
  5
21B
100
AcDbSymbolTableRecord
100
AcDbRegAppTableRecord
  2
ACAD
 70
0
  0
ENDTAB
  0
TABLE
  2
BLOCK_RECORD
  5
1
100
AcDbSymbolTable
 70
0
  0
BLOCK_RECORD
  5
21C
100
AcDbSymbolTableRecord
100
AcDbBlockTableRecord
  2
*Model_Space
  0
BLOCK_RECORD
  5
21D
100
AcDbSymbolTableRecord
100
AcDbBlockTableRecord
  2
*Paper_Space
  0
ENDTAB
  0
TABLE
  2
DIMSTYLE
  5
A
100
AcDbSymbolTable
 70
1
100
AcDbDimStyleTable
 71
0
  0
DIMSTYLE
105
21E
100
AcDbSymbolTableRecord
100
AcDbDimStyleTableRecord
  2
STANDARD
 70
0
  3

  4

 40
1.0
 41
0.1875
 42
0.0625
 43
0.38
 44
0.125
 45
0.0
 46
0.0
 47
0.0001
 48
0.0001
140
0.15625
141
0.09
142
0.0
143
25.4
144
1.0
145
0.0
146
1.0
147
0.09
 71
0.0
 72
0.0
 73
1
 74
1
 75
0
 76
0
 77
0
 78
4
 79
1
170
0
171
3
172
0
173
0
174
0
175
0
176
0
177
0
178
0
270
2
179
4
271
4
272
4
273
2
274
2
275
0
280
0
281
0
282
0
283
1
284
4
285
0
286
0
287
3
288
0
340
11
278
46
  0
ENDTAB
  0
ENDSEC
  0
SECTION
  2
BLOCKS
  0
BLOCK
  5
20
100
AcDbEntity
  8
0
100
AcDbBlockBegin
  2
*Model_Space
 70
0
 10
0.0
 20
0.0
 30
0.0
  3
*Model_Space
  1

  0
ENDBLK
  5
21
100
AcDbEntity
  8
0
100
AcDbBlockEnd
  0
BLOCK
  5
1C
100
AcDbEntity
  8
0
100
AcDbBlockBegin
  2
*Paper_Space
 70
0
 10
0.0
 20
0.0
 30
0.0
  3
*Paper_Space
  1

  0
ENDBLK
  5
1D
100
AcDbEntity
  8
0
100
AcDbBlockEnd
  0
ENDSEC
  0
SECTION
  2
ENTITIES
  0
MTEXT
  5
21F
100
AcDbEntity
  8
0
100
AcDbMText
 62
7
  6
CONTINUOUS
  7
STANDARD
 71
1
 72
1
 10
15.9560215477
 20
0.9479130325
 30
0.0
 11
1.0
 21
0.0
 31
0.0
 44
0.9
  1
SCALE: 1:0.500
 40
0.3
 41
3.36
  0
LINE
  5
220
100
AcDbEntity
  8
0
100
AcDbLine
 62
7
  6
CONTINUOUS
 10
0.0
 20
0.0
 11
0.0
 21
17.0
  0
LINE
  5
221
100
AcDbEntity
  8
0
100
AcDbLine
 62
7
  6
CONTINUOUS
 10
0.0
 20
0.0
 11
22.0
 21
0.0
  0
LINE
  5
222
100
AcDbEntity
  8
0
100
AcDbLine
 62
7
  6
CONTINUOUS
 10
0.0
 20
17.0
 11
22.0
 21
17.0
  0
LINE
  5
223
100
AcDbEntity
  8
0
100
AcDbLine
 62
7
  6
CONTINUOUS
 10
22.0
 20
0.0
 11
22.0
 21
17.0
  0
LINE
  5
224
100
AcDbEntity
  8
0
100
AcDbLine
 62
7
  6
CONTINUOUS
 10
3.1603672762
 20
5.6776198968
 11
3.1603672762
 21
5.6201198968
  0
LINE
  5
225
100
AcDbEntity
  8
0
100
AcDbLine
 62
7
  6
CONTINUOUS
 10
3.1603672762
 20
5.6201198968
 11
3.238856292
 21
5.3680036642
  0
LINE
  5
226
100
AcDbEntity
  8
0
100
AcDbLine
 62
7
  6
CONTINUOUS
 10
3.6003672762
 20
5.6201198968
 11
3.6003672762
 21
5.6526198968
  0
LINE
  5
227
100
AcDbEntity
  8
LAYER_FEATURE
100
AcDbLine
 62
7
  6
CONTINUOUS
 10
3.6603672762
 20
5.6526198968
 11
3.6603672762
 21
5.6201198968
  0
LINE
  5
228
100
AcDbEntity
  8
0
100
AcDbLine
 62
7
  6
CONTINUOUS
 10
3.5218782604
 20
5.3680036642
 11
3.6003672762
 21
5.6201198968
  0
LINE
  5
229
100
AcDbEntity
  8
LAYER_FEATURE
100
AcDbLine
 62
7
  6
CONTINUOUS
 10
3.6603672762
 20
5.6201198968
 11
3.738856292
 21
5.3680036642
  0
LINE
  5
22A
100
AcDbEntity
  8
LAYER_FEATURE
100
AcDbLine
 62
7
  6
CONTINUOUS
 10
4.1003672762
 20
5.6201198968
 11
4.1003672762
 21
5.6526198968
  0
LINE
  5
22B
100
AcDbEntity
  8
LAYER_FEATURE
100
AcDbLine
 62
7
  6
CONTINUOUS
 10
4.1603672762
 20
5.6526198968
 11
4.1603672762
 21
5.6201198968
  0
LINE
  5
22C
100
AcDbEntity
  8
LAYER_FEATURE
100
AcDbLine
 62
7
  6
CONTINUOUS
 10
4.0218782604
 20
5.3680036642
 11
4.1003672762
 21
5.6201198968
  0
LINE
  5
22D
100
AcDbEntity
  8
LAYER_FEATURE
100
AcDbLine
 62
7
  6
CONTINUOUS
 10
4.1603672762
 20
5.6201198968
 11
4.238856292
 21
5.3680036642
  0
LINE
  5
22E
100
AcDbEntity
  8
LAYER_FEATURE
100
AcDbLine
 62
7
  6
CONTINUOUS
 10
4.6003672762
 20
5.6201198968
 11
4.6003672762
 21
5.6526198968
  0
LINE
  5
22F
100
AcDbEntity
  8
LAYER_FEATURE
100
AcDbLine
 62
7
  6
CONTINUOUS
 10
4.6603672762
 20
5.6526198968
 11
4.6603672762
 21
5.6201198968
  0
LINE
  5
230
100
AcDbEntity
  8
LAYER_FEATURE
100
AcDbLine
 62
7
  6
CONTINUOUS
 10
4.5218782604
 20
5.3680036642
 11
4.6003672762
 21
5.6201198968
  0
LINE
  5
231
100
AcDbEntity
  8
LAYER_FEATURE
100
AcDbLine
 62
7
  6
CONTINUOUS
 10
4.6603672762
 20
5.6201198968
 11
4.738856292
 21
5.3680036642
  0
LINE
  5
232
100
AcDbEntity
  8
LAYER_FEATURE
100
AcDbLine
 62
7
  6
CONTINUOUS
 10
5.1003672762
 20
5.6201198968
 11
5.1003672762
 21
5.6526198968
  0
LINE
  5
233
100
AcDbEntity
  8
LAYER_FEATURE
100
AcDbLine
 62
7
  6
CONTINUOUS
 10
5.1603672762
 20
5.6526198968
 11
5.1603672762
 21
5.6201198968
  0
LINE
  5
234
100
AcDbEntity
  8
LAYER_FEATURE
100
AcDbLine
 62
7
  6
CONTINUOUS
 10
5.0218782604
 20
5.3680036642
 11
5.1003672762
 21
5.6201198968
  0
LINE
  5
235
100
AcDbEntity
  8
LAYER_FEATURE
100
AcDbLine
 62
7
  6
CONTINUOUS
 10
5.1603672762
 20
5.6201198968
 11
5.238856292
 21
5.3680036642
  0
LINE
  5
236
100
AcDbEntity
  8
LAYER_FEATURE
100
AcDbLine
 62
7
  6
CONTINUOUS
 10
5.6003672762
 20
5.6201198968
 11
5.6003672762
 21
5.6526198968
  0
LINE
  5
237
100
AcDbEntity
  8
LAYER_FEATURE
100
AcDbLine
 62
7
  6
CONTINUOUS
 10
5.6603672762
 20
5.6526198968
 11
5.6603672762
 21
5.6201198968
  0
LINE
  5
238
100
AcDbEntity
  8
LAYER_FEATURE
100
AcDbLine
 62
7
  6
CONTINUOUS
 10
5.5218782604
 20
5.3680036642
 11
5.6003672762
 21
5.6201198968
  0
LINE
  5
239
100
AcDbEntity
  8
LAYER_FEATURE
100
AcDbLine
 62
7
  6
CONTINUOUS
 10
5.6603672762
 20
5.6201198968
 11
5.738856292
 21
5.3680036642
  0
LINE
  5
23A
100
AcDbEntity
  8
LAYER_FEATURE
100
AcDbLine
 62
7
  6
CONTINUOUS
 10
6.1003672762
 20
5.6201198968
 11
6.1003672762
 21
5.6526198968
  0
LINE
  5
23B
100
AcDbEntity
  8
LAYER_FEATURE
100
AcDbLine
 62
7
  6
CONTINUOUS
 10
6.0218782604
 20
5.3680036642
 11
6.1003672762
 21
5.6201198968
  0
LINE
  5
23C
100
AcDbEntity
  8
0
100
AcDbLine
 62
7
  6
CONTINUOUS
 10
3.2563609583
 20
5.3551198968
 11
3.5043735941
 21
5.3551198968
  0
LINE
  5
23D
100
AcDbEntity
  8
LAYER_FEATURE
100
AcDbLine
 62
7
  6
CONTINUOUS
 10
3.7563609583
 20
5.3551198968
 11
4.0043735941
 21
5.3551198968
  0
LINE
  5
23E
100
AcDbEntity
  8
LAYER_FEATURE
100
AcDbLine
 62
7
  6
CONTINUOUS
 10
4.2563609583
 20
5.3551198968
 11
4.5043735941
 21
5.3551198968
  0
LINE
  5
23F
100
AcDbEntity
  8
LAYER_FEATURE
100
AcDbLine
 62
7
  6
CONTINUOUS
 10
4.7563609583
 20
5.3551198968
 11
5.0043735941
 21
5.3551198968
  0
LINE
  5
240
100
AcDbEntity
  8
LAYER_FEATURE
100
AcDbLine
 62
7
  6
CONTINUOUS
 10
5.2563609583
 20
5.3551198968
 11
5.5043735941
 21
5.3551198968
  0
LINE
  5
241
100
AcDbEntity
  8
LAYER_FEATURE
100
AcDbLine
 62
7
  6
CONTINUOUS
 10
5.7563609583
 20
5.3551198968
 11
6.0043735941
 21
5.3551198968
  0
LINE
  5
242
100
AcDbEntity
  8
LAYER_FEATURE
100
AcDbLine
 62
7
  6
CONTINUOUS
 10
6.2563609583
 20
5.3551198968
 11
6.5043735941
 21
5.3551198968
  0
LINE
  5
243
100
AcDbEntity
  8
LAYER_FEATURE
100
AcDbLine
 62
7
  6
CONTINUOUS
 10
6.7563609583
 20
5.3551198968
 11
7.0043735941
 21
5.3551198968
  0
LINE
  5
244
100
AcDbEntity
  8
LAYER_FEATURE
100
AcDbLine
 62
7
  6
CONTINUOUS
 10
7.2563609583
 20
5.3551198968
 11
7.5043735941
 21
5.3551198968
  0
LINE
  5
245
100
AcDbEntity
  8
LAYER_FEATURE
100
AcDbLine
 62
7
  6
CONTINUOUS
 10
7.7563609583
 20
5.3551198968
 11
8.0043735941
 21
5.3551198968
  0
LINE
  5
246
100
AcDbEntity
  8
LAYER_FEATURE
100
AcDbLine
 62
7
  6
CONTINUOUS
 10
8.2563609583
 20
5.3551198968
 11
8.5043735941
 21
5.3551198968
  0
LINE
  5
247
100
AcDbEntity
  8
LAYER_FEATURE
100
AcDbLine
 62
7
  6
CONTINUOUS
 10
8.7563609583
 20
5.3551198968
 11
9.0043735941
 21
5.3551198968
  0
LINE
  5
248
100
AcDbEntity
  8
LAYER_FEATURE
100
AcDbLine
 62
7
  6
CONTINUOUS
 10
6.1603672762
 20
5.6526198968
 11
6.1603672762
 21
5.6201198968
  0
LINE
  5
249
100
AcDbEntity
  8
LAYER_FEATURE
100
AcDbLine
 62
7
  6
CONTINUOUS
 10
3.6003672762
 20
5.6526198968
 11
3.6603672762
 21
5.6526198968
  0
LINE
  5
24A
100
AcDbEntity
  8
LAYER_FEATURE
100
AcDbLine
 62
7
  6
CONTINUOUS
 10
4.1003672762
 20
5.6526198968
 11
4.1603672762
 21
5.6526198968
  0
LINE
  5
24B
100
AcDbEntity
  8
LAYER_FEATURE
100
AcDbLine
 62
7
  6
CONTINUOUS
 10
4.6003672762
 20
5.6526198968
 11
4.6603672762
 21
5.6526198968
  0
LINE
  5
24C
100
AcDbEntity
  8
LAYER_FEATURE
100
AcDbLine
 62
7
  6
CONTINUOUS
 10
5.1003672762
 20
5.6526198968
 11
5.1603672762
 21
5.6526198968
  0
LINE
  5
24D
100
AcDbEntity
  8
LAYER_FEATURE
100
AcDbLine
 62
7
  6
CONTINUOUS
 10
5.6003672762
 20
5.6526198968
 11
5.6603672762
 21
5.6526198968
  0
LINE
  5
24E
100
AcDbEntity
  8
LAYER_FEATURE
100
AcDbLine
 62
7
  6
CONTINUOUS
 10
6.1003672762
 20
5.6526198968
 11
6.1603672762
 21
5.6526198968
  0
LINE
  5
24F
100
AcDbEntity
  8
LAYER_FEATURE
100
AcDbLine
 62
7
  6
CONTINUOUS
 10
6.6003672762
 20
5.6526198968
 11
6.6603672762
 21
5.6526198968
  0
LINE
  5
250
100
AcDbEntity
  8
LAYER_FEATURE
100
AcDbLine
 62
7
  6
CONTINUOUS
 10
7.1003672762
 20
5.6526198968
 11
7.1603672762
 21
5.6526198968
  0
LINE
  5
251
100
AcDbEntity
  8
LAYER_FEATURE
100
AcDbLine
 62
7
  6
CONTINUOUS
 10
7.6003672762
 20
5.6526198968
 11
7.6603672762
 21
5.6526198968
  0
LINE
  5
252
100
AcDbEntity
  8
LAYER_FEATURE
100
AcDbLine
 62
7
  6
CONTINUOUS
 10
8.1003672762
 20
5.6526198968
 11
8.1603672762
 21
5.6526198968
  0
LINE
  5
253
100
AcDbEntity
  8
LAYER_FEATURE
100
AcDbLine
 62
7
  6
CONTINUOUS
 10
8.6003672762
 20
5.6526198968
 11
8.6603672762
 21
5.6526198968
  0
LINE
  5
254
100
AcDbEntity
  8
0
100
AcDbLine
 62
7
  6
CONTINUOUS
 10
9.0928672762
 20
5.6851198968
 11
3.1678672762
 21
5.6851198968
  0
LINE
  5
255
100
AcDbEntity
  8
LAYER_FEATURE
100
AcDbLine
 62
7
  6
CONTINUOUS
 10
6.1603672762
 20
5.6201198968
 11
6.238856292
 21
5.3680036642
  0
LINE
  5
256
100
AcDbEntity
  8
LAYER_FEATURE
100
AcDbLine
 62
7
  6
CONTINUOUS
 10
6.5218782604
 20
5.3680036642
 11
6.6003672762
 21
5.6201198968
  0
LINE
  5
257
100
AcDbEntity
  8
LAYER_FEATURE
100
AcDbLine
 62
7
  6
CONTINUOUS
 10
6.6003672762
 20
5.6201198968
 11
6.6003672762
 21
5.6526198968
  0
LINE
  5
258
100
AcDbEntity
  8
LAYER_FEATURE
100
AcDbLine
 62
7
  6
CONTINUOUS
 10
6.6603672762
 20
5.6526198968
 11
6.6603672762
 21
5.6201198968
  0
LINE
  5
259
100
AcDbEntity
  8
LAYER_FEATURE
100
AcDbLine
 62
7
  6
CONTINUOUS
 10
6.6603672762
 20
5.6201198968
 11
6.738856292
 21
5.3680036642
  0
LINE
  5
25A
100
AcDbEntity
  8
LAYER_FEATURE
100
AcDbLine
 62
7
  6
CONTINUOUS
 10
7.1003672762
 20
5.6201198968
 11
7.1003672762
 21
5.6526198968
  0
LINE
  5
25B
100
AcDbEntity
  8
LAYER_FEATURE
100
AcDbLine
 62
7
  6
CONTINUOUS
 10
7.0218782604
 20
5.3680036642
 11
7.1003672762
 21
5.6201198968
  0
LINE
  5
25C
100
AcDbEntity
  8
LAYER_FEATURE
100
AcDbLine
 62
7
  6
CONTINUOUS
 10
7.1603672762
 20
5.6201198968
 11
7.238856292
 21
5.3680036642
  0
LINE
  5
25D
100
AcDbEntity
  8
LAYER_FEATURE
100
AcDbLine
 62
7
  6
CONTINUOUS
 10
7.1603672762
 20
5.6526198968
 11
7.1603672762
 21
5.6201198968
  0
LINE
  5
25E
100
AcDbEntity
  8
LAYER_FEATURE
100
AcDbLine
 62
7
  6
CONTINUOUS
 10
7.5218782604
 20
5.3680036642
 11
7.6003672762
 21
5.6201198968
  0
LINE
  5
25F
100
AcDbEntity
  8
LAYER_FEATURE
100
AcDbLine
 62
7
  6
CONTINUOUS
 10
7.6003672762
 20
5.6201198968
 11
7.6003672762
 21
5.6526198968
  0
LINE
  5
260
100
AcDbEntity
  8
LAYER_FEATURE
100
AcDbLine
 62
7
  6
CONTINUOUS
 10
7.6603672762
 20
5.6526198968
 11
7.6603672762
 21
5.6201198968
  0
LINE
  5
261
100
AcDbEntity
  8
LAYER_FEATURE
100
AcDbLine
 62
7
  6
CONTINUOUS
 10
7.6603672762
 20
5.6201198968
 11
7.738856292
 21
5.3680036642
  0
LINE
  5
262
100
AcDbEntity
  8
LAYER_FEATURE
100
AcDbLine
 62
7
  6
CONTINUOUS
 10
8.1003672762
 20
5.6201198968
 11
8.1003672762
 21
5.6526198968
  0
LINE
  5
263
100
AcDbEntity
  8
LAYER_FEATURE
100
AcDbLine
 62
7
  6
CONTINUOUS
 10
8.0218782604
 20
5.3680036642
 11
8.1003672762
 21
5.6201198968
  0
LINE
  5
264
100
AcDbEntity
  8
LAYER_FEATURE
100
AcDbLine
 62
7
  6
CONTINUOUS
 10
8.1603672762
 20
5.6201198968
 11
8.238856292
 21
5.3680036642
  0
LINE
  5
265
100
AcDbEntity
  8
LAYER_FEATURE
100
AcDbLine
 62
7
  6
CONTINUOUS
 10
8.1603672762
 20
5.6526198968
 11
8.1603672762
 21
5.6201198968
  0
LINE
  5
266
100
AcDbEntity
  8
LAYER_FEATURE
100
AcDbLine
 62
7
  6
CONTINUOUS
 10
8.5218782604
 20
5.3680036642
 11
8.6003672762
 21
5.6201198968
  0
LINE
  5
267
100
AcDbEntity
  8
LAYER_FEATURE
100
AcDbLine
 62
7
  6
CONTINUOUS
 10
8.6003672762
 20
5.6201198968
 11
8.6003672762
 21
5.6526198968
  0
LINE
  5
268
100
AcDbEntity
  8
LAYER_FEATURE
100
AcDbLine
 62
7
  6
CONTINUOUS
 10
8.6603672762
 20
5.6526198968
 11
8.6603672762
 21
5.6201198968
  0
LINE
  5
269
100
AcDbEntity
  8
LAYER_FEATURE
100
AcDbLine
 62
7
  6
CONTINUOUS
 10
8.6603672762
 20
5.6201198968
 11
8.738856292
 21
5.3680036642
  0
LINE
  5
26A
100
AcDbEntity
  8
0
100
AcDbLine
 62
7
  6
CONTINUOUS
 10
9.1003672762
 20
5.6201198968
 11
9.1003672762
 21
5.6776198968
  0
LINE
  5
26B
100
AcDbEntity
  8
LAYER_FEATURE
100
AcDbLine
 62
7
  6
CONTINUOUS
 10
9.0218782604
 20
5.3680036642
 11
9.1003672762
 21
5.6201198968
  0
LINE
  5
26C
100
AcDbEntity
  8
0
100
AcDbLine
 62
7
  6
CONTINUOUS
 10
3.1008720839
 20
13.6000477814
 11
3.1008720839
 21
11.6000477814
  0
LINE
  5
26D
100
AcDbEntity
  8
0
100
AcDbLine
 62
7
  6
CONTINUOUS
 10
9.0408720839
 20
11.6000477814
 11
3.1008720839
 21
11.6000477814
  0
LINE
  5
26E
100
AcDbEntity
  8
0
100
AcDbLine
 62
7
  6
CONTINUOUS
 10
3.1008720839
 20
13.6000477814
 11
9.0408720839
 21
13.6000477814
  0
LINE
  5
26F
100
AcDbEntity
  8
0
100
AcDbLine
 62
7
  6
CONTINUOUS
 10
9.0408720839
 20
11.6000477814
 11
9.0408720839
 21
13.6000477814
  0
LINE
  5
270
100
AcDbEntity
  8
LAYER_FEATURE
100
AcDbLine
 62
7
  6
CONTINUOUS
 10
14.5603552569
 20
5.2956247044
 11
14.5603552569
 21
5.5606247044
  0
LINE
  5
271
100
AcDbEntity
  8
0
100
AcDbLine
 62
7
  6
CONTINUOUS
 10
14.5603552569
 20
5.5606247044
 11
14.5603552569
 21
5.6256247044
  0
LINE
  5
272
100
AcDbEntity
  8
LAYER_FEATURE
100
AcDbLine
 62
7
  6
CONTINUOUS
 10
14.5603552569
 20
5.2956247044
 11
16.5603552569
 21
5.2956247044
  0
LINE
  5
273
100
AcDbEntity
  8
LAYER_FEATURE
100
AcDbLine
 62
7
  6
CONTINUOUS
 10
16.5603552569
 20
5.5606247044
 11
14.5603552569
 21
5.5606247044
  0
LINE
  5
274
100
AcDbEntity
  8
0
100
AcDbLine
 62
7
  6
CONTINUOUS
 10
14.5603552569
 20
5.6256247044
 11
16.5603552569
 21
5.6256247044
  0
LINE
  5
275
100
AcDbEntity
  8
0
100
AcDbLine
 62
7
  6
CONTINUOUS
 10
16.5603552569
 20
5.6256247044
 11
16.5603552569
 21
5.5606247044
  0
LINE
  5
276
100
AcDbEntity
  8
LAYER_FEATURE
100
AcDbLine
 62
7
  6
CONTINUOUS
 10
16.5603552569
 20
5.2956247044
 11
16.5603552569
 21
5.5606247044
  0
LINE
  5
277
100
AcDbEntity
  8
0
100
AcDbLine
 62
7
  6
CONTINUOUS
 10
12.4825256397
 20
11.8253816533
 11
12.500065547
 21
11.7896390801
  0
LINE
  5
278
100
AcDbEntity
  8
0
100
AcDbLine
 62
7
  6
CONTINUOUS
 10
12.4822687493
 20
11.8275957611
 11
12.4825256397
 21
11.8253816533
  0
LINE
  5
279
100
AcDbEntity
  8
0
100
AcDbLine
 62
7
  6
CONTINUOUS
 10
12.9099452197
 20
11.6329211168
 11
12.9053323844
 21
11.7896390801
  0
LINE
  5
27A
100
AcDbEntity
  8
0
100
AcDbLine
 62
7
  6
CONTINUOUS
 10
12.9664005876
 20
13.3942498278
 11
12.4822679408
 21
11.8275960086
  0
LINE
  5
27B
100
AcDbEntity
  8
0
100
AcDbLine
 62
7
  6
CONTINUOUS
 10
12.500065547
 20
11.7896390801
 11
12.6492647242
 21
11.6329211168
  0
LINE
  5
27C
100
AcDbEntity
  8
0
100
AcDbLine
 62
7
  6
CONTINUOUS
 10
12.9053323844
 20
11.7896390801
 11
12.8954185237
 21
11.8098414041
  0
LINE
  5
27D
100
AcDbEntity
  8
LAYER_FEATURE
100
AcDbLine
 62
7
  6
CONTINUOUS
 10
12.9506821834
 20
11.8098414041
 11
12.960596044
 21
11.7896390801
  0
LINE
  5
27E
100
AcDbEntity
  8
0
100
AcDbLine
 62
7
  6
CONTINUOUS
 10
12.9096765902
 20
11.6308955885
 11
12.9099452197
 21
11.6329211168
  0
LINE
  5
27F
100
AcDbEntity
  8
LAYER_FEATURE
100
AcDbLine
 62
7
  6
CONTINUOUS
 10
12.960596044
 20
11.7896390801
 11
13.1097952212
 21
11.6329211168
  0
LINE
  5
280
100
AcDbEntity
  8
LAYER_FEATURE
100
AcDbLine
 62
7
  6
CONTINUOUS
 10
13.3704757167
 20
11.6329211168
 11
13.3658628814
 21
11.7896390801
  0
LINE
  5
281
100
AcDbEntity
  8
0
100
AcDbLine
 62
7
  6
CONTINUOUS
 10
12.9115753747
 20
11.8098414041
 11
12.9053323844
 21
11.7896390801
  0
LINE
  5
282
100
AcDbEntity
  8
0
100
AcDbLine
 62
7
  6
CONTINUOUS
 10
12.9096760574
 20
11.6308957528
 11
12.9594519307
 21
11.7919705379
  0
LINE
  5
283
100
AcDbEntity
  8
LAYER_FEATURE
100
AcDbLine
 62
7
  6
CONTINUOUS
 10
13.3658628814
 20
11.7896390801
 11
13.3559490207
 21
11.8098414041
  0
LINE
  5
284
100
AcDbEntity
  8
LAYER_FEATURE
100
AcDbLine
 62
7
  6
CONTINUOUS
 10
13.4112126804
 20
11.8098414041
 11
13.421126541
 21
11.7896390801
  0
LINE
  5
285
100
AcDbEntity
  8
LAYER_FEATURE
100
AcDbLine
 62
7
  6
CONTINUOUS
 10
13.3702070872
 20
11.6308955885
 11
13.3704757167
 21
11.6329211168
  0
LINE
  5
286
100
AcDbEntity
  8
LAYER_FEATURE
100
AcDbLine
 62
7
  6
CONTINUOUS
 10
13.421126541
 20
11.7896390801
 11
13.5703257182
 21
11.6329211168
  0
LINE
  5
287
100
AcDbEntity
  8
LAYER_FEATURE
100
AcDbLine
 62
7
  6
CONTINUOUS
 10
13.8310062137
 20
11.6329211168
 11
13.8263933784
 21
11.7896390801
  0
LINE
  5
288
100
AcDbEntity
  8
LAYER_FEATURE
100
AcDbLine
 62
7
  6
CONTINUOUS
 10
13.3721058717
 20
11.8098414041
 11
13.3658628814
 21
11.7896390801
  0
LINE
  5
289
100
AcDbEntity
  8
LAYER_FEATURE
100
AcDbLine
 62
7
  6
CONTINUOUS
 10
13.3702065544
 20
11.6308957528
 11
13.4199824277
 21
11.7919705379
  0
LINE
  5
28A
100
AcDbEntity
  8
LAYER_FEATURE
100
AcDbLine
 62
7
  6
CONTINUOUS
 10
13.881657038
 20
11.7896390801
 11
14.0308562152
 21
11.6329211168
  0
LINE
  5
28B
100
AcDbEntity
  8
LAYER_FEATURE
100
AcDbLine
 62
7
  6
CONTINUOUS
 10
13.8263933784
 20
11.7896390801
 11
13.8164795177
 21
11.8098414041
  0
LINE
  5
28C
100
AcDbEntity
  8
LAYER_FEATURE
100
AcDbLine
 62
7
  6
CONTINUOUS
 10
13.8717431774
 20
11.8098414041
 11
13.881657038
 21
11.7896390801
  0
LINE
  5
28D
100
AcDbEntity
  8
LAYER_FEATURE
100
AcDbLine
 62
7
  6
CONTINUOUS
 10
13.8307375842
 20
11.6308955885
 11
13.8310062137
 21
11.6329211168
  0
LINE
  5
28E
100
AcDbEntity
  8
LAYER_FEATURE
100
AcDbLine
 62
7
  6
CONTINUOUS
 10
13.8326363687
 20
11.8098414041
 11
13.8263933784
 21
11.7896390801
  0
LINE
  5
28F
100
AcDbEntity
  8
LAYER_FEATURE
100
AcDbLine
 62
7
  6
CONTINUOUS
 10
13.8307370514
 20
11.6308957528
 11
13.8805129247
 21
11.7919705379
  0
LINE
  5
290
100
AcDbEntity
  8
LAYER_FEATURE
100
AcDbLine
 62
7
  6
CONTINUOUS
 10
14.342187535
 20
11.7896390801
 11
14.4913867122
 21
11.6329211168
  0
LINE
  5
291
100
AcDbEntity
  8
LAYER_FEATURE
100
AcDbLine
 62
7
  6
CONTINUOUS
 10
14.2869238754
 20
11.7896390801
 11
14.2770100147
 21
11.8098414041
  0
LINE
  5
292
100
AcDbEntity
  8
LAYER_FEATURE
100
AcDbLine
 62
7
  6
CONTINUOUS
 10
14.3322736744
 20
11.8098414041
 11
14.342187535
 21
11.7896390801
  0
LINE
  5
293
100
AcDbEntity
  8
LAYER_FEATURE
100
AcDbLine
 62
7
  6
CONTINUOUS
 10
14.2915367107
 20
11.6329211168
 11
14.2869238754
 21
11.7896390801
  0
LINE
  5
294
100
AcDbEntity
  8
LAYER_FEATURE
100
AcDbLine
 62
7
  6
CONTINUOUS
 10
14.2912680812
 20
11.6308955885
 11
14.2915367107
 21
11.6329211168
  0
LINE
  5
295
100
AcDbEntity
  8
LAYER_FEATURE
100
AcDbLine
 62
7
  6
CONTINUOUS
 10
14.2931668657
 20
11.8098414041
 11
14.2869238754
 21
11.7896390801
  0
LINE
  5
296
100
AcDbEntity
  8
LAYER_FEATURE
100
AcDbLine
 62
7
  6
CONTINUOUS
 10
14.2912675484
 20
11.6308957528
 11
14.3410434217
 21
11.7919705379
  0
LINE
  5
297
100
AcDbEntity
  8
0
100
AcDbLine
 62
7
  6
CONTINUOUS
 10
12.669317678
 20
11.6249124385
 11
12.8977524428
 21
11.6249124385
  0
LINE
  5
298
100
AcDbEntity
  8
LAYER_FEATURE
100
AcDbLine
 62
7
  6
CONTINUOUS
 10
13.129848175
 20
11.6249124385
 11
13.3582829398
 21
11.6249124385
  0
LINE
  5
299
100
AcDbEntity
  8
LAYER_FEATURE
100
AcDbLine
 62
7
  6
CONTINUOUS
 10
13.590378672
 20
11.6249124385
 11
13.8188134368
 21
11.6249124385
  0
LINE
  5
29A
100
AcDbEntity
  8
LAYER_FEATURE
100
AcDbLine
 62
7
  6
CONTINUOUS
 10
14.050909169
 20
11.6249124385
 11
14.2793439338
 21
11.6249124385
  0
LINE
  5
29B
100
AcDbEntity
  8
LAYER_FEATURE
100
AcDbLine
 62
7
  6
CONTINUOUS
 10
14.511439666
 20
11.6249124385
 11
14.7398744308
 21
11.6249124385
  0
LINE
  5
29C
100
AcDbEntity
  8
LAYER_FEATURE
100
AcDbLine
 62
7
  6
CONTINUOUS
 10
14.971970163
 20
11.6249124385
 11
15.2004049278
 21
11.6249124385
  0
LINE
  5
29D
100
AcDbEntity
  8
LAYER_FEATURE
100
AcDbLine
 62
7
  6
CONTINUOUS
 10
15.43250066
 20
11.6249124385
 11
15.6609354248
 21
11.6249124385
  0
LINE
  5
29E
100
AcDbEntity
  8
LAYER_FEATURE
100
AcDbLine
 62
7
  6
CONTINUOUS
 10
15.893031157
 20
11.6249124385
 11
16.1214659218
 21
11.6249124385
  0
LINE
  5
29F
100
AcDbEntity
  8
LAYER_FEATURE
100
AcDbLine
 62
7
  6
CONTINUOUS
 10
16.353561654
 20
11.6249124385
 11
16.5819964188
 21
11.6249124385
  0
LINE
  5
2A0
100
AcDbEntity
  8
LAYER_FEATURE
100
AcDbLine
 62
7
  6
CONTINUOUS
 10
16.814092151
 20
11.6249124385
 11
17.0425269158
 21
11.6249124385
  0
LINE
  5
2A1
100
AcDbEntity
  8
LAYER_FEATURE
100
AcDbLine
 62
7
  6
CONTINUOUS
 10
17.274622648
 20
11.6249124385
 11
17.5030574128
 21
11.6249124385
  0
LINE
  5
2A2
100
AcDbEntity
  8
LAYER_FEATURE
100
AcDbLine
 62
7
  6
CONTINUOUS
 10
17.735153145
 20
11.6249124385
 11
17.9635879098
 21
11.6249124385
  0
LINE
  5
2A3
100
AcDbEntity
  8
LAYER_FEATURE
100
AcDbLine
 62
7
  6
CONTINUOUS
 10
14.802718032
 20
11.7896390801
 11
14.9519172092
 21
11.6329211168
  0
LINE
  5
2A4
100
AcDbEntity
  8
LAYER_FEATURE
100
AcDbLine
 62
7
  6
CONTINUOUS
 10
14.7474543724
 20
11.7896390801
 11
14.7375405117
 21
11.8098414041
  0
LINE
  5
2A5
100
AcDbEntity
  8
LAYER_FEATURE
100
AcDbLine
 62
7
  6
CONTINUOUS
 10
14.7928041714
 20
11.8098414041
 11
14.802718032
 21
11.7896390801
  0
LINE
  5
2A6
100
AcDbEntity
  8
LAYER_FEATURE
100
AcDbLine
 62
7
  6
CONTINUOUS
 10
14.7520672077
 20
11.6329211168
 11
14.7474543724
 21
11.7896390801
  0
LINE
  5
2A7
100
AcDbEntity
  8
LAYER_FEATURE
100
AcDbLine
 62
7
  6
CONTINUOUS
 10
14.7517985782
 20
11.6308955885
 11
14.7520672077
 21
11.6329211168
  0
LINE
  5
2A8
100
AcDbEntity
  8
LAYER_FEATURE
100
AcDbLine
 62
7
  6
CONTINUOUS
 10
12.8954185237
 20
11.8098414041
 11
12.9506821834
 21
11.8098414041
  0
LINE
  5
2A9
100
AcDbEntity
  8
LAYER_FEATURE
100
AcDbLine
 62
7
  6
CONTINUOUS
 10
13.3559490207
 20
11.8098414041
 11
13.4112126804
 21
11.8098414041
  0
LINE
  5
2AA
100
AcDbEntity
  8
LAYER_FEATURE
100
AcDbLine
 62
7
  6
CONTINUOUS
 10
13.8164795177
 20
11.8098414041
 11
13.8717431774
 21
11.8098414041
  0
LINE
  5
2AB
100
AcDbEntity
  8
LAYER_FEATURE
100
AcDbLine
 62
7
  6
CONTINUOUS
 10
14.2770100147
 20
11.8098414041
 11
14.3322736744
 21
11.8098414041
  0
LINE
  5
2AC
100
AcDbEntity
  8
LAYER_FEATURE
100
AcDbLine
 62
7
  6
CONTINUOUS
 10
14.7375405117
 20
11.8098414041
 11
14.7928041714
 21
11.8098414041
  0
LINE
  5
2AD
100
AcDbEntity
  8
LAYER_FEATURE
100
AcDbLine
 62
7
  6
CONTINUOUS
 10
15.1980710087
 20
11.8098414041
 11
15.2533346684
 21
11.8098414041
  0
LINE
  5
2AE
100
AcDbEntity
  8
LAYER_FEATURE
100
AcDbLine
 62
7
  6
CONTINUOUS
 10
15.6586015057
 20
11.8098414041
 11
15.7138651654
 21
11.8098414041
  0
LINE
  5
2AF
100
AcDbEntity
  8
LAYER_FEATURE
100
AcDbLine
 62
7
  6
CONTINUOUS
 10
16.1191320027
 20
11.8098414041
 11
16.1743956624
 21
11.8098414041
  0
LINE
  5
2B0
100
AcDbEntity
  8
LAYER_FEATURE
100
AcDbLine
 62
7
  6
CONTINUOUS
 10
16.5796624997
 20
11.8098414041
 11
16.6349261594
 21
11.8098414041
  0
LINE
  5
2B1
100
AcDbEntity
  8
LAYER_FEATURE
100
AcDbLine
 62
7
  6
CONTINUOUS
 10
17.0401929967
 20
11.8098414041
 11
17.0954566564
 21
11.8098414041
  0
LINE
  5
2B2
100
AcDbEntity
  8
LAYER_FEATURE
100
AcDbLine
 62
7
  6
CONTINUOUS
 10
17.5007234937
 20
11.8098414041
 11
17.5559871534
 21
11.8098414041
  0
LINE
  5
2B3
100
AcDbEntity
  8
0
100
AcDbLine
 62
7
  6
CONTINUOUS
 10
17.9444321726
 20
11.830043728
 11
12.4871457832
 21
11.830043728
  0
LINE
  5
2B4
100
AcDbEntity
  8
LAYER_FEATURE
100
AcDbLine
 62
7
  6
CONTINUOUS
 10
15.263248529
 20
11.7896390801
 11
15.4124477062
 21
11.6329211168
  0
LINE
  5
2B5
100
AcDbEntity
  8
LAYER_FEATURE
100
AcDbLine
 62
7
  6
CONTINUOUS
 10
14.7536973627
 20
11.8098414041
 11
14.7474543724
 21
11.7896390801
  0
LINE
  5
2B6
100
AcDbEntity
  8
LAYER_FEATURE
100
AcDbLine
 62
7
  6
CONTINUOUS
 10
14.7517980454
 20
11.6308957528
 11
14.8015739187
 21
11.7919705379
  0
LINE
  5
2B7
100
AcDbEntity
  8
LAYER_FEATURE
100
AcDbLine
 62
7
  6
CONTINUOUS
 10
15.2079848694
 20
11.7896390801
 11
15.1980710087
 21
11.8098414041
  0
LINE
  5
2B8
100
AcDbEntity
  8
LAYER_FEATURE
100
AcDbLine
 62
7
  6
CONTINUOUS
 10
15.2533346684
 20
11.8098414041
 11
15.263248529
 21
11.7896390801
  0
LINE
  5
2B9
100
AcDbEntity
  8
LAYER_FEATURE
100
AcDbLine
 62
7
  6
CONTINUOUS
 10
15.2125977047
 20
11.6329211168
 11
15.2079848694
 21
11.7896390801
  0
LINE
  5
2BA
100
AcDbEntity
  8
LAYER_FEATURE
100
AcDbLine
 62
7
  6
CONTINUOUS
 10
15.723779026
 20
11.7896390801
 11
15.8729782032
 21
11.6329211168
  0
LINE
  5
2BB
100
AcDbEntity
  8
LAYER_FEATURE
100
AcDbLine
 62
7
  6
CONTINUOUS
 10
15.2123290752
 20
11.6308955885
 11
15.2125977047
 21
11.6329211168
  0
LINE
  5
2BC
100
AcDbEntity
  8
LAYER_FEATURE
100
AcDbLine
 62
7
  6
CONTINUOUS
 10
15.2142278597
 20
11.8098414041
 11
15.2079848694
 21
11.7896390801
  0
LINE
  5
2BD
100
AcDbEntity
  8
LAYER_FEATURE
100
AcDbLine
 62
7
  6
CONTINUOUS
 10
15.2123285424
 20
11.6308957528
 11
15.2621044157
 21
11.7919705379
  0
LINE
  5
2BE
100
AcDbEntity
  8
LAYER_FEATURE
100
AcDbLine
 62
7
  6
CONTINUOUS
 10
16.184309523
 20
11.7896390801
 11
16.3335087002
 21
11.6329211168
  0
LINE
  5
2BF
100
AcDbEntity
  8
LAYER_FEATURE
100
AcDbLine
 62
7
  6
CONTINUOUS
 10
15.6685153664
 20
11.7896390801
 11
15.6586015057
 21
11.8098414041
  0
LINE
  5
2C0
100
AcDbEntity
  8
LAYER_FEATURE
100
AcDbLine
 62
7
  6
CONTINUOUS
 10
15.7138651654
 20
11.8098414041
 11
15.723779026
 21
11.7896390801
  0
LINE
  5
2C1
100
AcDbEntity
  8
LAYER_FEATURE
100
AcDbLine
 62
7
  6
CONTINUOUS
 10
15.6731282017
 20
11.6329211168
 11
15.6685153664
 21
11.7896390801
  0
LINE
  5
2C2
100
AcDbEntity
  8
LAYER_FEATURE
100
AcDbLine
 62
7
  6
CONTINUOUS
 10
15.6728595722
 20
11.6308955885
 11
15.6731282017
 21
11.6329211168
  0
LINE
  5
2C3
100
AcDbEntity
  8
LAYER_FEATURE
100
AcDbLine
 62
7
  6
CONTINUOUS
 10
15.6747583567
 20
11.8098414041
 11
15.6685153664
 21
11.7896390801
  0
LINE
  5
2C4
100
AcDbEntity
  8
LAYER_FEATURE
100
AcDbLine
 62
7
  6
CONTINUOUS
 10
16.6448400201
 20
11.7896390801
 11
16.7940391972
 21
11.6329211168
  0
LINE
  5
2C5
100
AcDbEntity
  8
LAYER_FEATURE
100
AcDbLine
 62
7
  6
CONTINUOUS
 10
16.1290458634
 20
11.7896390801
 11
16.1191320027
 21
11.8098414041
  0
LINE
  5
2C6
100
AcDbEntity
  8
LAYER_FEATURE
100
AcDbLine
 62
7
  6
CONTINUOUS
 10
16.1743956624
 20
11.8098414041
 11
16.184309523
 21
11.7896390801
  0
LINE
  5
2C7
100
AcDbEntity
  8
LAYER_FEATURE
100
AcDbLine
 62
7
  6
CONTINUOUS
 10
16.1336586987
 20
11.6329211168
 11
16.1290458634
 21
11.7896390801
  0
LINE
  5
2C8
100
AcDbEntity
  8
LAYER_FEATURE
100
AcDbLine
 62
7
  6
CONTINUOUS
 10
15.6728590394
 20
11.6308957528
 11
15.7226349127
 21
11.7919705379
  0
LINE
  5
2C9
100
AcDbEntity
  8
LAYER_FEATURE
100
AcDbLine
 62
7
  6
CONTINUOUS
 10
16.1333900692
 20
11.6308955885
 11
16.1336586987
 21
11.6329211168
  0
LINE
  5
2CA
100
AcDbEntity
  8
LAYER_FEATURE
100
AcDbLine
 62
7
  6
CONTINUOUS
 10
16.1352888537
 20
11.8098414041
 11
16.1290458634
 21
11.7896390801
  0
LINE
  5
2CB
100
AcDbEntity
  8
LAYER_FEATURE
100
AcDbLine
 62
7
  6
CONTINUOUS
 10
17.1053705171
 20
11.7896390801
 11
17.2545696942
 21
11.6329211168
  0
LINE
  5
2CC
100
AcDbEntity
  8
LAYER_FEATURE
100
AcDbLine
 62
7
  6
CONTINUOUS
 10
16.5895763604
 20
11.7896390801
 11
16.5796624997
 21
11.8098414041
  0
LINE
  5
2CD
100
AcDbEntity
  8
LAYER_FEATURE
100
AcDbLine
 62
7
  6
CONTINUOUS
 10
16.6349261594
 20
11.8098414041
 11
16.6448400201
 21
11.7896390801
  0
LINE
  5
2CE
100
AcDbEntity
  8
LAYER_FEATURE
100
AcDbLine
 62
7
  6
CONTINUOUS
 10
16.1333895364
 20
11.6308957528
 11
16.1831654097
 21
11.7919705379
  0
LINE
  5
2CF
100
AcDbEntity
  8
0
100
AcDbLine
 62
7
  6
CONTINUOUS
 10
12.97127843
 20
13.3966975473
 11
18.4285648194
 21
13.3966975473
  0
LINE
  5
2D0
100
AcDbEntity
  8
LAYER_FEATURE
100
AcDbLine
 62
7
  6
CONTINUOUS
 10
17.5659010141
 20
11.7896390801
 11
17.7151001912
 21
11.6329211168
  0
LINE
  5
2D1
100
AcDbEntity
  8
LAYER_FEATURE
100
AcDbLine
 62
7
  6
CONTINUOUS
 10
16.5941891957
 20
11.6329211168
 11
16.5895763604
 21
11.7896390801
  0
LINE
  5
2D2
100
AcDbEntity
  8
LAYER_FEATURE
100
AcDbLine
 62
7
  6
CONTINUOUS
 10
16.5939205662
 20
11.6308955885
 11
16.5941891957
 21
11.6329211168
  0
LINE
  5
2D3
100
AcDbEntity
  8
LAYER_FEATURE
100
AcDbLine
 62
7
  6
CONTINUOUS
 10
17.0501068574
 20
11.7896390801
 11
17.0401929967
 21
11.8098414041
  0
LINE
  5
2D4
100
AcDbEntity
  8
LAYER_FEATURE
100
AcDbLine
 62
7
  6
CONTINUOUS
 10
17.0954566564
 20
11.8098414041
 11
17.1053705171
 21
11.7896390801
  0
LINE
  5
2D5
100
AcDbEntity
  8
LAYER_FEATURE
100
AcDbLine
 62
7
  6
CONTINUOUS
 10
16.5958193507
 20
11.8098414041
 11
16.5895763604
 21
11.7896390801
  0
LINE
  5
2D6
100
AcDbEntity
  8
LAYER_FEATURE
100
AcDbLine
 62
7
  6
CONTINUOUS
 10
16.5939200334
 20
11.6308957528
 11
16.6436959067
 21
11.7919705379
  0
LINE
  5
2D7
100
AcDbEntity
  8
LAYER_FEATURE
100
AcDbLine
 62
7
  6
CONTINUOUS
 10
17.0547196927
 20
11.6329211168
 11
17.0501068574
 21
11.7896390801
  0
LINE
  5
2D8
100
AcDbEntity
  8
LAYER_FEATURE
100
AcDbLine
 62
7
  6
CONTINUOUS
 10
17.0544510632
 20
11.6308955885
 11
17.0547196927
 21
11.6329211168
  0
LINE
  5
2D9
100
AcDbEntity
  8
LAYER_FEATURE
100
AcDbLine
 62
7
  6
CONTINUOUS
 10
17.5106373544
 20
11.7896390801
 11
17.5007234937
 21
11.8098414041
  0
LINE
  5
2DA
100
AcDbEntity
  8
LAYER_FEATURE
100
AcDbLine
 62
7
  6
CONTINUOUS
 10
17.5559871534
 20
11.8098414041
 11
17.5659010141
 21
11.7896390801
  0
LINE
  5
2DB
100
AcDbEntity
  8
LAYER_FEATURE
100
AcDbLine
 62
7
  6
CONTINUOUS
 10
17.0563498477
 20
11.8098414041
 11
17.0501068574
 21
11.7896390801
  0
LINE
  5
2DC
100
AcDbEntity
  8
LAYER_FEATURE
100
AcDbLine
 62
7
  6
CONTINUOUS
 10
17.0544505304
 20
11.6308957528
 11
17.1042264037
 21
11.7919705379
  0
LINE
  5
2DD
100
AcDbEntity
  8
LAYER_FEATURE
100
AcDbLine
 62
7
  6
CONTINUOUS
 10
17.5152501897
 20
11.6329211168
 11
17.5106373544
 21
11.7896390801
  0
LINE
  5
2DE
100
AcDbEntity
  8
0
100
AcDbLine
 62
7
  6
CONTINUOUS
 10
17.9711678514
 20
11.7896390801
 11
17.9536279441
 21
11.8253816533
  0
LINE
  5
2DF
100
AcDbEntity
  8
LAYER_FEATURE
100
AcDbLine
 62
7
  6
CONTINUOUS
 10
17.5149815602
 20
11.6308955885
 11
17.5152501897
 21
11.6329211168
  0
LINE
  5
2E0
100
AcDbEntity
  8
LAYER_FEATURE
100
AcDbLine
 62
7
  6
CONTINUOUS
 10
17.5168803447
 20
11.8098414041
 11
17.5106373544
 21
11.7896390801
  0
LINE
  5
2E1
100
AcDbEntity
  8
LAYER_FEATURE
100
AcDbLine
 62
7
  6
CONTINUOUS
 10
17.5149810274
 20
11.6308957528
 11
17.5647569007
 21
11.7919705379
  0
LINE
  5
2E2
100
AcDbEntity
  8
LAYER_FEATURE
100
AcDbLine
 62
7
  6
CONTINUOUS
 10
17.9757806867
 20
11.6329211168
 11
17.9711678514
 21
11.7896390801
  0
LINE
  5
2E3
100
AcDbEntity
  8
LAYER_FEATURE
100
AcDbLine
 62
7
  6
CONTINUOUS
 10
17.9755120572
 20
11.6308955885
 11
17.9757806867
 21
11.6329211168
  0
LINE
  5
2E4
100
AcDbEntity
  8
LAYER_FEATURE
100
AcDbLine
 62
7
  6
CONTINUOUS
 10
18.4553004982
 20
13.3562928994
 11
17.9711678514
 21
11.7896390801
  0
LINE
  5
2E5
100
AcDbEntity
  8
LAYER_FEATURE
100
AcDbLine
 62
7
  6
CONTINUOUS
 10
17.9755115244
 20
11.6308957528
 11
18.4596441712
 21
13.197549572
  0
LINE
  5
2E6
100
AcDbEntity
  8
LAYER_FEATURE
100
AcDbLine
 62
7
  6
CONTINUOUS
 10
18.4599133335
 20
13.199574936
 11
18.4553004982
 21
13.3562928994
  0
LINE
  5
2E7
100
AcDbEntity
  8
LAYER_FEATURE
100
AcDbLine
 62
7
  6
CONTINUOUS
 10
18.4599133335
 20
13.199574936
 11
18.459644704
 21
13.1975494078
  0
LINE
  5
2E8
100
AcDbEntity
  8
0
100
AcDbLine
 62
7
  6
CONTINUOUS
 10
18.4377605909
 20
13.3920354725
 11
18.4553004982
 21
13.3562928994
  0
ARC
  5
2E9
100
AcDbEntity
  8
0
100
AcDbCircle
 62
7
  6
CONTINUOUS
 10
3.2563609583
 20
5.3734532301
 40
0.0183333333
100
AcDbArc
 50
197.2924493999
 51
270.0
  0
ARC
  5
2EA
100
AcDbEntity
  8
0
100
AcDbCircle
 62
7
  6
CONTINUOUS
 10
3.5043735941
 20
5.3734532301
 40
0.0183333333
100
AcDbArc
 50
270.0
 51
342.7075506001
  0
ARC
  5
2EB
100
AcDbEntity
  8
LAYER_FEATURE
100
AcDbCircle
 62
7
  6
CONTINUOUS
 10
3.7563609583
 20
5.3734532301
 40
0.0183333333
100
AcDbArc
 50
197.2924493999
 51
270.0
  0
ARC
  5
2EC
100
AcDbEntity
  8
LAYER_FEATURE
100
AcDbCircle
 62
7
  6
CONTINUOUS
 10
4.0043735941
 20
5.3734532301
 40
0.0183333333
100
AcDbArc
 50
270.0
 51
342.7075506001
  0
ARC
  5
2ED
100
AcDbEntity
  8
LAYER_FEATURE
100
AcDbCircle
 62
7
  6
CONTINUOUS
 10
4.2563609583
 20
5.3734532301
 40
0.0183333333
100
AcDbArc
 50
197.2924493999
 51
270.0
  0
ARC
  5
2EE
100
AcDbEntity
  8
LAYER_FEATURE
100
AcDbCircle
 62
7
  6
CONTINUOUS
 10
4.5043735941
 20
5.3734532301
 40
0.0183333333
100
AcDbArc
 50
270.0
 51
342.7075506001
  0
ARC
  5
2EF
100
AcDbEntity
  8
LAYER_FEATURE
100
AcDbCircle
 62
7
  6
CONTINUOUS
 10
4.7563609583
 20
5.3734532301
 40
0.0183333333
100
AcDbArc
 50
197.2924493999
 51
270.0
  0
ARC
  5
2F0
100
AcDbEntity
  8
LAYER_FEATURE
100
AcDbCircle
 62
7
  6
CONTINUOUS
 10
5.0043735941
 20
5.3734532301
 40
0.0183333333
100
AcDbArc
 50
270.0
 51
342.7075506001
  0
ARC
  5
2F1
100
AcDbEntity
  8
LAYER_FEATURE
100
AcDbCircle
 62
7
  6
CONTINUOUS
 10
5.2563609583
 20
5.3734532301
 40
0.0183333333
100
AcDbArc
 50
197.2924493999
 51
270.0
  0
ARC
  5
2F2
100
AcDbEntity
  8
LAYER_FEATURE
100
AcDbCircle
 62
7
  6
CONTINUOUS
 10
5.5043735941
 20
5.3734532301
 40
0.0183333333
100
AcDbArc
 50
270.0
 51
342.7075506001
  0
ARC
  5
2F3
100
AcDbEntity
  8
LAYER_FEATURE
100
AcDbCircle
 62
7
  6
CONTINUOUS
 10
5.7563609583
 20
5.3734532301
 40
0.0183333333
100
AcDbArc
 50
197.2924493999
 51
270.0
  0
ARC
  5
2F4
100
AcDbEntity
  8
LAYER_FEATURE
100
AcDbCircle
 62
7
  6
CONTINUOUS
 10
6.0043735941
 20
5.3734532301
 40
0.0183333333
100
AcDbArc
 50
270.0
 51
342.7075506001
  0
ARC
  5
2F5
100
AcDbEntity
  8
LAYER_FEATURE
100
AcDbCircle
 62
7
  6
CONTINUOUS
 10
6.2563609583
 20
5.3734532301
 40
0.0183333333
100
AcDbArc
 50
197.2924493999
 51
270.0
  0
ARC
  5
2F6
100
AcDbEntity
  8
LAYER_FEATURE
100
AcDbCircle
 62
7
  6
CONTINUOUS
 10
6.5043735941
 20
5.3734532301
 40
0.0183333333
100
AcDbArc
 50
270.0
 51
342.7075506001
  0
ARC
  5
2F7
100
AcDbEntity
  8
LAYER_FEATURE
100
AcDbCircle
 62
7
  6
CONTINUOUS
 10
6.7563609583
 20
5.3734532301
 40
0.0183333333
100
AcDbArc
 50
197.2924493999
 51
270.0
  0
ARC
  5
2F8
100
AcDbEntity
  8
LAYER_FEATURE
100
AcDbCircle
 62
7
  6
CONTINUOUS
 10
7.0043735941
 20
5.3734532301
 40
0.0183333333
100
AcDbArc
 50
270.0
 51
342.7075506001
  0
ARC
  5
2F9
100
AcDbEntity
  8
LAYER_FEATURE
100
AcDbCircle
 62
7
  6
CONTINUOUS
 10
7.2563609583
 20
5.3734532301
 40
0.0183333333
100
AcDbArc
 50
197.2924493999
 51
270.0
  0
ARC
  5
2FA
100
AcDbEntity
  8
LAYER_FEATURE
100
AcDbCircle
 62
7
  6
CONTINUOUS
 10
7.5043735941
 20
5.3734532301
 40
0.0183333333
100
AcDbArc
 50
270.0
 51
342.7075506001
  0
ARC
  5
2FB
100
AcDbEntity
  8
LAYER_FEATURE
100
AcDbCircle
 62
7
  6
CONTINUOUS
 10
7.7563609583
 20
5.3734532301
 40
0.0183333333
100
AcDbArc
 50
197.2924493999
 51
270.0
  0
ARC
  5
2FC
100
AcDbEntity
  8
LAYER_FEATURE
100
AcDbCircle
 62
7
  6
CONTINUOUS
 10
8.0043735941
 20
5.3734532301
 40
0.0183333333
100
AcDbArc
 50
270.0
 51
342.7075506001
  0
ARC
  5
2FD
100
AcDbEntity
  8
LAYER_FEATURE
100
AcDbCircle
 62
7
  6
CONTINUOUS
 10
9.0043735941
 20
5.3734532301
 40
0.0183333333
100
AcDbArc
 50
270.0
 51
342.7075506001
  0
ARC
  5
2FE
100
AcDbEntity
  8
LAYER_FEATURE
100
AcDbCircle
 62
7
  6
CONTINUOUS
 10
8.7563609583
 20
5.3734532301
 40
0.0183333333
100
AcDbArc
 50
197.2924493999
 51
270.0
  0
ARC
  5
2FF
100
AcDbEntity
  8
LAYER_FEATURE
100
AcDbCircle
 62
7
  6
CONTINUOUS
 10
8.5043735941
 20
5.3734532301
 40
0.0183333333
100
AcDbArc
 50
270.0
 51
342.7075506001
  0
ARC
  5
300
100
AcDbEntity
  8
LAYER_FEATURE
100
AcDbCircle
 62
7
  6
CONTINUOUS
 10
8.2563609583
 20
5.3734532301
 40
0.0183333333
100
AcDbArc
 50
197.2924493999
 51
270.0
  0
ARC
  5
301
100
AcDbEntity
  8
0
100
AcDbCircle
 62
7
  6
CONTINUOUS
 10
3.1678672762
 20
5.6776198968
 40
0.0075
100
AcDbArc
 50
90.0
 51
180.0
  0
ARC
  5
302
100
AcDbEntity
  8
0
100
AcDbCircle
 62
7
  6
CONTINUOUS
 10
9.0928672762
 20
5.6776198968
 40
0.0075
100
AcDbArc
 50
0.0
 51
90.0
  0
SPLINE
  5
303
100
AcDbEntity
  8
0
100
AcDbSpline
 62
7
  6
CONTINUOUS
 70
0
 71
3
 72
11
 73
7
 74
0
 42
0.0000001
 43
0.0000001
 44
0.0000000001
 40
0.0
 40
0.0
 40
0.0
 40
0.0
 40
0.2644444522
 40
0.5366447956
 40
0.7886683147
 40
1.0
 40
1.0
 40
1.0
 40
1.0
 10
18.4285648194
 20
13.3966975473
 30
0.0
 10
18.4295104782
 20
13.3966975473
 30
0.0
 10
18.4314326174
 20
13.3964351653
 30
0.0
 10
18.434103569
 20
13.3954620058
 30
0.0
 10
18.4363228301
 20
13.3940109928
 30
0.0
 10
18.4374276611
 20
13.3927139121
 30
0.0
 10
18.4377605909
 20
13.3920354725
 30
0.0
  0
SPLINE
  5
304
100
AcDbEntity
  8
0
100
AcDbSpline
 62
7
  6
CONTINUOUS
 70
0
 71
3
 72
11
 73
7
 74
0
 42
0.0000001
 43
0.0000001
 44
0.0000000001
 40
0.0
 40
0.0
 40
0.0
 40
0.0
 40
0.2022595964
 40
0.4301234434
 40
0.6973865799
 40
1.0
 40
1.0
 40
1.0
 40
1.0
 10
12.9664011531
 20
13.394249655
 30
0.0
 10
12.9665147613
 20
13.3946236538
 30
0.0
 10
12.9669664279
 20
13.395362545
 30
0.0
 10
12.9681012108
 20
13.3961393712
 30
0.0
 10
12.9695887794
 20
13.3966001604
 30
0.0
 10
12.9706936197
 20
13.3966975473
 30
0.0
 10
12.97127843
 20
13.3966975473
 30
0.0
  0
SPLINE
  5
305
100
AcDbEntity
  8
LAYER_FEATURE
100
AcDbSpline
 62
7
  6
CONTINUOUS
 70
0
 71
3
 72
12
 73
8
 74
0
 42
0.0000001
 43
0.0000001
 44
0.0000000001
 40
0.0
 40
0.0
 40
0.0
 40
0.0
 40
0.3032854646
 40
0.5691573254
 40
0.7966003169
 40
0.9000397737
 40
1.0
 40
1.0
 40
1.0
 40
1.0
 10
17.9635879098
 20
11.6249124385
 30
0.0
 10
17.9650225221
 20
11.6249124385
 30
0.0
 10
17.9677255365
 20
11.6251419163
 30
0.0
 10
17.9713558569
 20
11.6262767272
 30
0.0
 10
17.9737351513
 20
11.6279195776
 30
0.0
 10
17.9749766002
 20
11.6295552122
 30
0.0
 10
17.9753711851
 20
11.6304442234
 30
0.0
 10
17.9755106163
 20
11.6308960336
 30
0.0
  0
SPLINE
  5
306
100
AcDbEntity
  8
LAYER_FEATURE
100
AcDbSpline
 62
7
  6
CONTINUOUS
 70
0
 71
3
 72
11
 73
7
 74
0
 42
0.0000001
 43
0.0000001
 44
0.0000000001
 40
0.0
 40
0.0
 40
0.0
 40
0.0
 40
0.2309498651
 40
0.4854364262
 40
0.7475995648
 40
1.0
 40
1.0
 40
1.0
 40
1.0
 10
17.7151001912
 20
11.6329211168
 30
0.0
 10
17.7162727707
 20
11.6316894459
 30
0.0
 10
17.7191057886
 20
11.6294460391
 30
0.0
 10
17.7240450561
 20
11.6269511164
 30
0.0
 10
17.7294996859
 20
11.6253274006
 30
0.0
 10
17.7332946208
 20
11.6249124385
 30
0.0
 10
17.735153145
 20
11.6249124385
 30
0.0
  0
SPLINE
  5
307
100
AcDbEntity
  8
LAYER_FEATURE
100
AcDbSpline
 62
7
  6
CONTINUOUS
 70
0
 71
3
 72
12
 73
8
 74
0
 42
0.0000001
 43
0.0000001
 44
0.0000000001
 40
0.0
 40
0.0
 40
0.0
 40
0.0
 40
0.3032854646
 40
0.5691573254
 40
0.7966003169
 40
0.9000397737
 40
1.0
 40
1.0
 40
1.0
 40
1.0
 10
17.5030574128
 20
11.6249124385
 30
0.0
 10
17.5044920251
 20
11.6249124385
 30
0.0
 10
17.5071950395
 20
11.6251419163
 30
0.0
 10
17.5108253599
 20
11.6262767272
 30
0.0
 10
17.5132046543
 20
11.6279195776
 30
0.0
 10
17.5144461032
 20
11.6295552122
 30
0.0
 10
17.5148406881
 20
11.6304442234
 30
0.0
 10
17.5149801193
 20
11.6308960336
 30
0.0
  0
SPLINE
  5
308
100
AcDbEntity
  8
LAYER_FEATURE
100
AcDbSpline
 62
7
  6
CONTINUOUS
 70
0
 71
3
 72
11
 73
7
 74
0
 42
0.0000001
 43
0.0000001
 44
0.0000000001
 40
0.0
 40
0.0
 40
0.0
 40
0.0
 40
0.2309498651
 40
0.4854364262
 40
0.7475995648
 40
1.0
 40
1.0
 40
1.0
 40
1.0
 10
17.2545696942
 20
11.6329211168
 30
0.0
 10
17.2557422737
 20
11.6316894459
 30
0.0
 10
17.2585752916
 20
11.6294460391
 30
0.0
 10
17.2635145591
 20
11.6269511164
 30
0.0
 10
17.2689691889
 20
11.6253274006
 30
0.0
 10
17.2727641238
 20
11.6249124385
 30
0.0
 10
17.274622648
 20
11.6249124385
 30
0.0
  0
SPLINE
  5
309
100
AcDbEntity
  8
LAYER_FEATURE
100
AcDbSpline
 62
7
  6
CONTINUOUS
 70
0
 71
3
 72
12
 73
8
 74
0
 42
0.0000001
 43
0.0000001
 44
0.0000000001
 40
0.0
 40
0.0
 40
0.0
 40
0.0
 40
0.3032854646
 40
0.5691573254
 40
0.7966003169
 40
0.9000397737
 40
1.0
 40
1.0
 40
1.0
 40
1.0
 10
17.0425269158
 20
11.6249124385
 30
0.0
 10
17.0439615281
 20
11.6249124385
 30
0.0
 10
17.0466645425
 20
11.6251419163
 30
0.0
 10
17.0502948629
 20
11.6262767272
 30
0.0
 10
17.0526741573
 20
11.6279195776
 30
0.0
 10
17.0539156062
 20
11.6295552122
 30
0.0
 10
17.0543101911
 20
11.6304442234
 30
0.0
 10
17.0544496223
 20
11.6308960336
 30
0.0
  0
SPLINE
  5
30A
100
AcDbEntity
  8
LAYER_FEATURE
100
AcDbSpline
 62
7
  6
CONTINUOUS
 70
0
 71
3
 72
11
 73
7
 74
0
 42
0.0000001
 43
0.0000001
 44
0.0000000001
 40
0.0
 40
0.0
 40
0.0
 40
0.0
 40
0.2309498651
 40
0.4854364262
 40
0.7475995648
 40
1.0
 40
1.0
 40
1.0
 40
1.0
 10
16.7940391972
 20
11.6329211168
 30
0.0
 10
16.7952117767
 20
11.6316894459
 30
0.0
 10
16.7980447946
 20
11.6294460391
 30
0.0
 10
16.8029840621
 20
11.6269511164
 30
0.0
 10
16.8084386919
 20
11.6253274006
 30
0.0
 10
16.8122336268
 20
11.6249124385
 30
0.0
 10
16.814092151
 20
11.6249124385
 30
0.0
  0
SPLINE
  5
30B
100
AcDbEntity
  8
LAYER_FEATURE
100
AcDbSpline
 62
7
  6
CONTINUOUS
 70
0
 71
3
 72
12
 73
8
 74
0
 42
0.0000001
 43
0.0000001
 44
0.0000000001
 40
0.0
 40
0.0
 40
0.0
 40
0.0
 40
0.3032854646
 40
0.5691573254
 40
0.7966003169
 40
0.9000397737
 40
1.0
 40
1.0
 40
1.0
 40
1.0
 10
16.5819964188
 20
11.6249124385
 30
0.0
 10
16.5834310311
 20
11.6249124385
 30
0.0
 10
16.5861340455
 20
11.6251419163
 30
0.0
 10
16.5897643659
 20
11.6262767272
 30
0.0
 10
16.5921436602
 20
11.6279195776
 30
0.0
 10
16.5933851092
 20
11.6295552122
 30
0.0
 10
16.5937796941
 20
11.6304442234
 30
0.0
 10
16.5939191253
 20
11.6308960336
 30
0.0
  0
SPLINE
  5
30C
100
AcDbEntity
  8
LAYER_FEATURE
100
AcDbSpline
 62
7
  6
CONTINUOUS
 70
0
 71
3
 72
11
 73
7
 74
0
 42
0.0000001
 43
0.0000001
 44
0.0000000001
 40
0.0
 40
0.0
 40
0.0
 40
0.0
 40
0.2309498651
 40
0.4854364262
 40
0.7475995648
 40
1.0
 40
1.0
 40
1.0
 40
1.0
 10
16.3335087002
 20
11.6329211168
 30
0.0
 10
16.3346812797
 20
11.6316894459
 30
0.0
 10
16.3375142976
 20
11.6294460391
 30
0.0
 10
16.3424535651
 20
11.6269511164
 30
0.0
 10
16.3479081949
 20
11.6253274006
 30
0.0
 10
16.3517031298
 20
11.6249124385
 30
0.0
 10
16.353561654
 20
11.6249124385
 30
0.0
  0
SPLINE
  5
30D
100
AcDbEntity
  8
LAYER_FEATURE
100
AcDbSpline
 62
7
  6
CONTINUOUS
 70
0
 71
3
 72
12
 73
8
 74
0
 42
0.0000001
 43
0.0000001
 44
0.0000000001
 40
0.0
 40
0.0
 40
0.0
 40
0.0
 40
0.3032854646
 40
0.5691573254
 40
0.7966003169
 40
0.9000397737
 40
1.0
 40
1.0
 40
1.0
 40
1.0
 10
16.1214659218
 20
11.6249124385
 30
0.0
 10
16.1229005341
 20
11.6249124385
 30
0.0
 10
16.1256035485
 20
11.6251419163
 30
0.0
 10
16.1292338689
 20
11.6262767272
 30
0.0
 10
16.1316131632
 20
11.6279195776
 30
0.0
 10
16.1328546122
 20
11.6295552122
 30
0.0
 10
16.1332491971
 20
11.6304442234
 30
0.0
 10
16.1333886283
 20
11.6308960336
 30
0.0
  0
SPLINE
  5
30E
100
AcDbEntity
  8
LAYER_FEATURE
100
AcDbSpline
 62
7
  6
CONTINUOUS
 70
0
 71
3
 72
11
 73
7
 74
0
 42
0.0000001
 43
0.0000001
 44
0.0000000001
 40
0.0
 40
0.0
 40
0.0
 40
0.0
 40
0.2309498651
 40
0.4854364262
 40
0.7475995648
 40
1.0
 40
1.0
 40
1.0
 40
1.0
 10
15.8729782032
 20
11.6329211168
 30
0.0
 10
15.8741507827
 20
11.6316894459
 30
0.0
 10
15.8769838006
 20
11.6294460391
 30
0.0
 10
15.8819230681
 20
11.6269511164
 30
0.0
 10
15.8873776979
 20
11.6253274006
 30
0.0
 10
15.8911726328
 20
11.6249124385
 30
0.0
 10
15.893031157
 20
11.6249124385
 30
0.0
  0
SPLINE
  5
30F
100
AcDbEntity
  8
LAYER_FEATURE
100
AcDbSpline
 62
7
  6
CONTINUOUS
 70
0
 71
3
 72
12
 73
8
 74
0
 42
0.0000001
 43
0.0000001
 44
0.0000000001
 40
0.0
 40
0.0
 40
0.0
 40
0.0
 40
0.3032854646
 40
0.5691573254
 40
0.7966003169
 40
0.9000397737
 40
1.0
 40
1.0
 40
1.0
 40
1.0
 10
15.6609354248
 20
11.6249124385
 30
0.0
 10
15.6623700371
 20
11.6249124385
 30
0.0
 10
15.6650730515
 20
11.6251419163
 30
0.0
 10
15.6687033719
 20
11.6262767272
 30
0.0
 10
15.6710826662
 20
11.6279195776
 30
0.0
 10
15.6723241152
 20
11.6295552122
 30
0.0
 10
15.6727187001
 20
11.6304442234
 30
0.0
 10
15.6728581313
 20
11.6308960336
 30
0.0
  0
SPLINE
  5
310
100
AcDbEntity
  8
LAYER_FEATURE
100
AcDbSpline
 62
7
  6
CONTINUOUS
 70
0
 71
3
 72
11
 73
7
 74
0
 42
0.0000001
 43
0.0000001
 44
0.0000000001
 40
0.0
 40
0.0
 40
0.0
 40
0.0
 40
0.2309498651
 40
0.4854364262
 40
0.7475995648
 40
1.0
 40
1.0
 40
1.0
 40
1.0
 10
15.4124477062
 20
11.6329211168
 30
0.0
 10
15.4136202857
 20
11.6316894459
 30
0.0
 10
15.4164533036
 20
11.6294460391
 30
0.0
 10
15.4213925711
 20
11.6269511164
 30
0.0
 10
15.4268472009
 20
11.6253274006
 30
0.0
 10
15.4306421358
 20
11.6249124385
 30
0.0
 10
15.43250066
 20
11.6249124385
 30
0.0
  0
SPLINE
  5
311
100
AcDbEntity
  8
LAYER_FEATURE
100
AcDbSpline
 62
7
  6
CONTINUOUS
 70
0
 71
3
 72
12
 73
8
 74
0
 42
0.0000001
 43
0.0000001
 44
0.0000000001
 40
0.0
 40
0.0
 40
0.0
 40
0.0
 40
0.3032854646
 40
0.5691573254
 40
0.7966003169
 40
0.9000397737
 40
1.0
 40
1.0
 40
1.0
 40
1.0
 10
15.2004049278
 20
11.6249124385
 30
0.0
 10
15.2018395401
 20
11.6249124385
 30
0.0
 10
15.2045425545
 20
11.6251419163
 30
0.0
 10
15.2081728749
 20
11.6262767272
 30
0.0
 10
15.2105521692
 20
11.6279195776
 30
0.0
 10
15.2117936182
 20
11.6295552122
 30
0.0
 10
15.2121882031
 20
11.6304442234
 30
0.0
 10
15.2123276343
 20
11.6308960336
 30
0.0
  0
SPLINE
  5
312
100
AcDbEntity
  8
LAYER_FEATURE
100
AcDbSpline
 62
7
  6
CONTINUOUS
 70
0
 71
3
 72
11
 73
7
 74
0
 42
0.0000001
 43
0.0000001
 44
0.0000000001
 40
0.0
 40
0.0
 40
0.0
 40
0.0
 40
0.2309498651
 40
0.4854364262
 40
0.7475995648
 40
1.0
 40
1.0
 40
1.0
 40
1.0
 10
14.9519172092
 20
11.6329211168
 30
0.0
 10
14.9530897887
 20
11.6316894459
 30
0.0
 10
14.9559228066
 20
11.6294460391
 30
0.0
 10
14.9608620741
 20
11.6269511164
 30
0.0
 10
14.9663167039
 20
11.6253274006
 30
0.0
 10
14.9701116388
 20
11.6249124385
 30
0.0
 10
14.971970163
 20
11.6249124385
 30
0.0
  0
SPLINE
  5
313
100
AcDbEntity
  8
LAYER_FEATURE
100
AcDbSpline
 62
7
  6
CONTINUOUS
 70
0
 71
3
 72
12
 73
8
 74
0
 42
0.0000001
 43
0.0000001
 44
0.0000000001
 40
0.0
 40
0.0
 40
0.0
 40
0.0
 40
0.3032854646
 40
0.5691573254
 40
0.7966003169
 40
0.9000397737
 40
1.0
 40
1.0
 40
1.0
 40
1.0
 10
14.7398744308
 20
11.6249124385
 30
0.0
 10
14.7413090431
 20
11.6249124385
 30
0.0
 10
14.7440120575
 20
11.6251419163
 30
0.0
 10
14.7476423779
 20
11.6262767272
 30
0.0
 10
14.7500216722
 20
11.6279195776
 30
0.0
 10
14.7512631212
 20
11.6295552122
 30
0.0
 10
14.7516577061
 20
11.6304442234
 30
0.0
 10
14.7517971373
 20
11.6308960336
 30
0.0
  0
SPLINE
  5
314
100
AcDbEntity
  8
LAYER_FEATURE
100
AcDbSpline
 62
7
  6
CONTINUOUS
 70
0
 71
3
 72
11
 73
7
 74
0
 42
0.0000001
 43
0.0000001
 44
0.0000000001
 40
0.0
 40
0.0
 40
0.0
 40
0.0
 40
0.2309498651
 40
0.4854364262
 40
0.7475995648
 40
1.0
 40
1.0
 40
1.0
 40
1.0
 10
14.4913867122
 20
11.6329211168
 30
0.0
 10
14.4925592917
 20
11.6316894459
 30
0.0
 10
14.4953923096
 20
11.6294460391
 30
0.0
 10
14.5003315771
 20
11.6269511164
 30
0.0
 10
14.5057862069
 20
11.6253274006
 30
0.0
 10
14.5095811418
 20
11.6249124385
 30
0.0
 10
14.511439666
 20
11.6249124385
 30
0.0
  0
SPLINE
  5
315
100
AcDbEntity
  8
LAYER_FEATURE
100
AcDbSpline
 62
7
  6
CONTINUOUS
 70
0
 71
3
 72
12
 73
8
 74
0
 42
0.0000001
 43
0.0000001
 44
0.0000000001
 40
0.0
 40
0.0
 40
0.0
 40
0.0
 40
0.3032854646
 40
0.5691573254
 40
0.7966003169
 40
0.9000397737
 40
1.0
 40
1.0
 40
1.0
 40
1.0
 10
14.2793439338
 20
11.6249124385
 30
0.0
 10
14.2807785461
 20
11.6249124385
 30
0.0
 10
14.2834815605
 20
11.6251419163
 30
0.0
 10
14.2871118809
 20
11.6262767272
 30
0.0
 10
14.2894911752
 20
11.6279195776
 30
0.0
 10
14.2907326242
 20
11.6295552122
 30
0.0
 10
14.2911272091
 20
11.6304442234
 30
0.0
 10
14.2912666403
 20
11.6308960336
 30
0.0
  0
SPLINE
  5
316
100
AcDbEntity
  8
LAYER_FEATURE
100
AcDbSpline
 62
7
  6
CONTINUOUS
 70
0
 71
3
 72
11
 73
7
 74
0
 42
0.0000001
 43
0.0000001
 44
0.0000000001
 40
0.0
 40
0.0
 40
0.0
 40
0.0
 40
0.2309498651
 40
0.4854364262
 40
0.7475995648
 40
1.0
 40
1.0
 40
1.0
 40
1.0
 10
14.0308562152
 20
11.6329211168
 30
0.0
 10
14.0320287947
 20
11.6316894459
 30
0.0
 10
14.0348618126
 20
11.6294460391
 30
0.0
 10
14.0398010801
 20
11.6269511164
 30
0.0
 10
14.0452557099
 20
11.6253274006
 30
0.0
 10
14.0490506448
 20
11.6249124385
 30
0.0
 10
14.050909169
 20
11.6249124385
 30
0.0
  0
SPLINE
  5
317
100
AcDbEntity
  8
LAYER_FEATURE
100
AcDbSpline
 62
7
  6
CONTINUOUS
 70
0
 71
3
 72
12
 73
8
 74
0
 42
0.0000001
 43
0.0000001
 44
0.0000000001
 40
0.0
 40
0.0
 40
0.0
 40
0.0
 40
0.3032854646
 40
0.5691573254
 40
0.7966003169
 40
0.9000397737
 40
1.0
 40
1.0
 40
1.0
 40
1.0
 10
13.8188134368
 20
11.6249124385
 30
0.0
 10
13.8202480491
 20
11.6249124385
 30
0.0
 10
13.8229510635
 20
11.6251419163
 30
0.0
 10
13.8265813839
 20
11.6262767272
 30
0.0
 10
13.8289606782
 20
11.6279195776
 30
0.0
 10
13.8302021272
 20
11.6295552122
 30
0.0
 10
13.8305967121
 20
11.6304442234
 30
0.0
 10
13.8307361433
 20
11.6308960336
 30
0.0
  0
SPLINE
  5
318
100
AcDbEntity
  8
LAYER_FEATURE
100
AcDbSpline
 62
7
  6
CONTINUOUS
 70
0
 71
3
 72
11
 73
7
 74
0
 42
0.0000001
 43
0.0000001
 44
0.0000000001
 40
0.0
 40
0.0
 40
0.0
 40
0.0
 40
0.2309498651
 40
0.4854364262
 40
0.7475995648
 40
1.0
 40
1.0
 40
1.0
 40
1.0
 10
13.5703257182
 20
11.6329211168
 30
0.0
 10
13.5714982977
 20
11.6316894459
 30
0.0
 10
13.5743313156
 20
11.6294460391
 30
0.0
 10
13.5792705831
 20
11.6269511164
 30
0.0
 10
13.5847252129
 20
11.6253274006
 30
0.0
 10
13.5885201478
 20
11.6249124385
 30
0.0
 10
13.590378672
 20
11.6249124385
 30
0.0
  0
SPLINE
  5
319
100
AcDbEntity
  8
LAYER_FEATURE
100
AcDbSpline
 62
7
  6
CONTINUOUS
 70
0
 71
3
 72
12
 73
8
 74
0
 42
0.0000001
 43
0.0000001
 44
0.0000000001
 40
0.0
 40
0.0
 40
0.0
 40
0.0
 40
0.3032854646
 40
0.5691573254
 40
0.7966003169
 40
0.9000397737
 40
1.0
 40
1.0
 40
1.0
 40
1.0
 10
13.3582829398
 20
11.6249124385
 30
0.0
 10
13.3597175521
 20
11.6249124385
 30
0.0
 10
13.3624205665
 20
11.6251419163
 30
0.0
 10
13.3660508869
 20
11.6262767272
 30
0.0
 10
13.3684301812
 20
11.6279195776
 30
0.0
 10
13.3696716302
 20
11.6295552122
 30
0.0
 10
13.3700662151
 20
11.6304442234
 30
0.0
 10
13.3702056463
 20
11.6308960336
 30
0.0
  0
SPLINE
  5
31A
100
AcDbEntity
  8
LAYER_FEATURE
100
AcDbSpline
 62
7
  6
CONTINUOUS
 70
0
 71
3
 72
11
 73
7
 74
0
 42
0.0000001
 43
0.0000001
 44
0.0000000001
 40
0.0
 40
0.0
 40
0.0
 40
0.0
 40
0.2309498651
 40
0.4854364262
 40
0.7475995648
 40
1.0
 40
1.0
 40
1.0
 40
1.0
 10
13.1097952212
 20
11.6329211168
 30
0.0
 10
13.1109678007
 20
11.6316894459
 30
0.0
 10
13.1138008186
 20
11.6294460391
 30
0.0
 10
13.1187400861
 20
11.6269511164
 30
0.0
 10
13.1241947159
 20
11.6253274006
 30
0.0
 10
13.1279896508
 20
11.6249124385
 30
0.0
 10
13.129848175
 20
11.6249124385
 30
0.0
  0
SPLINE
  5
31B
100
AcDbEntity
  8
0
100
AcDbSpline
 62
7
  6
CONTINUOUS
 70
0
 71
3
 72
12
 73
8
 74
0
 42
0.0000001
 43
0.0000001
 44
0.0000000001
 40
0.0
 40
0.0
 40
0.0
 40
0.0
 40
0.3032854646
 40
0.5691573254
 40
0.7966003169
 40
0.9000397737
 40
1.0
 40
1.0
 40
1.0
 40
1.0
 10
12.8977524428
 20
11.6249124385
 30
0.0
 10
12.8991870551
 20
11.6249124385
 30
0.0
 10
12.9018900695
 20
11.6251419163
 30
0.0
 10
12.9055203899
 20
11.6262767272
 30
0.0
 10
12.9078996842
 20
11.6279195776
 30
0.0
 10
12.9091411332
 20
11.6295552122
 30
0.0
 10
12.9095357181
 20
11.6304442234
 30
0.0
 10
12.9096751492
 20
11.6308960336
 30
0.0
  0
SPLINE
  5
31C
100
AcDbEntity
  8
0
100
AcDbSpline
 62
7
  6
CONTINUOUS
 70
0
 71
3
 72
11
 73
7
 74
0
 42
0.0000001
 43
0.0000001
 44
0.0000000001
 40
0.0
 40
0.0
 40
0.0
 40
0.0
 40
0.2309498651
 40
0.4854364262
 40
0.7475995648
 40
1.0
 40
1.0
 40
1.0
 40
1.0
 10
12.6492647242
 20
11.6329211168
 30
0.0
 10
12.6504373037
 20
11.6316894459
 30
0.0
 10
12.6532703215
 20
11.6294460391
 30
0.0
 10
12.6582095891
 20
11.6269511164
 30
0.0
 10
12.6636642189
 20
11.6253274006
 30
0.0
 10
12.6674591538
 20
11.6249124385
 30
0.0
 10
12.669317678
 20
11.6249124385
 30
0.0
  0
SPLINE
  5
31D
100
AcDbEntity
  8
0
100
AcDbSpline
 62
7
  6
CONTINUOUS
 70
0
 71
3
 72
11
 73
7
 74
0
 42
0.0000001
 43
0.0000001
 44
0.0000000001
 40
0.0
 40
0.0
 40
0.0
 40
0.0
 40
0.3026134201
 40
0.5698765566
 40
0.7977404036
 40
1.0
 40
1.0
 40
1.0
 40
1.0
 10
12.4871457832
 20
11.830043728
 30
0.0
 10
12.4865609729
 20
11.830043728
 30
0.0
 10
12.4854561326
 20
11.8299463412
 30
0.0
 10
12.4839685639
 20
11.829485552
 30
0.0
 10
12.4828337811
 20
11.8287087257
 30
0.0
 10
12.4823821145
 20
11.8279698345
 30
0.0
 10
12.4822685063
 20
11.8275958358
 30
0.0
  0
SPLINE
  5
31E
100
AcDbEntity
  8
0
100
AcDbSpline
 62
7
  6
CONTINUOUS
 70
0
 71
3
 72
11
 73
7
 74
0
 42
0.0000001
 43
0.0000001
 44
0.0000000001
 40
0.0
 40
0.0
 40
0.0
 40
0.0
 40
0.2113316853
 40
0.4633552044
 40
0.7355555478
 40
1.0
 40
1.0
 40
1.0
 40
1.0
 10
17.9536279441
 20
11.8253816533
 30
0.0
 10
17.9532950143
 20
11.8260600928
 30
0.0
 10
17.9521901833
 20
11.8273571736
 30
0.0
 10
17.9499709222
 20
11.8288081865
 30
0.0
 10
17.9472999706
 20
11.829781346
 30
0.0
 10
17.9453778314
 20
11.830043728
 30
0.0
 10
17.9444321726
 20
11.830043728
 30
0.0
  0
ENDSEC
  0
SECTION
  2
OBJECTS
  0
DICTIONARY
  5
C
100
AcDbDictionary
280
0
281
1
  3
ACAD_GROUP
350
D
  3
ACAD_MLINESTYLE
350
17
  3
ACAD_LAYOUT
350
1A
  3
ACAD_PLOTSETTINGS
350
19
  3
ACAD_PLOTSTYLENAME
350
E
  0
DICTIONARY
  5
D
102
{ACAD_REACTORS
330
C
102
}
100
AcDbDictionary
280
0
281
1
  0
ACDBDICTIONARYWDFLT
  5
E
102
{ACAD_REACTORS
330
C
102
}
100
AcDbDictionary
281
1
  3
Normal
350
F
100
AcDbDictionaryWithDefault
340
F
  0
DICTIONARY
  5
17
102
{ACAD_REACTORS
330
C
102
}
100
AcDbDictionary
280
0
281
1
  3
Standard
350
18
  0
DICTIONARY
  5
19
102
{ACAD_REACTORS
330
C
102
}
100
AcDbDictionary
281
1
  0
DICTIONARY
  5
1A
102
{ACAD_REACTORS
330
C
102
}
100
AcDbDictionary
281
1
  3
Model
350
31F
  3
Layout1
350
320
  0
ACDBPLACEHOLDER
  5
F
102
{ACAD_REACTORS
330
E
102
}
  0
MLINESTYLE
  5
18
102
{ACAD_REACTORS
330
17
102
}
100
AcDbMlineStyle
  2
STANDARD
 70
0
  3

 62
256
 51
90.0
 52
90.0
 71
2
 49
0.5
 62
256
  6
BYLAYER
 49
-0.5
 62
256
  6
BYLAYER
  0
LAYOUT
  5
31F
102
{ACAD_REACTORS
330
1A
102
}
100
AcDbPlotSettings
  1

  2
none_device
  4
ANSI_C_(22.00_x_17.00_Inches)
  6

 40
0.0
 41
0.0
 42
0.0
 43
0.0
 44
558.8
 45
431.8
 46
0.0
 47
0.0
 48
0.0
 49
0.0
140
0.0
141
0.0
142
1.0
143
1.0
 70
1024
 72
0
 73
0
 74
0
  7

 75
0
147
1.0
148
0.0
149
0.0
100
AcDbLayout
  1
Model
 70
0
 71
0
 10
0.0
 20
0.0
 11
22.0
 21
17.0
 12
0.0
 22
0.0
 32
0.0
 14
0.0
 24
0.0
 34
0.0
 15
0.0
 25
0.0
 35
0.0
146
0.0
 13
0.0
 23
0.0
 33
0.0
 16
1.0
 26
0.0
 36
0.0
 17
0.0
 27
1.0
 37
0.0
 76
0
330
21C
345
0
346
0
  0
LAYOUT
  5
320
102
{ACAD_REACTORS
330
1A
102
}
100
AcDbPlotSettings
  1

  2
none_device
  4
ANSI_C_(22.00_x_17.00_Inches)
  6

 40
0.0
 41
0.0
 42
0.0
 43
0.0
 44
558.8
 45
431.8
 46
0.0
 47
0.0
 48
0.0
 49
0.0
140
0.0
141
0.0
142
1.0
143
1.0
 70
0
 72
0
 73
0
 74
0
  7

 75
0
147
1.0
148
0.0
149
0.0
100
AcDbLayout
  1
Layout1
 70
0
 71
1
 10
0.0
 20
0.0
 11
22.0
 21
17.0
 12
0.0
 22
0.0
 32
0.0
 14
0.0
 24
0.0
 34
0.0
 15
0.0
 25
0.0
 35
0.0
146
0.0
 13
0.0
 23
0.0
 33
0.0
 16
1.0
 26
0.0
 36
0.0
 17
0.0
 27
1.0
 37
0.0
 76
0
330
21D
345
0
346
0
  0
ENDSEC
  0
EOF