999
DXF file: _cgs_temp_output.dxf
999
Pro/ENGINEER 2015110 by Parametric Technology Corporation
  0
SECTION
  2
HEADER
  9
$ACADVER
  1
AC1021
  9
$DWGCODEPAGE
  3
ANSI_1252
  9
$EXTMAX
 10
22.0
 20
17.0
 30
0.0
  9
$EXTMIN
 10
0.0
 20
0.0
 30
0.0
  9
$LIMMIN
 10
0.0
 20
0.0
  9
$LIMMAX
 10
22.0
 20
17.0
  9
$VIEWCTR
 10
11.0
 20
8.5
  9
$VIEWSIZE
 40
17.0
  9
$CLAYER
  8
0
  9
$LTSCALE
 40
1.21
  9
$CELTYPE
  6
BYLAYER
  9
$DIMSCALE
 40
1.0
  9
$DIMASZ
 40
0.1875
  9
$DIMEXO
 40
0.0625
  9
$DIMDLI
 40
0.836
  9
$DIMEXE
 40
0.125
  9
$DIMCEN
 40
0.198
  9
$DIMLFAC
 40
1.0
  9
$DIMBLK
  1
_CLOSED
  9
$DIMALT
 70
0
  9
$DIMALTF
 40
25.4
  9
$DIMTXT
 40
0.15625
  9
$DIMTOL
 70
0
  9
$DIMLIM
 70
0
  9
$DIMTFAC
 40
1.0
  9
$DIMGAP
 40
0.09
  9
$DIMDSEP
 70
46
  9
$AUNITS
 70
0
  9
$PDMODE
 70
3
  9
$PDSIZE
 40
0.3125
  9
$HANDSEED
  5
296
  9
$TILEMODE
 70
1
  9
$MEASUREMENT
 70
0
  9
$INSUNITS
 70
1
  0
ENDSEC
  0
SECTION
  2
CLASSES
  0
CLASS
  1
ACDBDICTIONARYWDFLT
  2
AcDbDictionaryWithDefault
  3
AutoCAD 2000
 90
0
 91
1
280
0
281
0
  0
CLASS
  1
ACDBPLACEHOLDER
  2
AcDbPlaceHolder
  3
AutoCAD 2000
 90
0
 91
1
280
0
281
0
  0
CLASS
  1
LAYOUT
  2
AcDbLayout
  3
AutoCAD 2000
 90
0
 91
0
280
0
281
0
  0
ENDSEC
  0
SECTION
  2
TABLES
  0
TABLE
  2
VPORT
  5
8
100
AcDbSymbolTable
 70
2
  0
VPORT
  5
1F4
100
AcDbSymbolTableRecord
100
AcDbViewportTableRecord
  2
*ACTIVE
 70
0
 10
0.0
 20
0.0
 11
1.0
 21
1.0
 12
11.0
 22
8.5
 13
0.0
 23
0.0
 14
1.0
 24
1.0
 15
0.0
 25
0.0
 16
0.0
 26
0.0
 36
1.0
 17
0.0
 27
0.0
 37
0.0
 40
17.0
 41
1.2941176471
 42
50.0
 43
0.0
 44
0.0
 50
0.0
 51
0.0
 71
0
 72
100
 73
1
 74
1
 75
0
 76
0
 77
0
 78
0
  0
ENDTAB
  0
TABLE
  2
LTYPE
  5
5
100
AcDbSymbolTable
 70
6
  0
LTYPE
  5
14
100
AcDbSymbolTableRecord
100
AcDbLinetypeTableRecord
  2
BYBLOCK
 70
0
  3

 72
65
 73
0
 40
0.0
  0
LTYPE
  5
15
100
AcDbSymbolTableRecord
100
AcDbLinetypeTableRecord
  2
BYLAYER
 70
0
  3

 72
65
 73
0
 40
0.0
  0
LTYPE
  5
16
100
AcDbSymbolTableRecord
100
AcDbLinetypeTableRecord
  2
CONTINUOUS
 70
64
  3
Solid line
 72
65
 73
0
 40
0.0
  0
LTYPE
  5
1F5
100
AcDbSymbolTableRecord
100
AcDbLinetypeTableRecord
  2
CENTER
 70
64
  3
____ _ ____ _ ____ _ ____ _ ____ _ ____ _ ____
 72
65
 73
4
 40
0.6
 49
0.375
 74
0
 49
-0.075
 74
0
 49
0.075
 74
0
 49
-0.075
 74
0
  0
LTYPE
  5
1F6
100
AcDbSymbolTableRecord
100
AcDbLinetypeTableRecord
  2
HIDDEN
 70
64
  3
- - - - - - - - - - - - - - - - - - - -
 72
65
 73
2
 40
0.2
 49
0.1
 74
0
 49
-0.1
 74
0
  0
LTYPE
  5
1F7
100
AcDbSymbolTableRecord
100
AcDbLinetypeTableRecord
  2
PHANTOM
 70
64
  3
_____ _ _ _____ _ _ _____ _ _ _____
 72
65
 73
6
 40
0.8
 49
0.45
 74
0
 49
-0.05
 74
0
 49
0.1
 74
0
 49
-0.05
 74
0
 49
0.1
 74
0
 49
-0.05
 74
0
  0
LTYPE
  5
1F8
100
AcDbSymbolTableRecord
100
AcDbLinetypeTableRecord
  2
DOT
 70
64
  3
. . . . . . . . . . . . . . . . . . . .
 72
65
 73
2
 40
0.2
 49
0.1
 74
0
 49
-0.1
 74
0
  0
LTYPE
  5
1F9
100
AcDbSymbolTableRecord
100
AcDbLinetypeTableRecord
  2
DASHED
 70
64
  3
- - - - - - - - - - - - - - - - - - - -
 72
65
 73
2
 40
0.2
 49
0.1
 74
0
 49
-0.1
 74
0
  0
ENDTAB
  0
TABLE
  2
LAYER
  5
2
100
AcDbSymbolTable
 70
36
  0
LAYER
  5
10
100
AcDbSymbolTableRecord
100
AcDbLayerTableRecord
  2
0
 70
0
 62
7
  6
CONTINUOUS
370
-3
390
F
  0
LAYER
  5
1FA
100
AcDbSymbolTableRecord
100
AcDbLayerTableRecord
  2
DEFAULT_1
 70
0
 62
7
  6
CENTER
370
-3
390
F
  0
LAYER
  5
1FB
100
AcDbSymbolTableRecord
100
AcDbLayerTableRecord
  2
DEFAULT_2
 70
0
 62
8
  6
HIDDEN
370
-3
390
F
  0
LAYER
  5
1FC
100
AcDbSymbolTableRecord
100
AcDbLayerTableRecord
  2
DEFAULT_3
 70
0
 62
7
  6
PHANTOM
370
-3
390
F
  0
LAYER
  5
1FD
100
AcDbSymbolTableRecord
100
AcDbLayerTableRecord
  2
01_ALL_DTM_PLN
 70
0
 62
7
  6
CONTINUOUS
370
-3
390
F
  0
LAYER
  5
1FE
100
AcDbSymbolTableRecord
100
AcDbLayerTableRecord
  2
01__ASM_ALL_DTM_PLN
 70
0
 62
7
  6
CONTINUOUS
370
-3
390
F
  0
LAYER
  5
1FF
100
AcDbSymbolTableRecord
100
AcDbLayerTableRecord
  2
01__ASM_DEF_DTM_PLN
 70
0
 62
7
  6
CONTINUOUS
370
-3
390
F
  0
LAYER
  5
200
100
AcDbSymbolTableRecord
100
AcDbLayerTableRecord
  2
01___PRT_ALL_DTM_PLN
 70
0
 62
7
  6
CONTINUOUS
370
-3
390
F
  0
LAYER
  5
201
100
AcDbSymbolTableRecord
100
AcDbLayerTableRecord
  2
01___PRT_DEF_DTM_PLN
 70
0
 62
7
  6
CONTINUOUS
370
-3
390
F
  0
LAYER
  5
202
100
AcDbSymbolTableRecord
100
AcDbLayerTableRecord
  2
02_ALL_AXES
 70
0
 62
7
  6
CONTINUOUS
370
-3
390
F
  0
LAYER
  5
203
100
AcDbSymbolTableRecord
100
AcDbLayerTableRecord
  2
02__ASM_ALL_AXES
 70
0
 62
7
  6
CONTINUOUS
370
-3
390
F
  0
LAYER
  5
204
100
AcDbSymbolTableRecord
100
AcDbLayerTableRecord
  2
02___PRT_ALL_AXES
 70
0
 62
7
  6
CONTINUOUS
370
-3
390
F
  0
LAYER
  5
205
100
AcDbSymbolTableRecord
100
AcDbLayerTableRecord
  2
03_ALL_CURVES
 70
0
 62
7
  6
CONTINUOUS
370
-3
390
F
  0
LAYER
  5
206
100
AcDbSymbolTableRecord
100
AcDbLayerTableRecord
  2
03__ASM_ALL_CURVES
 70
0
 62
7
  6
CONTINUOUS
370
-3
390
F
  0
LAYER
  5
207
100
AcDbSymbolTableRecord
100
AcDbLayerTableRecord
  2
03___PRT_ALL_CURVES
 70
0
 62
7
  6
CONTINUOUS
370
-3
390
F
  0
LAYER
  5
208
100
AcDbSymbolTableRecord
100
AcDbLayerTableRecord
  2
04_ALL_DTM_PNT
 70
0
 62
7
  6
CONTINUOUS
370
-3
390
F
  0
LAYER
  5
209
100
AcDbSymbolTableRecord
100
AcDbLayerTableRecord
  2
04__ASM_ALL_DTM_PNT
 70
0
 62
7
  6
CONTINUOUS
370
-3
390
F
  0
LAYER
  5
20A
100
AcDbSymbolTableRecord
100
AcDbLayerTableRecord
  2
04___PRT_ALL_DTM_PNT
 70
0
 62
7
  6
CONTINUOUS
370
-3
390
F
  0
LAYER
  5
20B
100
AcDbSymbolTableRecord
100
AcDbLayerTableRecord
  2
05_ALL_DTM_CSYS
 70
0
 62
7
  6
CONTINUOUS
370
-3
390
F
  0
LAYER
  5
20C
100
AcDbSymbolTableRecord
100
AcDbLayerTableRecord
  2
05__ASM_ALL_DTM_CSYS
 70
0
 62
7
  6
CONTINUOUS
370
-3
390
F
  0
LAYER
  5
20D
100
AcDbSymbolTableRecord
100
AcDbLayerTableRecord
  2
05__ASM_DEF_DTM_CSYS
 70
0
 62
7
  6
CONTINUOUS
370
-3
390
F
  0
LAYER
  5
20E
100
AcDbSymbolTableRecord
100
AcDbLayerTableRecord
  2
05___PRT_ALL_DTM_CSYS
 70
0
 62
7
  6
CONTINUOUS
370
-3
390
F
  0
LAYER
  5
20F
100
AcDbSymbolTableRecord
100
AcDbLayerTableRecord
  2
05___PRT_DEF_DTM_CSYS
 70
0
 62
7
  6
CONTINUOUS
370
-3
390
F
  0
LAYER
  5
210
100
AcDbSymbolTableRecord
100
AcDbLayerTableRecord
  2
06_ALL_SURFS
 70
0
 62
7
  6
CONTINUOUS
370
-3
390
F
  0
LAYER
  5
211
100
AcDbSymbolTableRecord
100
AcDbLayerTableRecord
  2
06__ASM_ALL_SURFS
 70
0
 62
7
  6
CONTINUOUS
370
-3
390
F
  0
LAYER
  5
212
100
AcDbSymbolTableRecord
100
AcDbLayerTableRecord
  2
06___PRT_ALL_SURFS
 70
0
 62
7
  6
CONTINUOUS
370
-3
390
F
  0
LAYER
  5
213
100
AcDbSymbolTableRecord
100
AcDbLayerTableRecord
  2
07__ASM_ALL_SKELETONS
 70
0
 62
7
  6
CONTINUOUS
370
-3
390
F
  0
ENDTAB
  0
TABLE
  2
STYLE
  5
3
100
AcDbSymbolTable
 70
1
  0
STYLE
  5
11
100
AcDbSymbolTableRecord
100
AcDbTextStyleTableRecord
  2
STANDARD
 70
0
 40
0.0
 41
0.8
 50
0.0
 71
0
 42
0.2
  3
txt
  4

  0
STYLE
  5
214
100
AcDbSymbolTableRecord
100
AcDbTextStyleTableRecord
  2
TEXTSTYLE_1
 70
0
 40
0.0
 41
0.8
 50
0.0
 71
0
 42
0.2
  3
gdt
  4

  0
ENDTAB
  0
TABLE
  2
VIEW
  5
6
100
AcDbSymbolTable
 70
0
  0
ENDTAB
  0
TABLE
  2
UCS
  5
7
100
AcDbSymbolTable
 70
0
  0
ENDTAB
  0
TABLE
  2
APPID
  5
9
100
AcDbSymbolTable
 70
1
  0
APPID
  5
215
100
AcDbSymbolTableRecord
100
AcDbRegAppTableRecord
  2
ACAD
 70
0
  0
ENDTAB
  0
TABLE
  2
BLOCK_RECORD
  5
1
100
AcDbSymbolTable
 70
0
  0
BLOCK_RECORD
  5
216
100
AcDbSymbolTableRecord
100
AcDbBlockTableRecord
  2
*Model_Space
  0
BLOCK_RECORD
  5
217
100
AcDbSymbolTableRecord
100
AcDbBlockTableRecord
  2
*Paper_Space
  0
ENDTAB
  0
TABLE
  2
DIMSTYLE
  5
A
100
AcDbSymbolTable
 70
1
100
AcDbDimStyleTable
 71
0
  0
DIMSTYLE
105
218
100
AcDbSymbolTableRecord
100
AcDbDimStyleTableRecord
  2
STANDARD
 70
0
  3

  4

 40
1.0
 41
0.1875
 42
0.0625
 43
0.38
 44
0.125
 45
0.0
 46
0.0
 47
0.0001
 48
0.0001
140
0.15625
141
0.09
142
0.0
143
25.4
144
1.0
145
0.0
146
1.0
147
0.09
 71
0.0
 72
0.0
 73
1
 74
1
 75
0
 76
0
 77
0
 78
4
170
0
171
2
172
0
173
0
174
0
175
0
176
0
177
0
178
0
270
2
271
4
272
4
273
2
274
2
275
0
280
0
281
0
282
0
283
1
284
4
285
0
286
0
287
3
288
0
340
11
278
46
  0
ENDTAB
  0
ENDSEC
  0
SECTION
  2
BLOCKS
  0
BLOCK
  5
20
100
AcDbEntity
  8
0
100
AcDbBlockBegin
  2
*Model_Space
 70
0
 10
0.0
 20
0.0
 30
0.0
  3
*Model_Space
  1

  0
ENDBLK
  5
21
100
AcDbEntity
  8
0
100
AcDbBlockEnd
  0
BLOCK
  5
1C
100
AcDbEntity
  8
0
100
AcDbBlockBegin
  2
*Paper_Space
 70
0
 10
0.0
 20
0.0
 30
0.0
  3
*Paper_Space
  1

  0
ENDBLK
  5
1D
100
AcDbEntity
  8
0
100
AcDbBlockEnd
  0
ENDSEC
  0
SECTION
  2
ENTITIES
  0
MTEXT
  5
219
100
AcDbEntity
  8
0
100
AcDbMText
 62
7
  6
CONTINUOUS
  7
STANDARD
 71
1
 72
1
 10
15.9560215477
 20
0.9479130325
 30
0.0
 11
1.0
 21
0.0
 31
0.0
 44
0.9
  1
SCALE: 1:1.000
 40
0.3
 41
3.36
  0
LINE
  5
21A
100
AcDbEntity
  8
0
100
AcDbLine
 62
7
  6
CONTINUOUS
 10
0.0
 20
0.0
 11
0.0
 21
17.0
  0
LINE
  5
21B
100
AcDbEntity
  8
0
100
AcDbLine
 62
7
  6
CONTINUOUS
 10
0.0
 20
0.0
 11
22.0
 21
0.0
  0
LINE
  5
21C
100
AcDbEntity
  8
0
100
AcDbLine
 62
7
  6
CONTINUOUS
 10
0.0
 20
17.0
 11
22.0
 21
17.0
  0
LINE
  5
21D
100
AcDbEntity
  8
0
100
AcDbLine
 62
7
  6
CONTINUOUS
 10
22.0
 20
0.0
 11
22.0
 21
17.0
  0
LINE
  5
21E
100
AcDbEntity
  8
0
100
AcDbLine
 62
7
  6
CONTINUOUS
 10
5.3903672762
 20
5.6451198968
 11
5.3903672762
 21
5.5617865634
  0
LINE
  5
21F
100
AcDbEntity
  8
0
100
AcDbLine
 62
7
  6
CONTINUOUS
 10
5.3903672762
 20
5.5617865634
 11
5.4328562671
 21
5.4086730825
  0
LINE
  5
220
100
AcDbEntity
  8
0
100
AcDbLine
 62
7
  6
CONTINUOUS
 10
5.5328782852
 20
5.4086730825
 11
5.5753672762
 21
5.5617865634
  0
LINE
  5
221
100
AcDbEntity
  8
0
100
AcDbLine
 62
7
  6
CONTINUOUS
 10
5.5753672762
 20
5.5617865634
 11
5.6178562671
 21
5.4086730825
  0
LINE
  5
222
100
AcDbEntity
  8
0
100
AcDbLine
 62
7
  6
CONTINUOUS
 10
5.7178782852
 20
5.4086730825
 11
5.7603672762
 21
5.5617865634
  0
LINE
  5
223
100
AcDbEntity
  8
0
100
AcDbLine
 62
7
  6
CONTINUOUS
 10
5.7603672762
 20
5.5617865634
 11
5.8028562671
 21
5.4086730825
  0
LINE
  5
224
100
AcDbEntity
  8
0
100
AcDbLine
 62
7
  6
CONTINUOUS
 10
5.9028782852
 20
5.4086730825
 11
5.9453672762
 21
5.5617865634
  0
LINE
  5
225
100
AcDbEntity
  8
0
100
AcDbLine
 62
7
  6
CONTINUOUS
 10
5.9453672762
 20
5.5617865634
 11
5.9878562671
 21
5.4086730825
  0
LINE
  5
226
100
AcDbEntity
  8
0
100
AcDbLine
 62
7
  6
CONTINUOUS
 10
5.4506826248
 20
5.3951198968
 11
5.5150519275
 21
5.3951198968
  0
LINE
  5
227
100
AcDbEntity
  8
0
100
AcDbLine
 62
7
  6
CONTINUOUS
 10
5.6356826248
 20
5.3951198968
 11
5.7000519275
 21
5.3951198968
  0
LINE
  5
228
100
AcDbEntity
  8
0
100
AcDbLine
 62
7
  6
CONTINUOUS
 10
5.8206826248
 20
5.3951198968
 11
5.8850519275
 21
5.3951198968
  0
LINE
  5
229
100
AcDbEntity
  8
0
100
AcDbLine
 62
7
  6
CONTINUOUS
 10
6.0056826248
 20
5.3951198968
 11
6.0700519275
 21
5.3951198968
  0
LINE
  5
22A
100
AcDbEntity
  8
0
100
AcDbLine
 62
7
  6
CONTINUOUS
 10
6.1906826248
 20
5.3951198968
 11
6.2550519275
 21
5.3951198968
  0
LINE
  5
22B
100
AcDbEntity
  8
0
100
AcDbLine
 62
7
  6
CONTINUOUS
 10
6.3756826248
 20
5.3951198968
 11
6.4400519275
 21
5.3951198968
  0
LINE
  5
22C
100
AcDbEntity
  8
0
100
AcDbLine
 62
7
  6
CONTINUOUS
 10
6.5606826248
 20
5.3951198968
 11
6.6250519275
 21
5.3951198968
  0
LINE
  5
22D
100
AcDbEntity
  8
0
100
AcDbLine
 62
7
  6
CONTINUOUS
 10
6.7456826248
 20
5.3951198968
 11
6.8100519275
 21
5.3951198968
  0
LINE
  5
22E
100
AcDbEntity
  8
0
100
AcDbLine
 62
7
  6
CONTINUOUS
 10
6.0878782852
 20
5.4086730825
 11
6.1303672762
 21
5.5617865634
  0
LINE
  5
22F
100
AcDbEntity
  8
0
100
AcDbLine
 62
7
  6
CONTINUOUS
 10
6.1303672762
 20
5.5617865634
 11
6.1728562671
 21
5.4086730825
  0
LINE
  5
230
100
AcDbEntity
  8
0
100
AcDbLine
 62
7
  6
CONTINUOUS
 10
6.8703672762
 20
5.6451198968
 11
5.3903672762
 21
5.6451198968
  0
LINE
  5
231
100
AcDbEntity
  8
0
100
AcDbLine
 62
7
  6
CONTINUOUS
 10
6.2728782852
 20
5.4086730825
 11
6.3153672762
 21
5.5617865634
  0
LINE
  5
232
100
AcDbEntity
  8
0
100
AcDbLine
 62
7
  6
CONTINUOUS
 10
6.3153672762
 20
5.5617865634
 11
6.3578562671
 21
5.4086730825
  0
LINE
  5
233
100
AcDbEntity
  8
0
100
AcDbLine
 62
7
  6
CONTINUOUS
 10
6.4578782852
 20
5.4086730825
 11
6.5003672762
 21
5.5617865634
  0
LINE
  5
234
100
AcDbEntity
  8
0
100
AcDbLine
 62
7
  6
CONTINUOUS
 10
6.5003672762
 20
5.5617865634
 11
6.5428562671
 21
5.4086730825
  0
LINE
  5
235
100
AcDbEntity
  8
0
100
AcDbLine
 62
7
  6
CONTINUOUS
 10
6.6428782852
 20
5.4086730825
 11
6.6853672762
 21
5.5617865634
  0
LINE
  5
236
100
AcDbEntity
  8
0
100
AcDbLine
 62
7
  6
CONTINUOUS
 10
6.6853672762
 20
5.5617865634
 11
6.7278562671
 21
5.4086730825
  0
LINE
  5
237
100
AcDbEntity
  8
0
100
AcDbLine
 62
7
  6
CONTINUOUS
 10
6.8703672762
 20
5.5617865634
 11
6.8703672762
 21
5.6451198968
  0
LINE
  5
238
100
AcDbEntity
  8
0
100
AcDbLine
 62
7
  6
CONTINUOUS
 10
6.8278782852
 20
5.4086730825
 11
6.8703672762
 21
5.5617865634
  0
LINE
  5
239
100
AcDbEntity
  8
0
100
AcDbLine
 62
7
  6
CONTINUOUS
 10
6.8108720839
 20
10.6000477814
 11
5.3308720839
 21
10.6000477814
  0
LINE
  5
23A
100
AcDbEntity
  8
0
100
AcDbLine
 62
7
  6
CONTINUOUS
 10
5.3308720839
 20
14.6000477814
 11
5.3308720839
 21
10.6000477814
  0
LINE
  5
23B
100
AcDbEntity
  8
0
100
AcDbLine
 62
7
  6
CONTINUOUS
 10
6.8108720839
 20
14.6000477814
 11
6.8108720839
 21
10.6000477814
  0
LINE
  5
23C
100
AcDbEntity
  8
0
100
AcDbLine
 62
7
  6
CONTINUOUS
 10
5.3308720839
 20
14.6000477814
 11
6.8108720839
 21
14.6000477814
  0
LINE
  5
23D
100
AcDbEntity
  8
0
100
AcDbLine
 62
7
  6
CONTINUOUS
 10
13.5603552569
 20
5.3356247044
 11
13.5603552569
 21
5.5856247044
  0
LINE
  5
23E
100
AcDbEntity
  8
0
100
AcDbLine
 62
7
  6
CONTINUOUS
 10
13.5603552569
 20
5.3356247044
 11
17.5603552569
 21
5.3356247044
  0
LINE
  5
23F
100
AcDbEntity
  8
0
100
AcDbLine
 62
7
  6
CONTINUOUS
 10
17.5603552569
 20
5.5022913711
 11
13.5603552569
 21
5.5022913711
  0
LINE
  5
240
100
AcDbEntity
  8
0
100
AcDbLine
 62
7
  6
CONTINUOUS
 10
17.5603552569
 20
5.5856247044
 11
13.5603552569
 21
5.5856247044
  0
LINE
  5
241
100
AcDbEntity
  8
0
100
AcDbLine
 62
7
  6
CONTINUOUS
 10
17.5603552569
 20
5.3356247044
 11
17.5603552569
 21
5.5856247044
  0
LINE
  5
242
100
AcDbEntity
  8
0
100
AcDbLine
 62
7
  6
CONTINUOUS
 10
14.314319229
 20
10.970051589
 11
14.4001602033
 21
10.874874723
  0
LINE
  5
243
100
AcDbEntity
  8
0
100
AcDbLine
 62
7
  6
CONTINUOUS
 10
14.4847155129
 20
10.970051589
 11
14.5705564871
 21
10.874874723
  0
LINE
  5
244
100
AcDbEntity
  8
0
100
AcDbLine
 62
7
  6
CONTINUOUS
 10
14.4207136551
 20
10.8664499276
 11
14.480001709
 21
10.8664499276
  0
LINE
  5
245
100
AcDbEntity
  8
0
100
AcDbLine
 62
7
  6
CONTINUOUS
 10
14.591109939
 20
10.8664499276
 11
14.6503979929
 21
10.8664499276
  0
LINE
  5
246
100
AcDbEntity
  8
0
100
AcDbLine
 62
7
  6
CONTINUOUS
 10
14.7615062229
 20
10.8664499276
 11
14.8207942768
 21
10.8664499276
  0
LINE
  5
247
100
AcDbEntity
  8
0
100
AcDbLine
 62
7
  6
CONTINUOUS
 10
14.9319025067
 20
10.8664499276
 11
14.9911905607
 21
10.8664499276
  0
LINE
  5
248
100
AcDbEntity
  8
0
100
AcDbLine
 62
7
  6
CONTINUOUS
 10
15.1022987906
 20
10.8664499276
 11
15.1615868446
 21
10.8664499276
  0
LINE
  5
249
100
AcDbEntity
  8
0
100
AcDbLine
 62
7
  6
CONTINUOUS
 10
15.2726950745
 20
10.8664499276
 11
15.3319831284
 21
10.8664499276
  0
LINE
  5
24A
100
AcDbEntity
  8
0
100
AcDbLine
 62
7
  6
CONTINUOUS
 10
15.4430913584
 20
10.8664499276
 11
15.5023794123
 21
10.8664499276
  0
LINE
  5
24B
100
AcDbEntity
  8
0
100
AcDbLine
 62
7
  6
CONTINUOUS
 10
15.6134876423
 20
10.8664499276
 11
15.6727756962
 21
10.8664499276
  0
LINE
  5
24C
100
AcDbEntity
  8
0
100
AcDbLine
 62
7
  6
CONTINUOUS
 10
14.6551117968
 20
10.970051589
 11
14.740952771
 21
10.874874723
  0
LINE
  5
24D
100
AcDbEntity
  8
0
100
AcDbLine
 62
7
  6
CONTINUOUS
 10
14.2888990734
 20
11.0218524197
 11
14.314319229
 21
10.970051589
  0
LINE
  5
24E
100
AcDbEntity
  8
0
100
AcDbLine
 62
7
  6
CONTINUOUS
 10
15.6520693446
 20
11.0218524197
 11
14.2888990734
 21
11.0218524197
  0
LINE
  5
24F
100
AcDbEntity
  8
0
100
AcDbLine
 62
7
  6
CONTINUOUS
 10
14.8255080807
 20
10.970051589
 11
14.9113490549
 21
10.874874723
  0
LINE
  5
250
100
AcDbEntity
  8
0
100
AcDbLine
 62
7
  6
CONTINUOUS
 10
14.9959043645
 20
10.970051589
 11
15.0817453388
 21
10.874874723
  0
LINE
  5
251
100
AcDbEntity
  8
0
100
AcDbLine
 62
7
  6
CONTINUOUS
 10
15.1663006484
 20
10.970051589
 11
15.2521416227
 21
10.874874723
  0
LINE
  5
252
100
AcDbEntity
  8
0
100
AcDbLine
 62
7
  6
CONTINUOUS
 10
14.4922865827
 20
10.874874723
 11
14.4847155129
 21
10.970051589
  0
LINE
  5
253
100
AcDbEntity
  8
0
100
AcDbLine
 62
7
  6
CONTINUOUS
 10
15.3366969323
 20
10.970051589
 11
15.4225379066
 21
10.874874723
  0
LINE
  5
254
100
AcDbEntity
  8
0
100
AcDbLine
 62
7
  6
CONTINUOUS
 10
14.6626828665
 20
10.874874723
 11
14.6551117968
 21
10.970051589
  0
LINE
  5
255
100
AcDbEntity
  8
0
100
AcDbLine
 62
7
  6
CONTINUOUS
 10
15.5070932162
 20
10.970051589
 11
15.5929341905
 21
10.874874723
  0
LINE
  5
256
100
AcDbEntity
  8
0
100
AcDbLine
 62
7
  6
CONTINUOUS
 10
14.4920293827
 20
10.8724889677
 11
14.4922865827
 21
10.874874723
  0
LINE
  5
257
100
AcDbEntity
  8
0
100
AcDbLine
 62
7
  6
CONTINUOUS
 10
14.8330791504
 20
10.874874723
 11
14.8255080807
 21
10.970051589
  0
LINE
  5
258
100
AcDbEntity
  8
0
100
AcDbLine
 62
7
  6
CONTINUOUS
 10
15.2571643671
 20
14.1551600582
 11
14.2888990734
 21
11.0218524197
  0
LINE
  5
259
100
AcDbEntity
  8
0
100
AcDbLine
 62
7
  6
CONTINUOUS
 10
15.0034754343
 20
10.874874723
 11
14.9959043645
 21
10.970051589
  0
LINE
  5
25A
100
AcDbEntity
  8
0
100
AcDbLine
 62
7
  6
CONTINUOUS
 10
14.6624256666
 20
10.8724889677
 11
14.6626828665
 21
10.874874723
  0
LINE
  5
25B
100
AcDbEntity
  8
0
100
AcDbLine
 62
7
  6
CONTINUOUS
 10
15.1738717182
 20
10.874874723
 11
15.1663006484
 21
10.970051589
  0
LINE
  5
25C
100
AcDbEntity
  8
0
100
AcDbLine
 62
7
  6
CONTINUOUS
 10
14.8328219504
 20
10.8724889677
 11
14.8330791504
 21
10.874874723
  0
LINE
  5
25D
100
AcDbEntity
  8
0
100
AcDbLine
 62
7
  6
CONTINUOUS
 10
14.4927291251
 20
10.874737967
 11
14.5126217041
 21
10.9391103765
  0
LINE
  5
25E
100
AcDbEntity
  8
0
100
AcDbLine
 62
7
  6
CONTINUOUS
 10
15.6774895001
 20
10.970051589
 11
15.6520693446
 21
11.0218524197
  0
LINE
  5
25F
100
AcDbEntity
  8
0
100
AcDbLine
 62
7
  6
CONTINUOUS
 10
15.3442680021
 20
10.874874723
 11
15.3366969323
 21
10.970051589
  0
LINE
  5
260
100
AcDbEntity
  8
0
100
AcDbLine
 62
7
  6
CONTINUOUS
 10
15.0032182343
 20
10.8724889677
 11
15.0034754343
 21
10.874874723
  0
LINE
  5
261
100
AcDbEntity
  8
0
100
AcDbLine
 62
7
  6
CONTINUOUS
 10
14.663125409
 20
10.874737967
 11
14.683017988
 21
10.9391103765
  0
LINE
  5
262
100
AcDbEntity
  8
0
100
AcDbLine
 62
7
  6
CONTINUOUS
 10
15.1736145182
 20
10.8724889677
 11
15.1738717182
 21
10.874874723
  0
LINE
  5
263
100
AcDbEntity
  8
0
100
AcDbLine
 62
7
  6
CONTINUOUS
 10
14.8335216929
 20
10.874737967
 11
14.8534142719
 21
10.9391103765
  0
LINE
  5
264
100
AcDbEntity
  8
0
100
AcDbLine
 62
7
  6
CONTINUOUS
 10
15.514664286
 20
10.874874723
 11
15.5070932162
 21
10.970051589
  0
LINE
  5
265
100
AcDbEntity
  8
0
100
AcDbLine
 62
7
  6
CONTINUOUS
 10
15.6850605699
 20
10.874874723
 11
15.6774895001
 21
10.970051589
  0
LINE
  5
266
100
AcDbEntity
  8
0
100
AcDbLine
 62
7
  6
CONTINUOUS
 10
15.3440108021
 20
10.8724889677
 11
15.3442680021
 21
10.874874723
  0
LINE
  5
267
100
AcDbEntity
  8
0
100
AcDbLine
 62
7
  6
CONTINUOUS
 10
15.0039179767
 20
10.874737967
 11
15.0238105558
 21
10.9391103765
  0
LINE
  5
268
100
AcDbEntity
  8
0
100
AcDbLine
 62
7
  6
CONTINUOUS
 10
15.514407086
 20
10.8724889677
 11
15.514664286
 21
10.874874723
  0
LINE
  5
269
100
AcDbEntity
  8
0
100
AcDbLine
 62
7
  6
CONTINUOUS
 10
15.1743142606
 20
10.874737967
 11
15.1942068397
 21
10.9391103765
  0
LINE
  5
26A
100
AcDbEntity
  8
0
100
AcDbLine
 62
7
  6
CONTINUOUS
 10
15.6848033699
 20
10.8724889677
 11
15.6850605699
 21
10.874874723
  0
LINE
  5
26B
100
AcDbEntity
  8
0
100
AcDbLine
 62
7
  6
CONTINUOUS
 10
15.3447105445
 20
10.874737967
 11
15.3646031236
 21
10.9391103765
  0
LINE
  5
26C
100
AcDbEntity
  8
0
100
AcDbLine
 62
7
  6
CONTINUOUS
 10
15.5151068284
 20
10.874737967
 11
15.5349994075
 21
10.9391103765
  0
LINE
  5
26D
100
AcDbEntity
  8
0
100
AcDbLine
 62
7
  6
CONTINUOUS
 10
16.6203346382
 20
14.1551600582
 11
15.6520693446
 21
11.0218524197
  0
LINE
  5
26E
100
AcDbEntity
  8
0
100
AcDbLine
 62
7
  6
CONTINUOUS
 10
16.6457547937
 20
14.1033592275
 11
15.6774895001
 21
10.970051589
  0
LINE
  5
26F
100
AcDbEntity
  8
0
100
AcDbLine
 62
7
  6
CONTINUOUS
 10
15.6855031123
 20
10.874737967
 11
16.6530730009
 21
14.0057952742
  0
LINE
  5
270
100
AcDbEntity
  8
0
100
AcDbLine
 62
7
  6
CONTINUOUS
 10
16.6533258635
 20
14.0081823615
 11
16.6530686635
 21
14.0057966062
  0
LINE
  5
271
100
AcDbEntity
  8
0
100
AcDbLine
 62
7
  6
CONTINUOUS
 10
16.6533258635
 20
14.0081823615
 11
16.6457547937
 21
14.1033592275
  0
LINE
  5
272
100
AcDbEntity
  8
0
100
AcDbLine
 62
7
  6
CONTINUOUS
 10
15.2571643671
 20
14.1551600582
 11
16.6203346382
 21
14.1551600582
  0
LINE
  5
273
100
AcDbEntity
  8
0
100
AcDbLine
 62
7
  6
CONTINUOUS
 10
16.6457547937
 20
14.1033592275
 11
16.6203346382
 21
14.1551600582
  0
ARC
  5
274
100
AcDbEntity
  8
0
100
AcDbCircle
 62
7
  6
CONTINUOUS
 10
5.4506826248
 20
5.4136198968
 40
0.0185
100
AcDbArc
 50
195.5093345227
 51
270.0
  0
ARC
  5
275
100
AcDbEntity
  8
0
100
AcDbCircle
 62
7
  6
CONTINUOUS
 10
5.5150519275
 20
5.4136198968
 40
0.0185
100
AcDbArc
 50
270.0
 51
344.4906654773
  0
ARC
  5
276
100
AcDbEntity
  8
0
100
AcDbCircle
 62
7
  6
CONTINUOUS
 10
5.6356826248
 20
5.4136198968
 40
0.0185
100
AcDbArc
 50
195.5093345227
 51
270.0
  0
ARC
  5
277
100
AcDbEntity
  8
0
100
AcDbCircle
 62
7
  6
CONTINUOUS
 10
5.7000519275
 20
5.4136198968
 40
0.0185
100
AcDbArc
 50
270.0
 51
344.4906654773
  0
ARC
  5
278
100
AcDbEntity
  8
0
100
AcDbCircle
 62
7
  6
CONTINUOUS
 10
5.8206826248
 20
5.4136198968
 40
0.0185
100
AcDbArc
 50
195.5093345227
 51
270.0
  0
ARC
  5
279
100
AcDbEntity
  8
0
100
AcDbCircle
 62
7
  6
CONTINUOUS
 10
5.8850519275
 20
5.4136198968
 40
0.0185
100
AcDbArc
 50
270.0
 51
344.4906654773
  0
ARC
  5
27A
100
AcDbEntity
  8
0
100
AcDbCircle
 62
7
  6
CONTINUOUS
 10
6.0056826248
 20
5.4136198968
 40
0.0185
100
AcDbArc
 50
195.5093345227
 51
270.0
  0
ARC
  5
27B
100
AcDbEntity
  8
0
100
AcDbCircle
 62
7
  6
CONTINUOUS
 10
6.0700519275
 20
5.4136198968
 40
0.0185
100
AcDbArc
 50
270.0
 51
344.4906654773
  0
ARC
  5
27C
100
AcDbEntity
  8
0
100
AcDbCircle
 62
7
  6
CONTINUOUS
 10
6.1906826248
 20
5.4136198968
 40
0.0185
100
AcDbArc
 50
195.5093345227
 51
270.0
  0
ARC
  5
27D
100
AcDbEntity
  8
0
100
AcDbCircle
 62
7
  6
CONTINUOUS
 10
6.2550519275
 20
5.4136198968
 40
0.0185
100
AcDbArc
 50
270.0
 51
344.4906654773
  0
ARC
  5
27E
100
AcDbEntity
  8
0
100
AcDbCircle
 62
7
  6
CONTINUOUS
 10
6.3756826248
 20
5.4136198968
 40
0.0185
100
AcDbArc
 50
195.5093345227
 51
270.0
  0
ARC
  5
27F
100
AcDbEntity
  8
0
100
AcDbCircle
 62
7
  6
CONTINUOUS
 10
6.4400519275
 20
5.4136198968
 40
0.0185
100
AcDbArc
 50
270.0
 51
344.4906654773
  0
ARC
  5
280
100
AcDbEntity
  8
0
100
AcDbCircle
 62
7
  6
CONTINUOUS
 10
6.5606826248
 20
5.4136198968
 40
0.0185
100
AcDbArc
 50
195.5093345227
 51
270.0
  0
ARC
  5
281
100
AcDbEntity
  8
0
100
AcDbCircle
 62
7
  6
CONTINUOUS
 10
6.6250519275
 20
5.4136198968
 40
0.0185
100
AcDbArc
 50
270.0
 51
344.4906654773
  0
ARC
  5
282
100
AcDbEntity
  8
0
100
AcDbCircle
 62
7
  6
CONTINUOUS
 10
6.7456826248
 20
5.4136198968
 40
0.0185
100
AcDbArc
 50
195.5093345227
 51
270.0
  0
ARC
  5
283
100
AcDbEntity
  8
0
100
AcDbCircle
 62
7
  6
CONTINUOUS
 10
6.8100519275
 20
5.4136198968
 40
0.0185
100
AcDbArc
 50
270.0
 51
344.4906654773
  0
SPLINE
  5
284
100
AcDbEntity
  8
0
100
AcDbSpline
 62
7
  6
CONTINUOUS
 70
0
 71
3
 72
14
 73
10
 74
0
 42
0.0000001
 43
0.0000001
 44
0.0000000001
 40
0.0
 40
0.0
 40
0.0
 40
0.0
 40
0.1556378
 40
0.3032769747
 40
0.568826025
 40
0.6871270149
 40
0.7968611207
 40
0.9001579865
 40
1.0
 40
1.0
 40
1.0
 40
1.0
 10
15.6727756962
 20
10.8664499276
 30
0.0
 10
15.6735195482
 20
10.8664499276
 30
0.0
 10
15.6749707381
 20
10.8665149143
 30
0.0
 10
15.6776627526
 20
10.8669032054
 30
0.0
 10
15.6801199542
 20
10.8676757798
 30
0.0
 10
15.6821550115
 20
10.8688883872
 30
0.0
 10
15.6833566749
 20
10.8699349209
 30
0.0
 10
15.684267985
 20
10.8711347904
 30
0.0
 10
15.6846662078
 20
10.8720319073
 30
0.0
 10
15.6848067585
 20
10.8724879214
 30
0.0
  0
SPLINE
  5
285
100
AcDbEntity
  8
0
100
AcDbSpline
 62
7
  6
CONTINUOUS
 70
0
 71
3
 72
15
 73
11
 74
0
 42
0.0000001
 43
0.0000001
 44
0.0000000001
 40
0.0
 40
0.0
 40
0.0
 40
0.0
 40
0.1105349799
 40
0.2292534452
 40
0.3542419032
 40
0.4835313167
 40
0.6150294348
 40
0.7465283975
 40
0.8757261319
 40
1.0
 40
1.0
 40
1.0
 40
1.0
 10
15.5929341905
 20
10.874874723
 30
0.0
 10
15.5934964864
 20
10.8742512729
 30
0.0
 10
15.5947599655
 20
10.8730443436
 30
0.0
 10
15.596918132
 20
10.8714287191
 30
0.0
 10
15.5993613029
 20
10.8699842136
 30
0.0
 10
15.6020217239
 20
10.8687457102
 30
0.0
 10
15.6048332303
 20
10.8677463219
 30
0.0
 10
15.6077240986
 20
10.8670094265
 30
0.0
 10
15.6106174364
 20
10.8665587074
 30
0.0
 10
15.6125437258
 20
10.8664499276
 30
0.0
 10
15.6134876423
 20
10.8664499276
 30
0.0
  0
SPLINE
  5
286
100
AcDbEntity
  8
0
100
AcDbSpline
 62
7
  6
CONTINUOUS
 70
0
 71
3
 72
14
 73
10
 74
0
 42
0.0000001
 43
0.0000001
 44
0.0000000001
 40
0.0
 40
0.0
 40
0.0
 40
0.0
 40
0.1556378
 40
0.3032769747
 40
0.568826025
 40
0.6871270149
 40
0.7968611207
 40
0.9001579865
 40
1.0
 40
1.0
 40
1.0
 40
1.0
 10
15.5023794123
 20
10.8664499276
 30
0.0
 10
15.5031232643
 20
10.8664499276
 30
0.0
 10
15.5045744542
 20
10.8665149143
 30
0.0
 10
15.5072664687
 20
10.8669032054
 30
0.0
 10
15.5097236703
 20
10.8676757798
 30
0.0
 10
15.5117587276
 20
10.8688883872
 30
0.0
 10
15.512960391
 20
10.8699349209
 30
0.0
 10
15.5138717011
 20
10.8711347904
 30
0.0
 10
15.5142699239
 20
10.8720319073
 30
0.0
 10
15.5144104746
 20
10.8724879214
 30
0.0
  0
SPLINE
  5
287
100
AcDbEntity
  8
0
100
AcDbSpline
 62
7
  6
CONTINUOUS
 70
0
 71
3
 72
15
 73
11
 74
0
 42
0.0000001
 43
0.0000001
 44
0.0000000001
 40
0.0
 40
0.0
 40
0.0
 40
0.0
 40
0.1105349799
 40
0.2292534452
 40
0.3542419032
 40
0.4835313167
 40
0.6150294348
 40
0.7465283975
 40
0.8757261319
 40
1.0
 40
1.0
 40
1.0
 40
1.0
 10
15.4225379066
 20
10.874874723
 30
0.0
 10
15.4231002025
 20
10.8742512729
 30
0.0
 10
15.4243636816
 20
10.8730443436
 30
0.0
 10
15.4265218481
 20
10.8714287191
 30
0.0
 10
15.428965019
 20
10.8699842136
 30
0.0
 10
15.43162544
 20
10.8687457102
 30
0.0
 10
15.4344369464
 20
10.8677463219
 30
0.0
 10
15.4373278147
 20
10.8670094265
 30
0.0
 10
15.4402211525
 20
10.8665587074
 30
0.0
 10
15.4421474419
 20
10.8664499276
 30
0.0
 10
15.4430913584
 20
10.8664499276
 30
0.0
  0
SPLINE
  5
288
100
AcDbEntity
  8
0
100
AcDbSpline
 62
7
  6
CONTINUOUS
 70
0
 71
3
 72
14
 73
10
 74
0
 42
0.0000001
 43
0.0000001
 44
0.0000000001
 40
0.0
 40
0.0
 40
0.0
 40
0.0
 40
0.1556378
 40
0.3032769747
 40
0.568826025
 40
0.6871270149
 40
0.7968611207
 40
0.9001579865
 40
1.0
 40
1.0
 40
1.0
 40
1.0
 10
15.3319831284
 20
10.8664499276
 30
0.0
 10
15.3327269804
 20
10.8664499276
 30
0.0
 10
15.3341781703
 20
10.8665149143
 30
0.0
 10
15.3368701848
 20
10.8669032054
 30
0.0
 10
15.3393273864
 20
10.8676757798
 30
0.0
 10
15.3413624437
 20
10.8688883872
 30
0.0
 10
15.3425641071
 20
10.8699349209
 30
0.0
 10
15.3434754172
 20
10.8711347904
 30
0.0
 10
15.34387364
 20
10.8720319073
 30
0.0
 10
15.3440141908
 20
10.8724879214
 30
0.0
  0
SPLINE
  5
289
100
AcDbEntity
  8
0
100
AcDbSpline
 62
7
  6
CONTINUOUS
 70
0
 71
3
 72
15
 73
11
 74
0
 42
0.0000001
 43
0.0000001
 44
0.0000000001
 40
0.0
 40
0.0
 40
0.0
 40
0.0
 40
0.1105349799
 40
0.2292534452
 40
0.3542419032
 40
0.4835313167
 40
0.6150294348
 40
0.7465283975
 40
0.8757261319
 40
1.0
 40
1.0
 40
1.0
 40
1.0
 10
15.2521416227
 20
10.874874723
 30
0.0
 10
15.2527039187
 20
10.8742512729
 30
0.0
 10
15.2539673977
 20
10.8730443436
 30
0.0
 10
15.2561255642
 20
10.8714287191
 30
0.0
 10
15.2585687351
 20
10.8699842136
 30
0.0
 10
15.2612291561
 20
10.8687457102
 30
0.0
 10
15.2640406625
 20
10.8677463219
 30
0.0
 10
15.2669315308
 20
10.8670094265
 30
0.0
 10
15.2698248686
 20
10.8665587074
 30
0.0
 10
15.271751158
 20
10.8664499276
 30
0.0
 10
15.2726950745
 20
10.8664499276
 30
0.0
  0
SPLINE
  5
28A
100
AcDbEntity
  8
0
100
AcDbSpline
 62
7
  6
CONTINUOUS
 70
0
 71
3
 72
14
 73
10
 74
0
 42
0.0000001
 43
0.0000001
 44
0.0000000001
 40
0.0
 40
0.0
 40
0.0
 40
0.0
 40
0.1556378
 40
0.3032769747
 40
0.568826025
 40
0.6871270149
 40
0.7968611207
 40
0.9001579865
 40
1.0
 40
1.0
 40
1.0
 40
1.0
 10
15.1615868446
 20
10.8664499276
 30
0.0
 10
15.1623306965
 20
10.8664499276
 30
0.0
 10
15.1637818864
 20
10.8665149143
 30
0.0
 10
15.1664739009
 20
10.8669032054
 30
0.0
 10
15.1689311026
 20
10.8676757798
 30
0.0
 10
15.1709661598
 20
10.8688883872
 30
0.0
 10
15.1721678232
 20
10.8699349209
 30
0.0
 10
15.1730791334
 20
10.8711347904
 30
0.0
 10
15.1734773561
 20
10.8720319073
 30
0.0
 10
15.1736179069
 20
10.8724879214
 30
0.0
  0
SPLINE
  5
28B
100
AcDbEntity
  8
0
100
AcDbSpline
 62
7
  6
CONTINUOUS
 70
0
 71
3
 72
15
 73
11
 74
0
 42
0.0000001
 43
0.0000001
 44
0.0000000001
 40
0.0
 40
0.0
 40
0.0
 40
0.0
 40
0.1105349799
 40
0.2292534452
 40
0.3542419032
 40
0.4835313167
 40
0.6150294348
 40
0.7465283975
 40
0.8757261319
 40
1.0
 40
1.0
 40
1.0
 40
1.0
 10
15.0817453388
 20
10.874874723
 30
0.0
 10
15.0823076348
 20
10.8742512729
 30
0.0
 10
15.0835711138
 20
10.8730443436
 30
0.0
 10
15.0857292803
 20
10.8714287191
 30
0.0
 10
15.0881724512
 20
10.8699842136
 30
0.0
 10
15.0908328722
 20
10.8687457102
 30
0.0
 10
15.0936443786
 20
10.8677463219
 30
0.0
 10
15.096535247
 20
10.8670094265
 30
0.0
 10
15.0994285847
 20
10.8665587074
 30
0.0
 10
15.1013548741
 20
10.8664499276
 30
0.0
 10
15.1022987906
 20
10.8664499276
 30
0.0
  0
SPLINE
  5
28C
100
AcDbEntity
  8
0
100
AcDbSpline
 62
7
  6
CONTINUOUS
 70
0
 71
3
 72
14
 73
10
 74
0
 42
0.0000001
 43
0.0000001
 44
0.0000000001
 40
0.0
 40
0.0
 40
0.0
 40
0.0
 40
0.1556378
 40
0.3032769747
 40
0.568826025
 40
0.6871270149
 40
0.7968611207
 40
0.9001579865
 40
1.0
 40
1.0
 40
1.0
 40
1.0
 10
14.9911905607
 20
10.8664499276
 30
0.0
 10
14.9919344126
 20
10.8664499276
 30
0.0
 10
14.9933856025
 20
10.8665149143
 30
0.0
 10
14.996077617
 20
10.8669032054
 30
0.0
 10
14.9985348187
 20
10.8676757798
 30
0.0
 10
15.0005698759
 20
10.8688883872
 30
0.0
 10
15.0017715393
 20
10.8699349209
 30
0.0
 10
15.0026828495
 20
10.8711347904
 30
0.0
 10
15.0030810722
 20
10.8720319073
 30
0.0
 10
15.003221623
 20
10.8724879214
 30
0.0
  0
SPLINE
  5
28D
100
AcDbEntity
  8
0
100
AcDbSpline
 62
7
  6
CONTINUOUS
 70
0
 71
3
 72
15
 73
11
 74
0
 42
0.0000001
 43
0.0000001
 44
0.0000000001
 40
0.0
 40
0.0
 40
0.0
 40
0.0
 40
0.1105349799
 40
0.2292534452
 40
0.3542419032
 40
0.4835313167
 40
0.6150294348
 40
0.7465283975
 40
0.8757261319
 40
1.0
 40
1.0
 40
1.0
 40
1.0
 10
14.9113490549
 20
10.874874723
 30
0.0
 10
14.9119113509
 20
10.8742512729
 30
0.0
 10
14.9131748299
 20
10.8730443436
 30
0.0
 10
14.9153329964
 20
10.8714287191
 30
0.0
 10
14.9177761673
 20
10.8699842136
 30
0.0
 10
14.9204365883
 20
10.8687457102
 30
0.0
 10
14.9232480947
 20
10.8677463219
 30
0.0
 10
14.9261389631
 20
10.8670094265
 30
0.0
 10
14.9290323008
 20
10.8665587074
 30
0.0
 10
14.9309585902
 20
10.8664499276
 30
0.0
 10
14.9319025067
 20
10.8664499276
 30
0.0
  0
SPLINE
  5
28E
100
AcDbEntity
  8
0
100
AcDbSpline
 62
7
  6
CONTINUOUS
 70
0
 71
3
 72
14
 73
10
 74
0
 42
0.0000001
 43
0.0000001
 44
0.0000000001
 40
0.0
 40
0.0
 40
0.0
 40
0.0
 40
0.1556378
 40
0.3032769747
 40
0.568826025
 40
0.6871270149
 40
0.7968611207
 40
0.9001579865
 40
1.0
 40
1.0
 40
1.0
 40
1.0
 10
14.8207942768
 20
10.8664499276
 30
0.0
 10
14.8215381287
 20
10.8664499276
 30
0.0
 10
14.8229893186
 20
10.8665149143
 30
0.0
 10
14.8256813331
 20
10.8669032054
 30
0.0
 10
14.8281385348
 20
10.8676757798
 30
0.0
 10
14.830173592
 20
10.8688883872
 30
0.0
 10
14.8313752554
 20
10.8699349209
 30
0.0
 10
14.8322865656
 20
10.8711347904
 30
0.0
 10
14.8326847883
 20
10.8720319073
 30
0.0
 10
14.8328253391
 20
10.8724879214
 30
0.0
  0
SPLINE
  5
28F
100
AcDbEntity
  8
0
100
AcDbSpline
 62
7
  6
CONTINUOUS
 70
0
 71
3
 72
15
 73
11
 74
0
 42
0.0000001
 43
0.0000001
 44
0.0000000001
 40
0.0
 40
0.0
 40
0.0
 40
0.0
 40
0.1105349799
 40
0.2292534452
 40
0.3542419032
 40
0.4835313167
 40
0.6150294348
 40
0.7465283975
 40
0.8757261319
 40
1.0
 40
1.0
 40
1.0
 40
1.0
 10
14.740952771
 20
10.874874723
 30
0.0
 10
14.741515067
 20
10.8742512729
 30
0.0
 10
14.742778546
 20
10.8730443436
 30
0.0
 10
14.7449367125
 20
10.8714287191
 30
0.0
 10
14.7473798835
 20
10.8699842136
 30
0.0
 10
14.7500403044
 20
10.8687457102
 30
0.0
 10
14.7528518108
 20
10.8677463219
 30
0.0
 10
14.7557426792
 20
10.8670094265
 30
0.0
 10
14.7586360169
 20
10.8665587074
 30
0.0
 10
14.7605623063
 20
10.8664499276
 30
0.0
 10
14.7615062229
 20
10.8664499276
 30
0.0
  0
SPLINE
  5
290
100
AcDbEntity
  8
0
100
AcDbSpline
 62
7
  6
CONTINUOUS
 70
0
 71
3
 72
14
 73
10
 74
0
 42
0.0000001
 43
0.0000001
 44
0.0000000001
 40
0.0
 40
0.0
 40
0.0
 40
0.0
 40
0.1556378
 40
0.3032769747
 40
0.568826025
 40
0.6871270149
 40
0.7968611207
 40
0.9001579865
 40
1.0
 40
1.0
 40
1.0
 40
1.0
 10
14.6503979929
 20
10.8664499276
 30
0.0
 10
14.6511418448
 20
10.8664499276
 30
0.0
 10
14.6525930347
 20
10.8665149143
 30
0.0
 10
14.6552850493
 20
10.8669032054
 30
0.0
 10
14.6577422509
 20
10.8676757798
 30
0.0
 10
14.6597773081
 20
10.8688883872
 30
0.0
 10
14.6609789715
 20
10.8699349209
 30
0.0
 10
14.6618902817
 20
10.8711347904
 30
0.0
 10
14.6622885044
 20
10.8720319073
 30
0.0
 10
14.6624290552
 20
10.8724879214
 30
0.0
  0
SPLINE
  5
291
100
AcDbEntity
  8
0
100
AcDbSpline
 62
7
  6
CONTINUOUS
 70
0
 71
3
 72
15
 73
11
 74
0
 42
0.0000001
 43
0.0000001
 44
0.0000000001
 40
0.0
 40
0.0
 40
0.0
 40
0.0
 40
0.1105349799
 40
0.2292534452
 40
0.3542419032
 40
0.4835313167
 40
0.6150294348
 40
0.7465283975
 40
0.8757261319
 40
1.0
 40
1.0
 40
1.0
 40
1.0
 10
14.5705564871
 20
10.874874723
 30
0.0
 10
14.5711187831
 20
10.8742512729
 30
0.0
 10
14.5723822621
 20
10.8730443436
 30
0.0
 10
14.5745404286
 20
10.8714287191
 30
0.0
 10
14.5769835996
 20
10.8699842136
 30
0.0
 10
14.5796440205
 20
10.8687457102
 30
0.0
 10
14.5824555269
 20
10.8677463219
 30
0.0
 10
14.5853463953
 20
10.8670094265
 30
0.0
 10
14.588239733
 20
10.8665587074
 30
0.0
 10
14.5901660224
 20
10.8664499276
 30
0.0
 10
14.591109939
 20
10.8664499276
 30
0.0
  0
SPLINE
  5
292
100
AcDbEntity
  8
0
100
AcDbSpline
 62
7
  6
CONTINUOUS
 70
0
 71
3
 72
14
 73
10
 74
0
 42
0.0000001
 43
0.0000001
 44
0.0000000001
 40
0.0
 40
0.0
 40
0.0
 40
0.0
 40
0.1556378
 40
0.3032769747
 40
0.568826025
 40
0.6871270149
 40
0.7968611207
 40
0.9001579865
 40
1.0
 40
1.0
 40
1.0
 40
1.0
 10
14.480001709
 20
10.8664499276
 30
0.0
 10
14.480745561
 20
10.8664499276
 30
0.0
 10
14.4821967508
 20
10.8665149143
 30
0.0
 10
14.4848887654
 20
10.8669032054
 30
0.0
 10
14.487345967
 20
10.8676757798
 30
0.0
 10
14.4893810242
 20
10.8688883872
 30
0.0
 10
14.4905826876
 20
10.8699349209
 30
0.0
 10
14.4914939978
 20
10.8711347904
 30
0.0
 10
14.4918922205
 20
10.8720319073
 30
0.0
 10
14.4920327713
 20
10.8724879214
 30
0.0
  0
SPLINE
  5
293
100
AcDbEntity
  8
0
100
AcDbSpline
 62
7
  6
CONTINUOUS
 70
0
 71
3
 72
15
 73
11
 74
0
 42
0.0000001
 43
0.0000001
 44
0.0000000001
 40
0.0
 40
0.0
 40
0.0
 40
0.0
 40
0.1105349799
 40
0.2292534452
 40
0.3542419032
 40
0.4835313167
 40
0.6150294348
 40
0.7465283975
 40
0.8757261319
 40
1.0
 40
1.0
 40
1.0
 40
1.0
 10
14.4001602033
 20
10.874874723
 30
0.0
 10
14.4007224992
 20
10.8742512729
 30
0.0
 10
14.4019859782
 20
10.8730443436
 30
0.0
 10
14.4041441447
 20
10.8714287191
 30
0.0
 10
14.4065873157
 20
10.8699842136
 30
0.0
 10
14.4092477366
 20
10.8687457102
 30
0.0
 10
14.4120592431
 20
10.8677463219
 30
0.0
 10
14.4149501114
 20
10.8670094265
 30
0.0
 10
14.4178434491
 20
10.8665587074
 30
0.0
 10
14.4197697385
 20
10.8664499276
 30
0.0
 10
14.4207136551
 20
10.8664499276
 30
0.0
  0
ENDSEC
  0
SECTION
  2
OBJECTS
  0
DICTIONARY
  5
C
100
AcDbDictionary
280
0
281
1
  3
ACAD_GROUP
350
D
  3
ACAD_MLINESTYLE
350
17
  3
ACAD_LAYOUT
350
1A
  3
ACAD_PLOTSETTINGS
350
19
  3
ACAD_PLOTSTYLENAME
350
E
  0
DICTIONARY
  5
D
102
{ACAD_REACTORS
330
C
102
}
100
AcDbDictionary
280
0
281
1
  0
ACDBDICTIONARYWDFLT
  5
E
102
{ACAD_REACTORS
330
C
102
}
100
AcDbDictionary
281
1
  3
Normal
350
F
100
AcDbDictionaryWithDefault
340
F
  0
DICTIONARY
  5
17
102
{ACAD_REACTORS
330
C
102
}
100
AcDbDictionary
280
0
281
1
  3
Standard
350
18
  0
DICTIONARY
  5
19
102
{ACAD_REACTORS
330
C
102
}
100
AcDbDictionary
281
1
  0
DICTIONARY
  5
1A
102
{ACAD_REACTORS
330
C
102
}
100
AcDbDictionary
281
1
  3
Model
350
294
  3
Layout1
350
295
  0
ACDBPLACEHOLDER
  5
F
102
{ACAD_REACTORS
330
E
102
}
  0
MLINESTYLE
  5
18
102
{ACAD_REACTORS
330
17
102
}
100
AcDbMlineStyle
  2
STANDARD
 70
0
  3

 62
256
 51
90.0
 52
90.0
 71
2
 49
0.5
 62
256
  6
BYLAYER
 49
-0.5
 62
256
  6
BYLAYER
  0
LAYOUT
  5
294
102
{ACAD_REACTORS
330
1A
102
}
100
AcDbPlotSettings
  1

  2
none_device
  4
ANSI_C_(22.00_x_17.00_Inches)
  6

 40
0.0
 41
0.0
 42
0.0
 43
0.0
 44
558.8
 45
431.8
 46
0.0
 47
0.0
 48
0.0
 49
0.0
140
0.0
141
0.0
142
1.0
143
1.0
 70
1024
 72
0
 73
0
 74
0
  7

 75
0
147
1.0
148
0.0
149
0.0
100
AcDbLayout
  1
Model
 70
0
 71
0
 10
0.0
 20
0.0
 11
22.0
 21
17.0
 12
0.0
 22
0.0
 32
0.0
 14
0.0
 24
0.0
 34
0.0
 15
0.0
 25
0.0
 35
0.0
146
0.0
 13
0.0
 23
0.0
 33
0.0
 16
1.0
 26
0.0
 36
0.0
 17
0.0
 27
1.0
 37
0.0
 76
0
330
216
345
0
346
0
  0
LAYOUT
  5
295
102
{ACAD_REACTORS
330
1A
102
}
100
AcDbPlotSettings
  1

  2
none_device
  4
ANSI_C_(22.00_x_17.00_Inches)
  6

 40
0.0
 41
0.0
 42
0.0
 43
0.0
 44
558.8
 45
431.8
 46
0.0
 47
0.0
 48
0.0
 49
0.0
140
0.0
141
0.0
142
1.0
143
1.0
 70
0
 72
0
 73
0
 74
0
  7

 75
0
147
1.0
148
0.0
149
0.0
100
AcDbLayout
  1
Layout1
 70
0
 71
1
 10
0.0
 20
0.0
 11
22.0
 21
17.0
 12
0.0
 22
0.0
 32
0.0
 14
0.0
 24
0.0
 34
0.0
 15
0.0
 25
0.0
 35
0.0
146
0.0
 13
0.0
 23
0.0
 33
0.0
 16
1.0
 26
0.0
 36
0.0
 17
0.0
 27
1.0
 37
0.0
 76
0
330
217
345
0
346
0
  0
ENDSEC
  0
EOF