999
DXF file: _cgs_temp_output.dxf
999
Pro/ENGINEER 2015110 by Parametric Technology Corporation
  0
SECTION
  2
HEADER
  9
$ACADVER
  1
AC1021
  9
$DWGCODEPAGE
  3
ANSI_1252
  9
$EXTMAX
 10
22.0
 20
17.0
 30
0.0
  9
$EXTMIN
 10
0.0
 20
0.0
 30
0.0
  9
$LIMMIN
 10
0.0
 20
0.0
  9
$LIMMAX
 10
22.0
 20
17.0
  9
$VIEWCTR
 10
11.0
 20
8.5
  9
$VIEWSIZE
 40
17.0
  9
$CLAYER
  8
0
  9
$LTSCALE
 40
1.21
  9
$CELTYPE
  6
BYLAYER
  9
$DIMSCALE
 40
1.0
  9
$DIMASZ
 40
0.1875
  9
$DIMEXO
 40
0.0625
  9
$DIMDLI
 40
0.836
  9
$DIMEXE
 40
0.125
  9
$DIMCEN
 40
0.198
  9
$DIMLFAC
 40
1.0
  9
$DIMBLK
  1
_CLOSED
  9
$DIMALT
 70
0
  9
$DIMALTF
 40
25.4
  9
$DIMTXT
 40
0.15625
  9
$DIMTOL
 70
0
  9
$DIMLIM
 70
0
  9
$DIMTFAC
 40
1.0
  9
$DIMGAP
 40
0.09
  9
$DIMDSEP
 70
46
  9
$AUNITS
 70
0
  9
$PDMODE
 70
3
  9
$PDSIZE
 40
0.3125
  9
$HANDSEED
  5
335
  9
$TILEMODE
 70
1
  9
$MEASUREMENT
 70
0
  9
$INSUNITS
 70
1
  0
ENDSEC
  0
SECTION
  2
CLASSES
  0
CLASS
  1
ACDBDICTIONARYWDFLT
  2
AcDbDictionaryWithDefault
  3
AutoCAD 2000
 90
0
 91
1
280
0
281
0
  0
CLASS
  1
ACDBPLACEHOLDER
  2
AcDbPlaceHolder
  3
AutoCAD 2000
 90
0
 91
1
280
0
281
0
  0
CLASS
  1
LAYOUT
  2
AcDbLayout
  3
AutoCAD 2000
 90
0
 91
0
280
0
281
0
  0
ENDSEC
  0
SECTION
  2
TABLES
  0
TABLE
  2
VPORT
  5
8
100
AcDbSymbolTable
 70
2
  0
VPORT
  5
1F4
100
AcDbSymbolTableRecord
100
AcDbViewportTableRecord
  2
*ACTIVE
 70
0
 10
0.0
 20
0.0
 11
1.0
 21
1.0
 12
11.0
 22
8.5
 13
0.0
 23
0.0
 14
1.0
 24
1.0
 15
0.0
 25
0.0
 16
0.0
 26
0.0
 36
1.0
 17
0.0
 27
0.0
 37
0.0
 40
17.0
 41
1.2941176471
 42
50.0
 43
0.0
 44
0.0
 50
0.0
 51
0.0
 71
0
 72
100
 73
1
 74
1
 75
0
 76
0
 77
0
 78
0
  0
ENDTAB
  0
TABLE
  2
LTYPE
  5
5
100
AcDbSymbolTable
 70
6
  0
LTYPE
  5
14
100
AcDbSymbolTableRecord
100
AcDbLinetypeTableRecord
  2
BYBLOCK
 70
0
  3

 72
65
 73
0
 40
0.0
  0
LTYPE
  5
15
100
AcDbSymbolTableRecord
100
AcDbLinetypeTableRecord
  2
BYLAYER
 70
0
  3

 72
65
 73
0
 40
0.0
  0
LTYPE
  5
16
100
AcDbSymbolTableRecord
100
AcDbLinetypeTableRecord
  2
CONTINUOUS
 70
64
  3
Solid line
 72
65
 73
0
 40
0.0
  0
LTYPE
  5
1F5
100
AcDbSymbolTableRecord
100
AcDbLinetypeTableRecord
  2
CENTER
 70
64
  3
____ _ ____ _ ____ _ ____ _ ____ _ ____ _ ____
 72
65
 73
4
 40
0.6
 49
0.375
 74
0
 49
-0.075
 74
0
 49
0.075
 74
0
 49
-0.075
 74
0
  0
LTYPE
  5
1F6
100
AcDbSymbolTableRecord
100
AcDbLinetypeTableRecord
  2
HIDDEN
 70
64
  3
- - - - - - - - - - - - - - - - - - - -
 72
65
 73
2
 40
0.2
 49
0.1
 74
0
 49
-0.1
 74
0
  0
LTYPE
  5
1F7
100
AcDbSymbolTableRecord
100
AcDbLinetypeTableRecord
  2
PHANTOM
 70
64
  3
_____ _ _ _____ _ _ _____ _ _ _____
 72
65
 73
6
 40
0.8
 49
0.45
 74
0
 49
-0.05
 74
0
 49
0.1
 74
0
 49
-0.05
 74
0
 49
0.1
 74
0
 49
-0.05
 74
0
  0
LTYPE
  5
1F8
100
AcDbSymbolTableRecord
100
AcDbLinetypeTableRecord
  2
DOT
 70
64
  3
. . . . . . . . . . . . . . . . . . . .
 72
65
 73
2
 40
0.2
 49
0.1
 74
0
 49
-0.1
 74
0
  0
LTYPE
  5
1F9
100
AcDbSymbolTableRecord
100
AcDbLinetypeTableRecord
  2
DASHED
 70
64
  3
- - - - - - - - - - - - - - - - - - - -
 72
65
 73
2
 40
0.2
 49
0.1
 74
0
 49
-0.1
 74
0
  0
ENDTAB
  0
TABLE
  2
LAYER
  5
2
100
AcDbSymbolTable
 70
36
  0
LAYER
  5
10
100
AcDbSymbolTableRecord
100
AcDbLayerTableRecord
  2
0
 70
0
 62
7
  6
CONTINUOUS
370
-3
390
F
  0
LAYER
  5
1FA
100
AcDbSymbolTableRecord
100
AcDbLayerTableRecord
  2
DEFAULT_1
 70
0
 62
7
  6
CENTER
370
-3
390
F
  0
LAYER
  5
1FB
100
AcDbSymbolTableRecord
100
AcDbLayerTableRecord
  2
DEFAULT_2
 70
0
 62
8
  6
HIDDEN
370
-3
390
F
  0
LAYER
  5
1FC
100
AcDbSymbolTableRecord
100
AcDbLayerTableRecord
  2
DEFAULT_3
 70
0
 62
7
  6
PHANTOM
370
-3
390
F
  0
LAYER
  5
1FD
100
AcDbSymbolTableRecord
100
AcDbLayerTableRecord
  2
01_ALL_DTM_PLN
 70
0
 62
7
  6
CONTINUOUS
370
-3
390
F
  0
LAYER
  5
1FE
100
AcDbSymbolTableRecord
100
AcDbLayerTableRecord
  2
01__ASM_ALL_DTM_PLN
 70
0
 62
7
  6
CONTINUOUS
370
-3
390
F
  0
LAYER
  5
1FF
100
AcDbSymbolTableRecord
100
AcDbLayerTableRecord
  2
01__ASM_DEF_DTM_PLN
 70
0
 62
7
  6
CONTINUOUS
370
-3
390
F
  0
LAYER
  5
200
100
AcDbSymbolTableRecord
100
AcDbLayerTableRecord
  2
01___PRT_ALL_DTM_PLN
 70
0
 62
7
  6
CONTINUOUS
370
-3
390
F
  0
LAYER
  5
201
100
AcDbSymbolTableRecord
100
AcDbLayerTableRecord
  2
01___PRT_DEF_DTM_PLN
 70
0
 62
7
  6
CONTINUOUS
370
-3
390
F
  0
LAYER
  5
202
100
AcDbSymbolTableRecord
100
AcDbLayerTableRecord
  2
02_ALL_AXES
 70
0
 62
7
  6
CONTINUOUS
370
-3
390
F
  0
LAYER
  5
203
100
AcDbSymbolTableRecord
100
AcDbLayerTableRecord
  2
02__ASM_ALL_AXES
 70
0
 62
7
  6
CONTINUOUS
370
-3
390
F
  0
LAYER
  5
204
100
AcDbSymbolTableRecord
100
AcDbLayerTableRecord
  2
02___PRT_ALL_AXES
 70
0
 62
7
  6
CONTINUOUS
370
-3
390
F
  0
LAYER
  5
205
100
AcDbSymbolTableRecord
100
AcDbLayerTableRecord
  2
03_ALL_CURVES
 70
0
 62
7
  6
CONTINUOUS
370
-3
390
F
  0
LAYER
  5
206
100
AcDbSymbolTableRecord
100
AcDbLayerTableRecord
  2
03__ASM_ALL_CURVES
 70
0
 62
7
  6
CONTINUOUS
370
-3
390
F
  0
LAYER
  5
207
100
AcDbSymbolTableRecord
100
AcDbLayerTableRecord
  2
03___PRT_ALL_CURVES
 70
0
 62
7
  6
CONTINUOUS
370
-3
390
F
  0
LAYER
  5
208
100
AcDbSymbolTableRecord
100
AcDbLayerTableRecord
  2
04_ALL_DTM_PNT
 70
0
 62
7
  6
CONTINUOUS
370
-3
390
F
  0
LAYER
  5
209
100
AcDbSymbolTableRecord
100
AcDbLayerTableRecord
  2
04__ASM_ALL_DTM_PNT
 70
0
 62
7
  6
CONTINUOUS
370
-3
390
F
  0
LAYER
  5
20A
100
AcDbSymbolTableRecord
100
AcDbLayerTableRecord
  2
04___PRT_ALL_DTM_PNT
 70
0
 62
7
  6
CONTINUOUS
370
-3
390
F
  0
LAYER
  5
20B
100
AcDbSymbolTableRecord
100
AcDbLayerTableRecord
  2
05_ALL_DTM_CSYS
 70
0
 62
7
  6
CONTINUOUS
370
-3
390
F
  0
LAYER
  5
20C
100
AcDbSymbolTableRecord
100
AcDbLayerTableRecord
  2
05__ASM_ALL_DTM_CSYS
 70
0
 62
7
  6
CONTINUOUS
370
-3
390
F
  0
LAYER
  5
20D
100
AcDbSymbolTableRecord
100
AcDbLayerTableRecord
  2
05__ASM_DEF_DTM_CSYS
 70
0
 62
7
  6
CONTINUOUS
370
-3
390
F
  0
LAYER
  5
20E
100
AcDbSymbolTableRecord
100
AcDbLayerTableRecord
  2
05___PRT_ALL_DTM_CSYS
 70
0
 62
7
  6
CONTINUOUS
370
-3
390
F
  0
LAYER
  5
20F
100
AcDbSymbolTableRecord
100
AcDbLayerTableRecord
  2
05___PRT_DEF_DTM_CSYS
 70
0
 62
7
  6
CONTINUOUS
370
-3
390
F
  0
LAYER
  5
210
100
AcDbSymbolTableRecord
100
AcDbLayerTableRecord
  2
06_ALL_SURFS
 70
0
 62
7
  6
CONTINUOUS
370
-3
390
F
  0
LAYER
  5
211
100
AcDbSymbolTableRecord
100
AcDbLayerTableRecord
  2
06__ASM_ALL_SURFS
 70
0
 62
7
  6
CONTINUOUS
370
-3
390
F
  0
LAYER
  5
212
100
AcDbSymbolTableRecord
100
AcDbLayerTableRecord
  2
06___PRT_ALL_SURFS
 70
0
 62
7
  6
CONTINUOUS
370
-3
390
F
  0
LAYER
  5
213
100
AcDbSymbolTableRecord
100
AcDbLayerTableRecord
  2
07__ASM_ALL_SKELETONS
 70
0
 62
7
  6
CONTINUOUS
370
-3
390
F
  0
LAYER
  5
214
100
AcDbSymbolTableRecord
100
AcDbLayerTableRecord
  2
LAYER_DIM
 70
0
 62
7
  6
CONTINUOUS
370
-3
390
F
  0
LAYER
  5
215
100
AcDbSymbolTableRecord
100
AcDbLayerTableRecord
  2
LAYER_FEATURE
 70
0
 62
7
  6
CONTINUOUS
370
-3
390
F
  0
LAYER
  5
216
100
AcDbSymbolTableRecord
100
AcDbLayerTableRecord
  2
LAYER_GEOM_FEAT
 70
0
 62
7
  6
CONTINUOUS
370
-3
390
F
  0
LAYER
  5
217
100
AcDbSymbolTableRecord
100
AcDbLayerTableRecord
  2
LAYER_PARAMETER_DIM
 70
0
 62
7
  6
CONTINUOUS
370
-3
390
F
  0
LAYER
  5
218
100
AcDbSymbolTableRecord
100
AcDbLayerTableRecord
  2
LAYER_PROTRUSION_FEAT
 70
0
 62
7
  6
CONTINUOUS
370
-3
390
F
  0
LAYER
  5
219
100
AcDbSymbolTableRecord
100
AcDbLayerTableRecord
  2
LAYER_ROUND_FEAT
 70
0
 62
7
  6
CONTINUOUS
370
-3
390
F
  0
ENDTAB
  0
TABLE
  2
STYLE
  5
3
100
AcDbSymbolTable
 70
1
  0
STYLE
  5
11
100
AcDbSymbolTableRecord
100
AcDbTextStyleTableRecord
  2
STANDARD
 70
0
 40
0.0
 41
0.8
 50
0.0
 71
0
 42
0.2
  3
txt
  4

  0
STYLE
  5
21A
100
AcDbSymbolTableRecord
100
AcDbTextStyleTableRecord
  2
TEXTSTYLE_1
 70
0
 40
0.0
 41
0.8
 50
0.0
 71
0
 42
0.2
  3
gdt
  4

  0
ENDTAB
  0
TABLE
  2
VIEW
  5
6
100
AcDbSymbolTable
 70
0
  0
ENDTAB
  0
TABLE
  2
UCS
  5
7
100
AcDbSymbolTable
 70
0
  0
ENDTAB
  0
TABLE
  2
APPID
  5
9
100
AcDbSymbolTable
 70
1
  0
APPID
  5
21B
100
AcDbSymbolTableRecord
100
AcDbRegAppTableRecord
  2
ACAD
 70
0
  0
ENDTAB
  0
TABLE
  2
BLOCK_RECORD
  5
1
100
AcDbSymbolTable
 70
0
  0
BLOCK_RECORD
  5
21C
100
AcDbSymbolTableRecord
100
AcDbBlockTableRecord
  2
*Model_Space
  0
BLOCK_RECORD
  5
21D
100
AcDbSymbolTableRecord
100
AcDbBlockTableRecord
  2
*Paper_Space
  0
ENDTAB
  0
TABLE
  2
DIMSTYLE
  5
A
100
AcDbSymbolTable
 70
1
100
AcDbDimStyleTable
 71
0
  0
DIMSTYLE
105
21E
100
AcDbSymbolTableRecord
100
AcDbDimStyleTableRecord
  2
STANDARD
 70
0
  3

  4

 40
1.0
 41
0.1875
 42
0.0625
 43
0.38
 44
0.125
 45
0.0
 46
0.0
 47
0.0001
 48
0.0001
140
0.15625
141
0.09
142
0.0
143
25.4
144
1.0
145
0.0
146
1.0
147
0.09
 71
0.0
 72
0.0
 73
1
 74
1
 75
0
 76
0
 77
0
 78
4
170
0
171
2
172
0
173
0
174
0
175
0
176
0
177
0
178
0
270
2
271
4
272
4
273
2
274
2
275
0
280
0
281
0
282
0
283
1
284
4
285
0
286
0
287
3
288
0
340
11
278
46
  0
ENDTAB
  0
ENDSEC
  0
SECTION
  2
BLOCKS
  0
BLOCK
  5
20
100
AcDbEntity
  8
0
100
AcDbBlockBegin
  2
*Model_Space
 70
0
 10
0.0
 20
0.0
 30
0.0
  3
*Model_Space
  1

  0
ENDBLK
  5
21
100
AcDbEntity
  8
0
100
AcDbBlockEnd
  0
BLOCK
  5
1C
100
AcDbEntity
  8
0
100
AcDbBlockBegin
  2
*Paper_Space
 70
0
 10
0.0
 20
0.0
 30
0.0
  3
*Paper_Space
  1

  0
ENDBLK
  5
1D
100
AcDbEntity
  8
0
100
AcDbBlockEnd
  0
ENDSEC
  0
SECTION
  2
ENTITIES
  0
MTEXT
  5
21F
100
AcDbEntity
  8
0
100
AcDbMText
 62
7
  6
CONTINUOUS
  7
STANDARD
 71
1
 72
1
 10
15.9560215477
 20
0.9479130325
 30
0.0
 11
1.0
 21
0.0
 31
0.0
 44
0.9
  1
SCALE: 1:0.500
 40
0.3
 41
3.36
  0
LINE
  5
220
100
AcDbEntity
  8
0
100
AcDbLine
 62
7
  6
CONTINUOUS
 10
0.0
 20
0.0
 11
0.0
 21
17.0
  0
LINE
  5
221
100
AcDbEntity
  8
0
100
AcDbLine
 62
7
  6
CONTINUOUS
 10
0.0
 20
0.0
 11
22.0
 21
0.0
  0
LINE
  5
222
100
AcDbEntity
  8
0
100
AcDbLine
 62
7
  6
CONTINUOUS
 10
0.0
 20
17.0
 11
22.0
 21
17.0
  0
LINE
  5
223
100
AcDbEntity
  8
0
100
AcDbLine
 62
7
  6
CONTINUOUS
 10
22.0
 20
0.0
 11
22.0
 21
17.0
  0
LINE
  5
224
100
AcDbEntity
  8
0
100
AcDbLine
 62
7
  6
CONTINUOUS
 10
3.9113672762
 20
5.6676198968
 11
3.9113672762
 21
5.6301198968
  0
LINE
  5
225
100
AcDbEntity
  8
0
100
AcDbLine
 62
7
  6
CONTINUOUS
 10
3.9113672762
 20
5.6301198968
 11
3.9672661289
 21
5.3752692131
  0
LINE
  5
226
100
AcDbEntity
  8
0
100
AcDbLine
 62
7
  6
CONTINUOUS
 10
4.2213672762
 20
5.6301198968
 11
4.2213672762
 21
5.6526198968
  0
LINE
  5
227
100
AcDbEntity
  8
LAYER_FEATURE
100
AcDbLine
 62
7
  6
CONTINUOUS
 10
4.2553672762
 20
5.6526198968
 11
4.2553672762
 21
5.6301198968
  0
LINE
  5
228
100
AcDbEntity
  8
0
100
AcDbLine
 62
7
  6
CONTINUOUS
 10
4.1654684234
 20
5.3752692131
 11
4.2213672762
 21
5.6301198968
  0
LINE
  5
229
100
AcDbEntity
  8
LAYER_FEATURE
100
AcDbLine
 62
7
  6
CONTINUOUS
 10
4.2553672762
 20
5.6301198968
 11
4.3112661289
 21
5.3752692131
  0
LINE
  5
22A
100
AcDbEntity
  8
LAYER_FEATURE
100
AcDbLine
 62
7
  6
CONTINUOUS
 10
4.5653672762
 20
5.6301198968
 11
4.5653672762
 21
5.6526198968
  0
LINE
  5
22B
100
AcDbEntity
  8
LAYER_FEATURE
100
AcDbLine
 62
7
  6
CONTINUOUS
 10
4.5993672762
 20
5.6526198968
 11
4.5993672762
 21
5.6301198968
  0
LINE
  5
22C
100
AcDbEntity
  8
LAYER_FEATURE
100
AcDbLine
 62
7
  6
CONTINUOUS
 10
4.5094684234
 20
5.3752692131
 11
4.5653672762
 21
5.6301198968
  0
LINE
  5
22D
100
AcDbEntity
  8
LAYER_FEATURE
100
AcDbLine
 62
7
  6
CONTINUOUS
 10
4.5993672762
 20
5.6301198968
 11
4.6552661289
 21
5.3752692131
  0
LINE
  5
22E
100
AcDbEntity
  8
LAYER_FEATURE
100
AcDbLine
 62
7
  6
CONTINUOUS
 10
4.9093672762
 20
5.6301198968
 11
4.9093672762
 21
5.6526198968
  0
LINE
  5
22F
100
AcDbEntity
  8
LAYER_FEATURE
100
AcDbLine
 62
7
  6
CONTINUOUS
 10
4.9433672762
 20
5.6526198968
 11
4.9433672762
 21
5.6301198968
  0
LINE
  5
230
100
AcDbEntity
  8
LAYER_FEATURE
100
AcDbLine
 62
7
  6
CONTINUOUS
 10
4.8534684234
 20
5.3752692131
 11
4.9093672762
 21
5.6301198968
  0
LINE
  5
231
100
AcDbEntity
  8
LAYER_FEATURE
100
AcDbLine
 62
7
  6
CONTINUOUS
 10
4.9433672762
 20
5.6301198968
 11
4.9992661289
 21
5.3752692131
  0
LINE
  5
232
100
AcDbEntity
  8
LAYER_FEATURE
100
AcDbLine
 62
7
  6
CONTINUOUS
 10
5.2533672762
 20
5.6301198968
 11
5.2533672762
 21
5.6526198968
  0
LINE
  5
233
100
AcDbEntity
  8
LAYER_FEATURE
100
AcDbLine
 62
7
  6
CONTINUOUS
 10
5.1974684234
 20
5.3752692131
 11
5.2533672762
 21
5.6301198968
  0
LINE
  5
234
100
AcDbEntity
  8
LAYER_FEATURE
100
AcDbLine
 62
7
  6
CONTINUOUS
 10
5.2873672762
 20
5.6526198968
 11
5.2873672762
 21
5.6301198968
  0
LINE
  5
235
100
AcDbEntity
  8
LAYER_FEATURE
100
AcDbLine
 62
7
  6
CONTINUOUS
 10
5.2873672762
 20
5.6301198968
 11
5.3432661289
 21
5.3752692131
  0
LINE
  5
236
100
AcDbEntity
  8
LAYER_FEATURE
100
AcDbLine
 62
7
  6
CONTINUOUS
 10
5.5973672762
 20
5.6301198968
 11
5.5973672762
 21
5.6526198968
  0
LINE
  5
237
100
AcDbEntity
  8
LAYER_FEATURE
100
AcDbLine
 62
7
  6
CONTINUOUS
 10
5.6313672762
 20
5.6526198968
 11
5.6313672762
 21
5.6301198968
  0
LINE
  5
238
100
AcDbEntity
  8
LAYER_FEATURE
100
AcDbLine
 62
7
  6
CONTINUOUS
 10
5.5414684234
 20
5.3752692131
 11
5.5973672762
 21
5.6301198968
  0
LINE
  5
239
100
AcDbEntity
  8
LAYER_FEATURE
100
AcDbLine
 62
7
  6
CONTINUOUS
 10
5.6313672762
 20
5.6301198968
 11
5.6872661289
 21
5.3752692131
  0
LINE
  5
23A
100
AcDbEntity
  8
LAYER_FEATURE
100
AcDbLine
 62
7
  6
CONTINUOUS
 10
5.9413672762
 20
5.6301198968
 11
5.9413672762
 21
5.6526198968
  0
LINE
  5
23B
100
AcDbEntity
  8
LAYER_FEATURE
100
AcDbLine
 62
7
  6
CONTINUOUS
 10
5.9753672762
 20
5.6526198968
 11
5.9753672762
 21
5.6301198968
  0
LINE
  5
23C
100
AcDbEntity
  8
LAYER_FEATURE
100
AcDbLine
 62
7
  6
CONTINUOUS
 10
5.8854684234
 20
5.3752692131
 11
5.9413672762
 21
5.6301198968
  0
LINE
  5
23D
100
AcDbEntity
  8
0
100
AcDbLine
 62
7
  6
CONTINUOUS
 10
3.9798828658
 20
5.3651198968
 11
4.1528516865
 21
5.3651198968
  0
LINE
  5
23E
100
AcDbEntity
  8
LAYER_FEATURE
100
AcDbLine
 62
7
  6
CONTINUOUS
 10
4.3238828658
 20
5.3651198968
 11
4.4968516865
 21
5.3651198968
  0
LINE
  5
23F
100
AcDbEntity
  8
LAYER_FEATURE
100
AcDbLine
 62
7
  6
CONTINUOUS
 10
4.6678828658
 20
5.3651198968
 11
4.8408516865
 21
5.3651198968
  0
LINE
  5
240
100
AcDbEntity
  8
LAYER_FEATURE
100
AcDbLine
 62
7
  6
CONTINUOUS
 10
5.0118828658
 20
5.3651198968
 11
5.1848516865
 21
5.3651198968
  0
LINE
  5
241
100
AcDbEntity
  8
LAYER_FEATURE
100
AcDbLine
 62
7
  6
CONTINUOUS
 10
5.3558828658
 20
5.3651198968
 11
5.5288516865
 21
5.3651198968
  0
LINE
  5
242
100
AcDbEntity
  8
LAYER_FEATURE
100
AcDbLine
 62
7
  6
CONTINUOUS
 10
5.6998828658
 20
5.3651198968
 11
5.8728516865
 21
5.3651198968
  0
LINE
  5
243
100
AcDbEntity
  8
LAYER_FEATURE
100
AcDbLine
 62
7
  6
CONTINUOUS
 10
6.0438828658
 20
5.3651198968
 11
6.2168516865
 21
5.3651198968
  0
LINE
  5
244
100
AcDbEntity
  8
LAYER_FEATURE
100
AcDbLine
 62
7
  6
CONTINUOUS
 10
6.3878828658
 20
5.3651198968
 11
6.5608516865
 21
5.3651198968
  0
LINE
  5
245
100
AcDbEntity
  8
LAYER_FEATURE
100
AcDbLine
 62
7
  6
CONTINUOUS
 10
6.7318828658
 20
5.3651198968
 11
6.9048516865
 21
5.3651198968
  0
LINE
  5
246
100
AcDbEntity
  8
LAYER_FEATURE
100
AcDbLine
 62
7
  6
CONTINUOUS
 10
7.0758828658
 20
5.3651198968
 11
7.2488516865
 21
5.3651198968
  0
LINE
  5
247
100
AcDbEntity
  8
LAYER_FEATURE
100
AcDbLine
 62
7
  6
CONTINUOUS
 10
7.4198828658
 20
5.3651198968
 11
7.5928516865
 21
5.3651198968
  0
LINE
  5
248
100
AcDbEntity
  8
LAYER_FEATURE
100
AcDbLine
 62
7
  6
CONTINUOUS
 10
7.7638828658
 20
5.3651198968
 11
7.9368516865
 21
5.3651198968
  0
LINE
  5
249
100
AcDbEntity
  8
LAYER_FEATURE
100
AcDbLine
 62
7
  6
CONTINUOUS
 10
8.1078828658
 20
5.3651198968
 11
8.2808516865
 21
5.3651198968
  0
LINE
  5
24A
100
AcDbEntity
  8
LAYER_FEATURE
100
AcDbLine
 62
7
  6
CONTINUOUS
 10
5.9753672762
 20
5.6301198968
 11
6.0312661289
 21
5.3752692131
  0
LINE
  5
24B
100
AcDbEntity
  8
LAYER_FEATURE
100
AcDbLine
 62
7
  6
CONTINUOUS
 10
6.2853672762
 20
5.6301198968
 11
6.2853672762
 21
5.6526198968
  0
LINE
  5
24C
100
AcDbEntity
  8
LAYER_FEATURE
100
AcDbLine
 62
7
  6
CONTINUOUS
 10
6.2294684234
 20
5.3752692131
 11
6.2853672762
 21
5.6301198968
  0
LINE
  5
24D
100
AcDbEntity
  8
LAYER_FEATURE
100
AcDbLine
 62
7
  6
CONTINUOUS
 10
4.2213672762
 20
5.6526198968
 11
4.2553672762
 21
5.6526198968
  0
LINE
  5
24E
100
AcDbEntity
  8
LAYER_FEATURE
100
AcDbLine
 62
7
  6
CONTINUOUS
 10
4.5653672762
 20
5.6526198968
 11
4.5993672762
 21
5.6526198968
  0
LINE
  5
24F
100
AcDbEntity
  8
LAYER_FEATURE
100
AcDbLine
 62
7
  6
CONTINUOUS
 10
4.9093672762
 20
5.6526198968
 11
4.9433672762
 21
5.6526198968
  0
LINE
  5
250
100
AcDbEntity
  8
LAYER_FEATURE
100
AcDbLine
 62
7
  6
CONTINUOUS
 10
5.2533672762
 20
5.6526198968
 11
5.2873672762
 21
5.6526198968
  0
LINE
  5
251
100
AcDbEntity
  8
LAYER_FEATURE
100
AcDbLine
 62
7
  6
CONTINUOUS
 10
5.5973672762
 20
5.6526198968
 11
5.6313672762
 21
5.6526198968
  0
LINE
  5
252
100
AcDbEntity
  8
LAYER_FEATURE
100
AcDbLine
 62
7
  6
CONTINUOUS
 10
5.9413672762
 20
5.6526198968
 11
5.9753672762
 21
5.6526198968
  0
LINE
  5
253
100
AcDbEntity
  8
LAYER_FEATURE
100
AcDbLine
 62
7
  6
CONTINUOUS
 10
6.2853672762
 20
5.6526198968
 11
6.3193672762
 21
5.6526198968
  0
LINE
  5
254
100
AcDbEntity
  8
LAYER_FEATURE
100
AcDbLine
 62
7
  6
CONTINUOUS
 10
6.6293672762
 20
5.6526198968
 11
6.6633672762
 21
5.6526198968
  0
LINE
  5
255
100
AcDbEntity
  8
LAYER_FEATURE
100
AcDbLine
 62
7
  6
CONTINUOUS
 10
6.9733672762
 20
5.6526198968
 11
7.0073672762
 21
5.6526198968
  0
LINE
  5
256
100
AcDbEntity
  8
LAYER_FEATURE
100
AcDbLine
 62
7
  6
CONTINUOUS
 10
7.3173672762
 20
5.6526198968
 11
7.3513672762
 21
5.6526198968
  0
LINE
  5
257
100
AcDbEntity
  8
LAYER_FEATURE
100
AcDbLine
 62
7
  6
CONTINUOUS
 10
7.6613672762
 20
5.6526198968
 11
7.6953672762
 21
5.6526198968
  0
LINE
  5
258
100
AcDbEntity
  8
LAYER_FEATURE
100
AcDbLine
 62
7
  6
CONTINUOUS
 10
8.0053672762
 20
5.6526198968
 11
8.0393672762
 21
5.6526198968
  0
LINE
  5
259
100
AcDbEntity
  8
0
100
AcDbLine
 62
7
  6
CONTINUOUS
 10
8.3418672762
 20
5.6751198968
 11
3.9188672762
 21
5.6751198968
  0
LINE
  5
25A
100
AcDbEntity
  8
LAYER_FEATURE
100
AcDbLine
 62
7
  6
CONTINUOUS
 10
6.3193672762
 20
5.6526198968
 11
6.3193672762
 21
5.6301198968
  0
LINE
  5
25B
100
AcDbEntity
  8
LAYER_FEATURE
100
AcDbLine
 62
7
  6
CONTINUOUS
 10
6.3193672762
 20
5.6301198968
 11
6.3752661289
 21
5.3752692131
  0
LINE
  5
25C
100
AcDbEntity
  8
LAYER_FEATURE
100
AcDbLine
 62
7
  6
CONTINUOUS
 10
6.5734684234
 20
5.3752692131
 11
6.6293672762
 21
5.6301198968
  0
LINE
  5
25D
100
AcDbEntity
  8
LAYER_FEATURE
100
AcDbLine
 62
7
  6
CONTINUOUS
 10
6.6293672762
 20
5.6301198968
 11
6.6293672762
 21
5.6526198968
  0
LINE
  5
25E
100
AcDbEntity
  8
LAYER_FEATURE
100
AcDbLine
 62
7
  6
CONTINUOUS
 10
6.6633672762
 20
5.6526198968
 11
6.6633672762
 21
5.6301198968
  0
LINE
  5
25F
100
AcDbEntity
  8
LAYER_FEATURE
100
AcDbLine
 62
7
  6
CONTINUOUS
 10
6.6633672762
 20
5.6301198968
 11
6.7192661289
 21
5.3752692131
  0
LINE
  5
260
100
AcDbEntity
  8
LAYER_FEATURE
100
AcDbLine
 62
7
  6
CONTINUOUS
 10
6.9733672762
 20
5.6301198968
 11
6.9733672762
 21
5.6526198968
  0
LINE
  5
261
100
AcDbEntity
  8
LAYER_FEATURE
100
AcDbLine
 62
7
  6
CONTINUOUS
 10
7.0073672762
 20
5.6526198968
 11
7.0073672762
 21
5.6301198968
  0
LINE
  5
262
100
AcDbEntity
  8
LAYER_FEATURE
100
AcDbLine
 62
7
  6
CONTINUOUS
 10
6.9174684234
 20
5.3752692131
 11
6.9733672762
 21
5.6301198968
  0
LINE
  5
263
100
AcDbEntity
  8
LAYER_FEATURE
100
AcDbLine
 62
7
  6
CONTINUOUS
 10
7.0073672762
 20
5.6301198968
 11
7.0632661289
 21
5.3752692131
  0
LINE
  5
264
100
AcDbEntity
  8
LAYER_FEATURE
100
AcDbLine
 62
7
  6
CONTINUOUS
 10
7.3173672762
 20
5.6301198968
 11
7.3173672762
 21
5.6526198968
  0
LINE
  5
265
100
AcDbEntity
  8
LAYER_FEATURE
100
AcDbLine
 62
7
  6
CONTINUOUS
 10
7.2614684234
 20
5.3752692131
 11
7.3173672762
 21
5.6301198968
  0
LINE
  5
266
100
AcDbEntity
  8
LAYER_FEATURE
100
AcDbLine
 62
7
  6
CONTINUOUS
 10
7.3513672762
 20
5.6526198968
 11
7.3513672762
 21
5.6301198968
  0
LINE
  5
267
100
AcDbEntity
  8
LAYER_FEATURE
100
AcDbLine
 62
7
  6
CONTINUOUS
 10
7.3513672762
 20
5.6301198968
 11
7.4072661289
 21
5.3752692131
  0
LINE
  5
268
100
AcDbEntity
  8
LAYER_FEATURE
100
AcDbLine
 62
7
  6
CONTINUOUS
 10
7.6054684234
 20
5.3752692131
 11
7.6613672762
 21
5.6301198968
  0
LINE
  5
269
100
AcDbEntity
  8
LAYER_FEATURE
100
AcDbLine
 62
7
  6
CONTINUOUS
 10
7.6613672762
 20
5.6301198968
 11
7.6613672762
 21
5.6526198968
  0
LINE
  5
26A
100
AcDbEntity
  8
LAYER_FEATURE
100
AcDbLine
 62
7
  6
CONTINUOUS
 10
7.6953672762
 20
5.6526198968
 11
7.6953672762
 21
5.6301198968
  0
LINE
  5
26B
100
AcDbEntity
  8
LAYER_FEATURE
100
AcDbLine
 62
7
  6
CONTINUOUS
 10
7.6953672762
 20
5.6301198968
 11
7.7512661289
 21
5.3752692131
  0
LINE
  5
26C
100
AcDbEntity
  8
LAYER_FEATURE
100
AcDbLine
 62
7
  6
CONTINUOUS
 10
8.0053672762
 20
5.6301198968
 11
8.0053672762
 21
5.6526198968
  0
LINE
  5
26D
100
AcDbEntity
  8
LAYER_FEATURE
100
AcDbLine
 62
7
  6
CONTINUOUS
 10
8.0393672762
 20
5.6526198968
 11
8.0393672762
 21
5.6301198968
  0
LINE
  5
26E
100
AcDbEntity
  8
LAYER_FEATURE
100
AcDbLine
 62
7
  6
CONTINUOUS
 10
7.9494684234
 20
5.3752692131
 11
8.0053672762
 21
5.6301198968
  0
LINE
  5
26F
100
AcDbEntity
  8
LAYER_FEATURE
100
AcDbLine
 62
7
  6
CONTINUOUS
 10
8.0393672762
 20
5.6301198968
 11
8.0952661289
 21
5.3752692131
  0
LINE
  5
270
100
AcDbEntity
  8
0
100
AcDbLine
 62
7
  6
CONTINUOUS
 10
8.3493672762
 20
5.6301198968
 11
8.3493672762
 21
5.6676198968
  0
LINE
  5
271
100
AcDbEntity
  8
LAYER_FEATURE
100
AcDbLine
 62
7
  6
CONTINUOUS
 10
8.2934684234
 20
5.3752692131
 11
8.3493672762
 21
5.6301198968
  0
LINE
  5
272
100
AcDbEntity
  8
0
100
AcDbLine
 62
7
  6
CONTINUOUS
 10
3.8518720839
 20
13.6000477814
 11
3.8518720839
 21
11.6000477814
  0
LINE
  5
273
100
AcDbEntity
  8
0
100
AcDbLine
 62
7
  6
CONTINUOUS
 10
8.2898720839
 20
11.6000477814
 11
3.8518720839
 21
11.6000477814
  0
LINE
  5
274
100
AcDbEntity
  8
0
100
AcDbLine
 62
7
  6
CONTINUOUS
 10
3.8518720839
 20
13.6000477814
 11
8.2898720839
 21
13.6000477814
  0
LINE
  5
275
100
AcDbEntity
  8
0
100
AcDbLine
 62
7
  6
CONTINUOUS
 10
8.2898720839
 20
11.6000477814
 11
8.2898720839
 21
13.6000477814
  0
LINE
  5
276
100
AcDbEntity
  8
LAYER_FEATURE
100
AcDbLine
 62
7
  6
CONTINUOUS
 10
14.5603552569
 20
5.3056247044
 11
14.5603552569
 21
5.5706247044
  0
LINE
  5
277
100
AcDbEntity
  8
0
100
AcDbLine
 62
7
  6
CONTINUOUS
 10
14.5603552569
 20
5.5706247044
 11
14.5603552569
 21
5.6156247044
  0
LINE
  5
278
100
AcDbEntity
  8
LAYER_FEATURE
100
AcDbLine
 62
7
  6
CONTINUOUS
 10
14.5603552569
 20
5.3056247044
 11
16.5603552569
 21
5.3056247044
  0
LINE
  5
279
100
AcDbEntity
  8
LAYER_FEATURE
100
AcDbLine
 62
7
  6
CONTINUOUS
 10
16.5603552569
 20
5.5706247044
 11
14.5603552569
 21
5.5706247044
  0
LINE
  5
27A
100
AcDbEntity
  8
0
100
AcDbLine
 62
7
  6
CONTINUOUS
 10
14.5603552569
 20
5.6156247044
 11
16.5603552569
 21
5.6156247044
  0
LINE
  5
27B
100
AcDbEntity
  8
0
100
AcDbLine
 62
7
  6
CONTINUOUS
 10
16.5603552569
 20
5.6156247044
 11
16.5603552569
 21
5.5706247044
  0
LINE
  5
27C
100
AcDbEntity
  8
LAYER_FEATURE
100
AcDbLine
 62
7
  6
CONTINUOUS
 10
16.5603552569
 20
5.3056247044
 11
16.5603552569
 21
5.5706247044
  0
LINE
  5
27D
100
AcDbEntity
  8
0
100
AcDbLine
 62
7
  6
CONTINUOUS
 10
13.1665405278
 20
11.8191655536
 11
13.1779795978
 21
11.7958551798
  0
LINE
  5
27E
100
AcDbEntity
  8
0
100
AcDbLine
 62
7
  6
CONTINUOUS
 10
13.1779795978
 20
11.7958551798
 11
13.307205979
 21
11.6374374544
  0
LINE
  5
27F
100
AcDbEntity
  8
0
100
AcDbLine
 62
7
  6
CONTINUOUS
 10
13.463508506
 20
11.7958551798
 11
13.456645064
 21
11.8098414041
  0
LINE
  5
280
100
AcDbEntity
  8
0
100
AcDbLine
 62
7
  6
CONTINUOUS
 10
13.6504154758
 20
13.3880337281
 11
13.166282829
 21
11.8213799089
  0
LINE
  5
281
100
AcDbEntity
  8
LAYER_FEATURE
100
AcDbLine
 62
7
  6
CONTINUOUS
 10
13.4948245798
 20
11.7958551798
 11
13.6240509609
 21
11.6374374544
  0
LINE
  5
282
100
AcDbEntity
  8
LAYER_FEATURE
100
AcDbLine
 62
7
  6
CONTINUOUS
 10
13.4879611378
 20
11.8098414041
 11
13.4948245798
 21
11.7958551798
  0
LINE
  5
283
100
AcDbEntity
  8
0
100
AcDbLine
 62
7
  6
CONTINUOUS
 10
13.4897623813
 20
11.6374374544
 11
13.463508506
 21
11.7958551798
  0
LINE
  5
284
100
AcDbEntity
  8
0
100
AcDbLine
 62
7
  6
CONTINUOUS
 10
13.48963889
 20
11.6353438703
 11
13.4897623813
 21
11.6374374544
  0
LINE
  5
285
100
AcDbEntity
  8
LAYER_FEATURE
100
AcDbLine
 62
7
  6
CONTINUOUS
 10
13.7803534879
 20
11.7958551798
 11
13.7734900459
 21
11.8098414041
  0
LINE
  5
286
100
AcDbEntity
  8
LAYER_FEATURE
100
AcDbLine
 62
7
  6
CONTINUOUS
 10
13.8048061197
 20
11.8098414041
 11
13.8116695617
 21
11.7958551798
  0
LINE
  5
287
100
AcDbEntity
  8
0
100
AcDbLine
 62
7
  6
CONTINUOUS
 10
13.4678305762
 20
11.8098414041
 11
13.463508506
 21
11.7958551798
  0
LINE
  5
288
100
AcDbEntity
  8
0
100
AcDbLine
 62
7
  6
CONTINUOUS
 10
13.4902396266
 20
11.6372899745
 11
13.5270369727
 21
11.7563662304
  0
LINE
  5
289
100
AcDbEntity
  8
LAYER_FEATURE
100
AcDbLine
 62
7
  6
CONTINUOUS
 10
13.8116695617
 20
11.7958551798
 11
13.9408959429
 21
11.6374374544
  0
LINE
  5
28A
100
AcDbEntity
  8
LAYER_FEATURE
100
AcDbLine
 62
7
  6
CONTINUOUS
 10
13.8066073633
 20
11.6374374544
 11
13.7803534879
 21
11.7958551798
  0
LINE
  5
28B
100
AcDbEntity
  8
LAYER_FEATURE
100
AcDbLine
 62
7
  6
CONTINUOUS
 10
13.806483872
 20
11.6353438703
 11
13.8066073633
 21
11.6374374544
  0
LINE
  5
28C
100
AcDbEntity
  8
LAYER_FEATURE
100
AcDbLine
 62
7
  6
CONTINUOUS
 10
14.1285145437
 20
11.7958551798
 11
14.2577409248
 21
11.6374374544
  0
LINE
  5
28D
100
AcDbEntity
  8
LAYER_FEATURE
100
AcDbLine
 62
7
  6
CONTINUOUS
 10
14.0971984699
 20
11.7958551798
 11
14.0903350279
 21
11.8098414041
  0
LINE
  5
28E
100
AcDbEntity
  8
LAYER_FEATURE
100
AcDbLine
 62
7
  6
CONTINUOUS
 10
14.1216511017
 20
11.8098414041
 11
14.1285145437
 21
11.7958551798
  0
LINE
  5
28F
100
AcDbEntity
  8
LAYER_FEATURE
100
AcDbLine
 62
7
  6
CONTINUOUS
 10
14.1234523452
 20
11.6374374544
 11
14.0971984699
 21
11.7958551798
  0
LINE
  5
290
100
AcDbEntity
  8
LAYER_FEATURE
100
AcDbLine
 62
7
  6
CONTINUOUS
 10
14.1233288539
 20
11.6353438703
 11
14.1234523452
 21
11.6374374544
  0
LINE
  5
291
100
AcDbEntity
  8
LAYER_FEATURE
100
AcDbLine
 62
7
  6
CONTINUOUS
 10
13.7846755581
 20
11.8098414041
 11
13.7803534879
 21
11.7958551798
  0
LINE
  5
292
100
AcDbEntity
  8
LAYER_FEATURE
100
AcDbLine
 62
7
  6
CONTINUOUS
 10
13.8070846085
 20
11.6372899745
 11
13.8438819547
 21
11.7563662304
  0
LINE
  5
293
100
AcDbEntity
  8
LAYER_FEATURE
100
AcDbLine
 62
7
  6
CONTINUOUS
 10
14.4453595256
 20
11.7958551798
 11
14.5745859068
 21
11.6374374544
  0
LINE
  5
294
100
AcDbEntity
  8
LAYER_FEATURE
100
AcDbLine
 62
7
  6
CONTINUOUS
 10
14.4140434518
 20
11.7958551798
 11
14.4071800098
 21
11.8098414041
  0
LINE
  5
295
100
AcDbEntity
  8
LAYER_FEATURE
100
AcDbLine
 62
7
  6
CONTINUOUS
 10
14.4384960836
 20
11.8098414041
 11
14.4453595256
 21
11.7958551798
  0
LINE
  5
296
100
AcDbEntity
  8
LAYER_FEATURE
100
AcDbLine
 62
7
  6
CONTINUOUS
 10
14.4402973271
 20
11.6374374544
 11
14.4140434518
 21
11.7958551798
  0
LINE
  5
297
100
AcDbEntity
  8
LAYER_FEATURE
100
AcDbLine
 62
7
  6
CONTINUOUS
 10
14.4401738359
 20
11.6353438703
 11
14.4402973271
 21
11.6374374544
  0
LINE
  5
298
100
AcDbEntity
  8
LAYER_FEATURE
100
AcDbLine
 62
7
  6
CONTINUOUS
 10
14.1015205401
 20
11.8098414041
 11
14.0971984699
 21
11.7958551798
  0
LINE
  5
299
100
AcDbEntity
  8
LAYER_FEATURE
100
AcDbLine
 62
7
  6
CONTINUOUS
 10
14.1239295904
 20
11.6372899745
 11
14.1607269366
 21
11.7563662304
  0
LINE
  5
29A
100
AcDbEntity
  8
LAYER_FEATURE
100
AcDbLine
 62
7
  6
CONTINUOUS
 10
14.7622045075
 20
11.7958551798
 11
14.8914308887
 21
11.6374374544
  0
LINE
  5
29B
100
AcDbEntity
  8
LAYER_FEATURE
100
AcDbLine
 62
7
  6
CONTINUOUS
 10
14.7308884337
 20
11.7958551798
 11
14.7240249917
 21
11.8098414041
  0
LINE
  5
29C
100
AcDbEntity
  8
0
100
AcDbLine
 62
7
  6
CONTINUOUS
 10
13.3219227296
 20
11.6311285382
 11
13.4812375635
 21
11.6311285382
  0
LINE
  5
29D
100
AcDbEntity
  8
LAYER_FEATURE
100
AcDbLine
 62
7
  6
CONTINUOUS
 10
13.6387677116
 20
11.6311285382
 11
13.7980825454
 21
11.6311285382
  0
LINE
  5
29E
100
AcDbEntity
  8
LAYER_FEATURE
100
AcDbLine
 62
7
  6
CONTINUOUS
 10
13.9556126935
 20
11.6311285382
 11
14.1149275274
 21
11.6311285382
  0
LINE
  5
29F
100
AcDbEntity
  8
LAYER_FEATURE
100
AcDbLine
 62
7
  6
CONTINUOUS
 10
14.2724576755
 20
11.6311285382
 11
14.4317725093
 21
11.6311285382
  0
LINE
  5
2A0
100
AcDbEntity
  8
LAYER_FEATURE
100
AcDbLine
 62
7
  6
CONTINUOUS
 10
14.5893026574
 20
11.6311285382
 11
14.7486174913
 21
11.6311285382
  0
LINE
  5
2A1
100
AcDbEntity
  8
LAYER_FEATURE
100
AcDbLine
 62
7
  6
CONTINUOUS
 10
14.9061476393
 20
11.6311285382
 11
15.0654624732
 21
11.6311285382
  0
LINE
  5
2A2
100
AcDbEntity
  8
LAYER_FEATURE
100
AcDbLine
 62
7
  6
CONTINUOUS
 10
15.2229926213
 20
11.6311285382
 11
15.3823074551
 21
11.6311285382
  0
LINE
  5
2A3
100
AcDbEntity
  8
LAYER_FEATURE
100
AcDbLine
 62
7
  6
CONTINUOUS
 10
15.5398376032
 20
11.6311285382
 11
15.6991524371
 21
11.6311285382
  0
LINE
  5
2A4
100
AcDbEntity
  8
LAYER_FEATURE
100
AcDbLine
 62
7
  6
CONTINUOUS
 10
15.8566825851
 20
11.6311285382
 11
16.015997419
 21
11.6311285382
  0
LINE
  5
2A5
100
AcDbEntity
  8
LAYER_FEATURE
100
AcDbLine
 62
7
  6
CONTINUOUS
 10
16.1735275671
 20
11.6311285382
 11
16.3328424009
 21
11.6311285382
  0
LINE
  5
2A6
100
AcDbEntity
  8
LAYER_FEATURE
100
AcDbLine
 62
7
  6
CONTINUOUS
 10
16.490372549
 20
11.6311285382
 11
16.6496873829
 21
11.6311285382
  0
LINE
  5
2A7
100
AcDbEntity
  8
LAYER_FEATURE
100
AcDbLine
 62
7
  6
CONTINUOUS
 10
16.8072175309
 20
11.6311285382
 11
16.9665323648
 21
11.6311285382
  0
LINE
  5
2A8
100
AcDbEntity
  8
LAYER_FEATURE
100
AcDbLine
 62
7
  6
CONTINUOUS
 10
17.1240625129
 20
11.6311285382
 11
17.2833773468
 21
11.6311285382
  0
LINE
  5
2A9
100
AcDbEntity
  8
LAYER_FEATURE
100
AcDbLine
 62
7
  6
CONTINUOUS
 10
14.7553410655
 20
11.8098414041
 11
14.7622045075
 21
11.7958551798
  0
LINE
  5
2AA
100
AcDbEntity
  8
LAYER_FEATURE
100
AcDbLine
 62
7
  6
CONTINUOUS
 10
14.7571423091
 20
11.6374374544
 11
14.7308884337
 21
11.7958551798
  0
LINE
  5
2AB
100
AcDbEntity
  8
LAYER_FEATURE
100
AcDbLine
 62
7
  6
CONTINUOUS
 10
14.7570188178
 20
11.6353438703
 11
14.7571423091
 21
11.6374374544
  0
LINE
  5
2AC
100
AcDbEntity
  8
LAYER_FEATURE
100
AcDbLine
 62
7
  6
CONTINUOUS
 10
14.418365522
 20
11.8098414041
 11
14.4140434518
 21
11.7958551798
  0
LINE
  5
2AD
100
AcDbEntity
  8
LAYER_FEATURE
100
AcDbLine
 62
7
  6
CONTINUOUS
 10
14.4407745724
 20
11.6372899745
 11
14.4775719186
 21
11.7563662304
  0
LINE
  5
2AE
100
AcDbEntity
  8
LAYER_FEATURE
100
AcDbLine
 62
7
  6
CONTINUOUS
 10
13.456645064
 20
11.8098414041
 11
13.4879611378
 21
11.8098414041
  0
LINE
  5
2AF
100
AcDbEntity
  8
LAYER_FEATURE
100
AcDbLine
 62
7
  6
CONTINUOUS
 10
13.7734900459
 20
11.8098414041
 11
13.8048061197
 21
11.8098414041
  0
LINE
  5
2B0
100
AcDbEntity
  8
LAYER_FEATURE
100
AcDbLine
 62
7
  6
CONTINUOUS
 10
14.0903350279
 20
11.8098414041
 11
14.1216511017
 21
11.8098414041
  0
LINE
  5
2B1
100
AcDbEntity
  8
LAYER_FEATURE
100
AcDbLine
 62
7
  6
CONTINUOUS
 10
14.4071800098
 20
11.8098414041
 11
14.4384960836
 21
11.8098414041
  0
LINE
  5
2B2
100
AcDbEntity
  8
LAYER_FEATURE
100
AcDbLine
 62
7
  6
CONTINUOUS
 10
14.7240249917
 20
11.8098414041
 11
14.7553410655
 21
11.8098414041
  0
LINE
  5
2B3
100
AcDbEntity
  8
LAYER_FEATURE
100
AcDbLine
 62
7
  6
CONTINUOUS
 10
15.0408699737
 20
11.8098414041
 11
15.0721860475
 21
11.8098414041
  0
LINE
  5
2B4
100
AcDbEntity
  8
LAYER_FEATURE
100
AcDbLine
 62
7
  6
CONTINUOUS
 10
15.3577149556
 20
11.8098414041
 11
15.3890310294
 21
11.8098414041
  0
LINE
  5
2B5
100
AcDbEntity
  8
LAYER_FEATURE
100
AcDbLine
 62
7
  6
CONTINUOUS
 10
15.6745599375
 20
11.8098414041
 11
15.7058760113
 21
11.8098414041
  0
LINE
  5
2B6
100
AcDbEntity
  8
LAYER_FEATURE
100
AcDbLine
 62
7
  6
CONTINUOUS
 10
15.9914049195
 20
11.8098414041
 11
16.0227209933
 21
11.8098414041
  0
LINE
  5
2B7
100
AcDbEntity
  8
LAYER_FEATURE
100
AcDbLine
 62
7
  6
CONTINUOUS
 10
16.3082499014
 20
11.8098414041
 11
16.3395659752
 21
11.8098414041
  0
LINE
  5
2B8
100
AcDbEntity
  8
LAYER_FEATURE
100
AcDbLine
 62
7
  6
CONTINUOUS
 10
16.6250948834
 20
11.8098414041
 11
16.6564109572
 21
11.8098414041
  0
LINE
  5
2B9
100
AcDbEntity
  8
LAYER_FEATURE
100
AcDbLine
 62
7
  6
CONTINUOUS
 10
16.9419398653
 20
11.8098414041
 11
16.9732559391
 21
11.8098414041
  0
LINE
  5
2BA
100
AcDbEntity
  8
0
100
AcDbLine
 62
7
  6
CONTINUOUS
 10
17.2450134478
 20
11.8238276284
 11
13.1711606713
 21
11.8238276284
  0
LINE
  5
2BB
100
AcDbEntity
  8
LAYER_FEATURE
100
AcDbLine
 62
7
  6
CONTINUOUS
 10
15.0790494895
 20
11.7958551798
 11
15.2082758706
 21
11.6374374544
  0
LINE
  5
2BC
100
AcDbEntity
  8
LAYER_FEATURE
100
AcDbLine
 62
7
  6
CONTINUOUS
 10
15.0477334157
 20
11.7958551798
 11
15.0408699737
 21
11.8098414041
  0
LINE
  5
2BD
100
AcDbEntity
  8
LAYER_FEATURE
100
AcDbLine
 62
7
  6
CONTINUOUS
 10
15.0721860475
 20
11.8098414041
 11
15.0790494895
 21
11.7958551798
  0
LINE
  5
2BE
100
AcDbEntity
  8
LAYER_FEATURE
100
AcDbLine
 62
7
  6
CONTINUOUS
 10
14.7352105039
 20
11.8098414041
 11
14.7308884337
 21
11.7958551798
  0
LINE
  5
2BF
100
AcDbEntity
  8
LAYER_FEATURE
100
AcDbLine
 62
7
  6
CONTINUOUS
 10
15.3958944714
 20
11.7958551798
 11
15.5251208526
 21
11.6374374544
  0
LINE
  5
2C0
100
AcDbEntity
  8
LAYER_FEATURE
100
AcDbLine
 62
7
  6
CONTINUOUS
 10
15.073987291
 20
11.6374374544
 11
15.0477334157
 21
11.7958551798
  0
LINE
  5
2C1
100
AcDbEntity
  8
LAYER_FEATURE
100
AcDbLine
 62
7
  6
CONTINUOUS
 10
15.0738637997
 20
11.6353438703
 11
15.073987291
 21
11.6374374544
  0
LINE
  5
2C2
100
AcDbEntity
  8
LAYER_FEATURE
100
AcDbLine
 62
7
  6
CONTINUOUS
 10
14.7576195543
 20
11.6372899745
 11
14.7944169005
 21
11.7563662304
  0
LINE
  5
2C3
100
AcDbEntity
  8
LAYER_FEATURE
100
AcDbLine
 62
7
  6
CONTINUOUS
 10
15.3645783976
 20
11.7958551798
 11
15.3577149556
 21
11.8098414041
  0
LINE
  5
2C4
100
AcDbEntity
  8
LAYER_FEATURE
100
AcDbLine
 62
7
  6
CONTINUOUS
 10
15.3890310294
 20
11.8098414041
 11
15.3958944714
 21
11.7958551798
  0
LINE
  5
2C5
100
AcDbEntity
  8
LAYER_FEATURE
100
AcDbLine
 62
7
  6
CONTINUOUS
 10
15.0520554859
 20
11.8098414041
 11
15.0477334157
 21
11.7958551798
  0
LINE
  5
2C6
100
AcDbEntity
  8
LAYER_FEATURE
100
AcDbLine
 62
7
  6
CONTINUOUS
 10
15.7127394533
 20
11.7958551798
 11
15.8419658345
 21
11.6374374544
  0
LINE
  5
2C7
100
AcDbEntity
  8
LAYER_FEATURE
100
AcDbLine
 62
7
  6
CONTINUOUS
 10
15.390832273
 20
11.6374374544
 11
15.3645783976
 21
11.7958551798
  0
LINE
  5
2C8
100
AcDbEntity
  8
LAYER_FEATURE
100
AcDbLine
 62
7
  6
CONTINUOUS
 10
15.3907091465
 20
11.6353437572
 11
15.390832273
 21
11.6374374544
  0
LINE
  5
2C9
100
AcDbEntity
  8
LAYER_FEATURE
100
AcDbLine
 62
7
  6
CONTINUOUS
 10
15.0744645362
 20
11.6372899745
 11
15.1112618824
 21
11.7563662304
  0
LINE
  5
2CA
100
AcDbEntity
  8
LAYER_FEATURE
100
AcDbLine
 62
7
  6
CONTINUOUS
 10
16.0295844353
 20
11.7958551798
 11
16.1588108164
 21
11.6374374544
  0
LINE
  5
2CB
100
AcDbEntity
  8
LAYER_FEATURE
100
AcDbLine
 62
7
  6
CONTINUOUS
 10
15.6814233795
 20
11.7958551798
 11
15.6745599375
 21
11.8098414041
  0
LINE
  5
2CC
100
AcDbEntity
  8
LAYER_FEATURE
100
AcDbLine
 62
7
  6
CONTINUOUS
 10
15.7058760113
 20
11.8098414041
 11
15.7127394533
 21
11.7958551798
  0
LINE
  5
2CD
100
AcDbEntity
  8
LAYER_FEATURE
100
AcDbLine
 62
7
  6
CONTINUOUS
 10
15.3689004678
 20
11.8098414041
 11
15.3645783976
 21
11.7958551798
  0
LINE
  5
2CE
100
AcDbEntity
  8
LAYER_FEATURE
100
AcDbLine
 62
7
  6
CONTINUOUS
 10
15.3913095182
 20
11.6372899745
 11
15.4281068644
 21
11.7563662304
  0
LINE
  5
2CF
100
AcDbEntity
  8
LAYER_FEATURE
100
AcDbLine
 62
7
  6
CONTINUOUS
 10
15.9982683615
 20
11.7958551798
 11
15.9914049195
 21
11.8098414041
  0
LINE
  5
2D0
100
AcDbEntity
  8
LAYER_FEATURE
100
AcDbLine
 62
7
  6
CONTINUOUS
 10
16.0227209933
 20
11.8098414041
 11
16.0295844353
 21
11.7958551798
  0
LINE
  5
2D1
100
AcDbEntity
  8
LAYER_FEATURE
100
AcDbLine
 62
7
  6
CONTINUOUS
 10
15.7076772549
 20
11.6374374544
 11
15.6814233795
 21
11.7958551798
  0
LINE
  5
2D2
100
AcDbEntity
  8
LAYER_FEATURE
100
AcDbLine
 62
7
  6
CONTINUOUS
 10
15.7075537636
 20
11.6353438703
 11
15.7076772549
 21
11.6374374544
  0
LINE
  5
2D3
100
AcDbEntity
  8
LAYER_FEATURE
100
AcDbLine
 62
7
  6
CONTINUOUS
 10
16.3464294172
 20
11.7958551798
 11
16.4756557984
 21
11.6374374544
  0
LINE
  5
2D4
100
AcDbEntity
  8
LAYER_FEATURE
100
AcDbLine
 62
7
  6
CONTINUOUS
 10
15.6857454497
 20
11.8098414041
 11
15.6814233795
 21
11.7958551798
  0
LINE
  5
2D5
100
AcDbEntity
  8
LAYER_FEATURE
100
AcDbLine
 62
7
  6
CONTINUOUS
 10
15.7081545001
 20
11.6372899745
 11
15.7449518463
 21
11.7563662304
  0
LINE
  5
2D6
100
AcDbEntity
  8
LAYER_FEATURE
100
AcDbLine
 62
7
  6
CONTINUOUS
 10
16.6632743992
 20
11.7958551798
 11
16.7925007803
 21
11.6374374544
  0
LINE
  5
2D7
100
AcDbEntity
  8
LAYER_FEATURE
100
AcDbLine
 62
7
  6
CONTINUOUS
 10
16.3151133434
 20
11.7958551798
 11
16.3082499014
 21
11.8098414041
  0
LINE
  5
2D8
100
AcDbEntity
  8
LAYER_FEATURE
100
AcDbLine
 62
7
  6
CONTINUOUS
 10
16.3395659752
 20
11.8098414041
 11
16.3464294172
 21
11.7958551798
  0
LINE
  5
2D9
100
AcDbEntity
  8
LAYER_FEATURE
100
AcDbLine
 62
7
  6
CONTINUOUS
 10
16.0245222368
 20
11.6374374544
 11
15.9982683615
 21
11.7958551798
  0
LINE
  5
2DA
100
AcDbEntity
  8
LAYER_FEATURE
100
AcDbLine
 62
7
  6
CONTINUOUS
 10
16.0243987455
 20
11.6353438703
 11
16.0245222368
 21
11.6374374544
  0
LINE
  5
2DB
100
AcDbEntity
  8
LAYER_FEATURE
100
AcDbLine
 62
7
  6
CONTINUOUS
 10
16.0025904317
 20
11.8098414041
 11
15.9982683615
 21
11.7958551798
  0
LINE
  5
2DC
100
AcDbEntity
  8
LAYER_FEATURE
100
AcDbLine
 62
7
  6
CONTINUOUS
 10
16.024999482
 20
11.6372899745
 11
16.0617968282
 21
11.7563662304
  0
LINE
  5
2DD
100
AcDbEntity
  8
LAYER_FEATURE
100
AcDbLine
 62
7
  6
CONTINUOUS
 10
16.9801193811
 20
11.7958551798
 11
17.1093457622
 21
11.6374374544
  0
LINE
  5
2DE
100
AcDbEntity
  8
LAYER_FEATURE
100
AcDbLine
 62
7
  6
CONTINUOUS
 10
16.6319583254
 20
11.7958551798
 11
16.6250948834
 21
11.8098414041
  0
LINE
  5
2DF
100
AcDbEntity
  8
LAYER_FEATURE
100
AcDbLine
 62
7
  6
CONTINUOUS
 10
16.6564109572
 20
11.8098414041
 11
16.6632743992
 21
11.7958551798
  0
LINE
  5
2E0
100
AcDbEntity
  8
LAYER_FEATURE
100
AcDbLine
 62
7
  6
CONTINUOUS
 10
16.3413672188
 20
11.6374374544
 11
16.3151133434
 21
11.7958551798
  0
LINE
  5
2E1
100
AcDbEntity
  8
LAYER_FEATURE
100
AcDbLine
 62
7
  6
CONTINUOUS
 10
16.3412437275
 20
11.6353438703
 11
16.3413672188
 21
11.6374374544
  0
LINE
  5
2E2
100
AcDbEntity
  8
0
100
AcDbLine
 62
7
  6
CONTINUOUS
 10
13.6552933181
 20
13.3904814476
 11
17.7291460946
 21
13.3904814476
  0
LINE
  5
2E3
100
AcDbEntity
  8
LAYER_FEATURE
100
AcDbLine
 62
7
  6
CONTINUOUS
 10
16.3194354136
 20
11.8098414041
 11
16.3151133434
 21
11.7958551798
  0
LINE
  5
2E4
100
AcDbEntity
  8
LAYER_FEATURE
100
AcDbLine
 62
7
  6
CONTINUOUS
 10
16.341844464
 20
11.6372899745
 11
16.3786418102
 21
11.7563662304
  0
LINE
  5
2E5
100
AcDbEntity
  8
LAYER_FEATURE
100
AcDbLine
 62
7
  6
CONTINUOUS
 10
16.9488033073
 20
11.7958551798
 11
16.9419398653
 21
11.8098414041
  0
LINE
  5
2E6
100
AcDbEntity
  8
LAYER_FEATURE
100
AcDbLine
 62
7
  6
CONTINUOUS
 10
16.9732559391
 20
11.8098414041
 11
16.9801193811
 21
11.7958551798
  0
LINE
  5
2E7
100
AcDbEntity
  8
LAYER_FEATURE
100
AcDbLine
 62
7
  6
CONTINUOUS
 10
16.6582122007
 20
11.6374374544
 11
16.6319583254
 21
11.7958551798
  0
LINE
  5
2E8
100
AcDbEntity
  8
LAYER_FEATURE
100
AcDbLine
 62
7
  6
CONTINUOUS
 10
16.6580887094
 20
11.6353438703
 11
16.6582122007
 21
11.6374374544
  0
LINE
  5
2E9
100
AcDbEntity
  8
LAYER_FEATURE
100
AcDbLine
 62
7
  6
CONTINUOUS
 10
16.6362803956
 20
11.8098414041
 11
16.6319583254
 21
11.7958551798
  0
LINE
  5
2EA
100
AcDbEntity
  8
0
100
AcDbLine
 62
7
  6
CONTINUOUS
 10
17.2656482892
 20
11.7958551798
 11
17.2542092192
 21
11.8191655536
  0
LINE
  5
2EB
100
AcDbEntity
  8
LAYER_FEATURE
100
AcDbLine
 62
7
  6
CONTINUOUS
 10
16.6586894459
 20
11.6372899745
 11
16.6954867921
 21
11.7563662304
  0
LINE
  5
2EC
100
AcDbEntity
  8
LAYER_FEATURE
100
AcDbLine
 62
7
  6
CONTINUOUS
 10
16.9750571826
 20
11.6374374544
 11
16.9488033073
 21
11.7958551798
  0
LINE
  5
2ED
100
AcDbEntity
  8
LAYER_FEATURE
100
AcDbLine
 62
7
  6
CONTINUOUS
 10
16.9749336914
 20
11.6353438703
 11
16.9750571826
 21
11.6374374544
  0
LINE
  5
2EE
100
AcDbEntity
  8
LAYER_FEATURE
100
AcDbLine
 62
7
  6
CONTINUOUS
 10
16.9531253775
 20
11.8098414041
 11
16.9488033073
 21
11.7958551798
  0
LINE
  5
2EF
100
AcDbEntity
  8
LAYER_FEATURE
100
AcDbLine
 62
7
  6
CONTINUOUS
 10
17.2919021646
 20
11.6374374544
 11
17.2656482892
 21
11.7958551798
  0
LINE
  5
2F0
100
AcDbEntity
  8
LAYER_FEATURE
100
AcDbLine
 62
7
  6
CONTINUOUS
 10
16.9755344279
 20
11.6372899745
 11
17.0123317741
 21
11.7563662304
  0
LINE
  5
2F1
100
AcDbEntity
  8
LAYER_FEATURE
100
AcDbLine
 62
7
  6
CONTINUOUS
 10
17.2917786733
 20
11.6353438703
 11
17.2919021646
 21
11.6374374544
  0
LINE
  5
2F2
100
AcDbEntity
  8
LAYER_FEATURE
100
AcDbLine
 62
7
  6
CONTINUOUS
 10
17.749780936
 20
13.362508999
 11
17.2656482892
 21
11.7958551798
  0
LINE
  5
2F3
100
AcDbEntity
  8
LAYER_FEATURE
100
AcDbLine
 62
7
  6
CONTINUOUS
 10
17.2923794098
 20
11.6372899745
 11
17.775910722
 21
13.2019978743
  0
LINE
  5
2F4
100
AcDbEntity
  8
LAYER_FEATURE
100
AcDbLine
 62
7
  6
CONTINUOUS
 10
17.7760348114
 20
13.2040912737
 11
17.7759113201
 21
13.2019976895
  0
LINE
  5
2F5
100
AcDbEntity
  8
0
100
AcDbLine
 62
7
  6
CONTINUOUS
 10
17.738341866
 20
13.3858193729
 11
17.749780936
 21
13.362508999
  0
LINE
  5
2F6
100
AcDbEntity
  8
LAYER_FEATURE
100
AcDbLine
 62
7
  6
CONTINUOUS
 10
17.7760348114
 20
13.2040912737
 11
17.749780936
 21
13.362508999
  0
ARC
  5
2F7
100
AcDbEntity
  8
0
100
AcDbCircle
 62
7
  6
CONTINUOUS
 10
3.9798828658
 20
5.3780365634
 40
0.0129166667
100
AcDbArc
 50
192.3713234544
 51
270.0
  0
ARC
  5
2F8
100
AcDbEntity
  8
0
100
AcDbCircle
 62
7
  6
CONTINUOUS
 10
4.1528516865
 20
5.3780365634
 40
0.0129166667
100
AcDbArc
 50
270.0
 51
347.6286765456
  0
ARC
  5
2F9
100
AcDbEntity
  8
LAYER_FEATURE
100
AcDbCircle
 62
7
  6
CONTINUOUS
 10
4.3238828658
 20
5.3780365634
 40
0.0129166667
100
AcDbArc
 50
192.3713234544
 51
270.0
  0
ARC
  5
2FA
100
AcDbEntity
  8
LAYER_FEATURE
100
AcDbCircle
 62
7
  6
CONTINUOUS
 10
4.4968516865
 20
5.3780365634
 40
0.0129166667
100
AcDbArc
 50
270.0
 51
347.6286765456
  0
ARC
  5
2FB
100
AcDbEntity
  8
LAYER_FEATURE
100
AcDbCircle
 62
7
  6
CONTINUOUS
 10
4.6678828658
 20
5.3780365634
 40
0.0129166667
100
AcDbArc
 50
192.3713234544
 51
270.0
  0
ARC
  5
2FC
100
AcDbEntity
  8
LAYER_FEATURE
100
AcDbCircle
 62
7
  6
CONTINUOUS
 10
4.8408516865
 20
5.3780365634
 40
0.0129166667
100
AcDbArc
 50
270.0
 51
347.6286765456
  0
ARC
  5
2FD
100
AcDbEntity
  8
LAYER_FEATURE
100
AcDbCircle
 62
7
  6
CONTINUOUS
 10
5.0118828658
 20
5.3780365634
 40
0.0129166667
100
AcDbArc
 50
192.3713234544
 51
270.0
  0
ARC
  5
2FE
100
AcDbEntity
  8
LAYER_FEATURE
100
AcDbCircle
 62
7
  6
CONTINUOUS
 10
5.1848516865
 20
5.3780365634
 40
0.0129166667
100
AcDbArc
 50
270.0
 51
347.6286765456
  0
ARC
  5
2FF
100
AcDbEntity
  8
LAYER_FEATURE
100
AcDbCircle
 62
7
  6
CONTINUOUS
 10
5.3558828658
 20
5.3780365634
 40
0.0129166667
100
AcDbArc
 50
192.3713234544
 51
270.0
  0
ARC
  5
300
100
AcDbEntity
  8
LAYER_FEATURE
100
AcDbCircle
 62
7
  6
CONTINUOUS
 10
5.5288516865
 20
5.3780365634
 40
0.0129166667
100
AcDbArc
 50
270.0
 51
347.6286765456
  0
ARC
  5
301
100
AcDbEntity
  8
LAYER_FEATURE
100
AcDbCircle
 62
7
  6
CONTINUOUS
 10
5.6998828658
 20
5.3780365634
 40
0.0129166667
100
AcDbArc
 50
192.3713234544
 51
270.0
  0
ARC
  5
302
100
AcDbEntity
  8
LAYER_FEATURE
100
AcDbCircle
 62
7
  6
CONTINUOUS
 10
5.8728516865
 20
5.3780365634
 40
0.0129166667
100
AcDbArc
 50
270.0
 51
347.6286765456
  0
ARC
  5
303
100
AcDbEntity
  8
LAYER_FEATURE
100
AcDbCircle
 62
7
  6
CONTINUOUS
 10
6.0438828658
 20
5.3780365634
 40
0.0129166667
100
AcDbArc
 50
192.3713234544
 51
270.0
  0
ARC
  5
304
100
AcDbEntity
  8
LAYER_FEATURE
100
AcDbCircle
 62
7
  6
CONTINUOUS
 10
6.2168516865
 20
5.3780365634
 40
0.0129166667
100
AcDbArc
 50
270.0
 51
347.6286765456
  0
ARC
  5
305
100
AcDbEntity
  8
LAYER_FEATURE
100
AcDbCircle
 62
7
  6
CONTINUOUS
 10
6.3878828658
 20
5.3780365634
 40
0.0129166667
100
AcDbArc
 50
192.3713234544
 51
270.0
  0
ARC
  5
306
100
AcDbEntity
  8
LAYER_FEATURE
100
AcDbCircle
 62
7
  6
CONTINUOUS
 10
6.5608516865
 20
5.3780365634
 40
0.0129166667
100
AcDbArc
 50
270.0
 51
347.6286765456
  0
ARC
  5
307
100
AcDbEntity
  8
LAYER_FEATURE
100
AcDbCircle
 62
7
  6
CONTINUOUS
 10
6.7318828658
 20
5.3780365634
 40
0.0129166667
100
AcDbArc
 50
192.3713234544
 51
270.0
  0
ARC
  5
308
100
AcDbEntity
  8
LAYER_FEATURE
100
AcDbCircle
 62
7
  6
CONTINUOUS
 10
6.9048516865
 20
5.3780365634
 40
0.0129166667
100
AcDbArc
 50
270.0
 51
347.6286765456
  0
ARC
  5
309
100
AcDbEntity
  8
LAYER_FEATURE
100
AcDbCircle
 62
7
  6
CONTINUOUS
 10
7.0758828658
 20
5.3780365634
 40
0.0129166667
100
AcDbArc
 50
192.3713234544
 51
270.0
  0
ARC
  5
30A
100
AcDbEntity
  8
LAYER_FEATURE
100
AcDbCircle
 62
7
  6
CONTINUOUS
 10
7.2488516865
 20
5.3780365634
 40
0.0129166667
100
AcDbArc
 50
270.0
 51
347.6286765456
  0
ARC
  5
30B
100
AcDbEntity
  8
LAYER_FEATURE
100
AcDbCircle
 62
7
  6
CONTINUOUS
 10
7.4198828658
 20
5.3780365634
 40
0.0129166667
100
AcDbArc
 50
192.3713234544
 51
270.0
  0
ARC
  5
30C
100
AcDbEntity
  8
LAYER_FEATURE
100
AcDbCircle
 62
7
  6
CONTINUOUS
 10
7.5928516865
 20
5.3780365634
 40
0.0129166667
100
AcDbArc
 50
270.0
 51
347.6286765456
  0
ARC
  5
30D
100
AcDbEntity
  8
LAYER_FEATURE
100
AcDbCircle
 62
7
  6
CONTINUOUS
 10
8.2808516865
 20
5.3780365634
 40
0.0129166667
100
AcDbArc
 50
270.0
 51
347.6286765456
  0
ARC
  5
30E
100
AcDbEntity
  8
LAYER_FEATURE
100
AcDbCircle
 62
7
  6
CONTINUOUS
 10
8.1078828658
 20
5.3780365634
 40
0.0129166667
100
AcDbArc
 50
192.3713234544
 51
270.0
  0
ARC
  5
30F
100
AcDbEntity
  8
LAYER_FEATURE
100
AcDbCircle
 62
7
  6
CONTINUOUS
 10
7.9368516865
 20
5.3780365634
 40
0.0129166667
100
AcDbArc
 50
270.0
 51
347.6286765456
  0
ARC
  5
310
100
AcDbEntity
  8
LAYER_FEATURE
100
AcDbCircle
 62
7
  6
CONTINUOUS
 10
7.7638828658
 20
5.3780365634
 40
0.0129166667
100
AcDbArc
 50
192.3713234544
 51
270.0
  0
ARC
  5
311
100
AcDbEntity
  8
0
100
AcDbCircle
 62
7
  6
CONTINUOUS
 10
3.9188672762
 20
5.6676198968
 40
0.0075
100
AcDbArc
 50
90.0
 51
180.0
  0
ARC
  5
312
100
AcDbEntity
  8
0
100
AcDbCircle
 62
7
  6
CONTINUOUS
 10
8.3418672762
 20
5.6676198968
 40
0.0075
100
AcDbArc
 50
0.0
 51
90.0
  0
ARC
  5
313
100
AcDbEntity
  8
0
100
AcDbCircle
 62
7
  6
CONTINUOUS
 10
13.168642758
 20
11.8206501742
 40
0.0024701287
100
AcDbArc
 50
162.8176811652
 51
173.1764857031
  0
SPLINE
  5
314
100
AcDbEntity
  8
0
100
AcDbSpline
 62
7
  6
CONTINUOUS
 70
0
 71
3
 72
11
 73
7
 74
0
 42
0.0000001
 43
0.0000001
 44
0.0000000001
 40
0.0
 40
0.0
 40
0.0
 40
0.0
 40
0.2646775377
 40
0.5366308069
 40
0.7885558833
 40
1.0
 40
1.0
 40
1.0
 40
1.0
 10
17.7291460946
 20
13.3904814476
 30
0.0
 10
17.7300926545
 20
13.3904814476
 30
0.0
 10
17.7320156929
 20
13.3902221204
 30
0.0
 10
17.7346838688
 20
13.3892430918
 30
0.0
 10
17.7369063895
 20
13.3877979733
 30
0.0
 10
17.7380087354
 20
13.3864982218
 30
0.0
 10
17.738341866
 20
13.3858193729
 30
0.0
  0
SPLINE
  5
315
100
AcDbEntity
  8
0
100
AcDbSpline
 62
7
  6
CONTINUOUS
 70
0
 71
3
 72
9
 73
5
 74
0
 42
0.0000001
 43
0.0000001
 44
0.0000000001
 40
0.0
 40
0.0
 40
0.0
 40
0.0
 40
0.4775626153
 40
1.0
 40
1.0
 40
1.0
 40
1.0
 10
13.1661901256
 20
11.8209436538
 30
0.0
 10
13.166155469
 20
11.8206542244
 30
0.0
 10
13.1661907417
 20
11.8200330174
 30
0.0
 10
13.1664000442
 20
11.8194518292
 30
0.0
 10
13.1665405278
 20
11.8191655536
 30
0.0
  0
SPLINE
  5
316
100
AcDbEntity
  8
0
100
AcDbSpline
 62
7
  6
CONTINUOUS
 70
0
 71
3
 72
11
 73
7
 74
0
 42
0.0000001
 43
0.0000001
 44
0.0000000001
 40
0.0
 40
0.0
 40
0.0
 40
0.0
 40
0.2022219841
 40
0.4299972305
 40
0.6965191172
 40
1.0
 40
1.0
 40
1.0
 40
1.0
 10
13.6504155189
 20
13.3880337022
 30
0.0
 10
13.6505311374
 20
13.3884070159
 30
0.0
 10
13.6509816075
 20
13.389145523
 30
0.0
 10
13.6521150412
 20
13.3899214938
 30
0.0
 10
13.653601065
 20
13.3903875217
 30
0.0
 10
13.6547068206
 20
13.3904814476
 30
0.0
 10
13.6552933181
 20
13.3904814476
 30
0.0
  0
SPLINE
  5
317
100
AcDbEntity
  8
LAYER_FEATURE
100
AcDbSpline
 62
7
  6
CONTINUOUS
 70
0
 71
3
 72
12
 73
8
 74
0
 42
0.0000001
 43
0.0000001
 44
0.0000000001
 40
0.0
 40
0.0
 40
0.0
 40
0.0
 40
0.3032475883
 40
0.5692005124
 40
0.7966399909
 40
0.9000539869
 40
1.0
 40
1.0
 40
1.0
 40
1.0
 10
17.2833773468
 20
11.6311285382
 30
0.0
 10
17.2843879644
 20
11.6311285382
 30
0.0
 10
17.2862924763
 20
11.6312904488
 30
0.0
 10
17.2888503099
 20
11.6320898295
 30
0.0
 10
17.2905268959
 20
11.6332474535
 30
0.0
 10
17.291401039
 20
11.6343998754
 30
0.0
 10
17.291679704
 20
11.6350258275
 30
0.0
 10
17.2917776882
 20
11.6353441743
 30
0.0
  0
SPLINE
  5
318
100
AcDbEntity
  8
LAYER_FEATURE
100
AcDbSpline
 62
7
  6
CONTINUOUS
 70
0
 71
3
 72
11
 73
7
 74
0
 42
0.0000001
 43
0.0000001
 44
0.0000000001
 40
0.0
 40
0.0
 40
0.0
 40
0.0
 40
0.2257781761
 40
0.4797703389
 40
0.744520659
 40
1.0
 40
1.0
 40
1.0
 40
1.0
 10
17.1093457622
 20
11.6374374544
 30
0.0
 10
17.1101281166
 20
11.6364783717
 30
0.0
 10
17.1121301791
 20
11.6347152618
 30
0.0
 10
17.1157365614
 20
11.6327525668
 30
0.0
 10
17.1198052216
 20
11.6314618418
 30
0.0
 10
17.1226619856
 20
11.6311285382
 30
0.0
 10
17.1240625129
 20
11.6311285382
 30
0.0
  0
SPLINE
  5
319
100
AcDbEntity
  8
LAYER_FEATURE
100
AcDbSpline
 62
7
  6
CONTINUOUS
 70
0
 71
3
 72
12
 73
8
 74
0
 42
0.0000001
 43
0.0000001
 44
0.0000000001
 40
0.0
 40
0.0
 40
0.0
 40
0.0
 40
0.3032475883
 40
0.5692005124
 40
0.7966399909
 40
0.9000539869
 40
1.0
 40
1.0
 40
1.0
 40
1.0
 10
16.9665323648
 20
11.6311285382
 30
0.0
 10
16.9675429824
 20
11.6311285382
 30
0.0
 10
16.9694474944
 20
11.6312904488
 30
0.0
 10
16.972005328
 20
11.6320898295
 30
0.0
 10
16.973681914
 20
11.6332474535
 30
0.0
 10
16.9745560571
 20
11.6343998754
 30
0.0
 10
16.9748347221
 20
11.6350258275
 30
0.0
 10
16.9749327063
 20
11.6353441743
 30
0.0
  0
SPLINE
  5
31A
100
AcDbEntity
  8
LAYER_FEATURE
100
AcDbSpline
 62
7
  6
CONTINUOUS
 70
0
 71
3
 72
11
 73
7
 74
0
 42
0.0000001
 43
0.0000001
 44
0.0000000001
 40
0.0
 40
0.0
 40
0.0
 40
0.0
 40
0.2257781761
 40
0.4797703389
 40
0.744520659
 40
1.0
 40
1.0
 40
1.0
 40
1.0
 10
16.7925007803
 20
11.6374374544
 30
0.0
 10
16.7932831346
 20
11.6364783717
 30
0.0
 10
16.7952851972
 20
11.6347152618
 30
0.0
 10
16.7988915794
 20
11.6327525668
 30
0.0
 10
16.8029602396
 20
11.6314618418
 30
0.0
 10
16.8058170037
 20
11.6311285382
 30
0.0
 10
16.8072175309
 20
11.6311285382
 30
0.0
  0
SPLINE
  5
31B
100
AcDbEntity
  8
LAYER_FEATURE
100
AcDbSpline
 62
7
  6
CONTINUOUS
 70
0
 71
3
 72
12
 73
8
 74
0
 42
0.0000001
 43
0.0000001
 44
0.0000000001
 40
0.0
 40
0.0
 40
0.0
 40
0.0
 40
0.3032475883
 40
0.5692005124
 40
0.7966399909
 40
0.9000539869
 40
1.0
 40
1.0
 40
1.0
 40
1.0
 10
16.6496873829
 20
11.6311285382
 30
0.0
 10
16.6506980005
 20
11.6311285382
 30
0.0
 10
16.6526025124
 20
11.6312904488
 30
0.0
 10
16.655160346
 20
11.6320898295
 30
0.0
 10
16.656836932
 20
11.6332474535
 30
0.0
 10
16.6577110752
 20
11.6343998754
 30
0.0
 10
16.6579897402
 20
11.6350258275
 30
0.0
 10
16.6580877244
 20
11.6353441743
 30
0.0
  0
SPLINE
  5
31C
100
AcDbEntity
  8
LAYER_FEATURE
100
AcDbSpline
 62
7
  6
CONTINUOUS
 70
0
 71
3
 72
11
 73
7
 74
0
 42
0.0000001
 43
0.0000001
 44
0.0000000001
 40
0.0
 40
0.0
 40
0.0
 40
0.0
 40
0.2257781761
 40
0.4797703389
 40
0.744520659
 40
1.0
 40
1.0
 40
1.0
 40
1.0
 10
16.4756557984
 20
11.6374374544
 30
0.0
 10
16.4764381527
 20
11.6364783717
 30
0.0
 10
16.4784402152
 20
11.6347152618
 30
0.0
 10
16.4820465975
 20
11.6327525668
 30
0.0
 10
16.4861152577
 20
11.6314618418
 30
0.0
 10
16.4889720217
 20
11.6311285382
 30
0.0
 10
16.490372549
 20
11.6311285382
 30
0.0
  0
SPLINE
  5
31D
100
AcDbEntity
  8
LAYER_FEATURE
100
AcDbSpline
 62
7
  6
CONTINUOUS
 70
0
 71
3
 72
12
 73
8
 74
0
 42
0.0000001
 43
0.0000001
 44
0.0000000001
 40
0.0
 40
0.0
 40
0.0
 40
0.0
 40
0.3032475883
 40
0.5692005124
 40
0.7966399909
 40
0.9000539869
 40
1.0
 40
1.0
 40
1.0
 40
1.0
 10
16.3328424009
 20
11.6311285382
 30
0.0
 10
16.3338530186
 20
11.6311285382
 30
0.0
 10
16.3357575305
 20
11.6312904488
 30
0.0
 10
16.3383153641
 20
11.6320898295
 30
0.0
 10
16.3399919501
 20
11.6332474535
 30
0.0
 10
16.3408660932
 20
11.6343998754
 30
0.0
 10
16.3411447582
 20
11.6350258275
 30
0.0
 10
16.3412427424
 20
11.6353441743
 30
0.0
  0
SPLINE
  5
31E
100
AcDbEntity
  8
LAYER_FEATURE
100
AcDbSpline
 62
7
  6
CONTINUOUS
 70
0
 71
3
 72
11
 73
7
 74
0
 42
0.0000001
 43
0.0000001
 44
0.0000000001
 40
0.0
 40
0.0
 40
0.0
 40
0.0
 40
0.2257781761
 40
0.4797703389
 40
0.744520659
 40
1.0
 40
1.0
 40
1.0
 40
1.0
 10
16.1588108164
 20
11.6374374544
 30
0.0
 10
16.1595931707
 20
11.6364783717
 30
0.0
 10
16.1615952333
 20
11.6347152618
 30
0.0
 10
16.1652016156
 20
11.6327525668
 30
0.0
 10
16.1692702758
 20
11.6314618418
 30
0.0
 10
16.1721270398
 20
11.6311285382
 30
0.0
 10
16.1735275671
 20
11.6311285382
 30
0.0
  0
SPLINE
  5
31F
100
AcDbEntity
  8
LAYER_FEATURE
100
AcDbSpline
 62
7
  6
CONTINUOUS
 70
0
 71
3
 72
12
 73
8
 74
0
 42
0.0000001
 43
0.0000001
 44
0.0000000001
 40
0.0
 40
0.0
 40
0.0
 40
0.0
 40
0.3032475883
 40
0.5692005124
 40
0.7966399909
 40
0.9000539869
 40
1.0
 40
1.0
 40
1.0
 40
1.0
 10
16.015997419
 20
11.6311285382
 30
0.0
 10
16.0170080366
 20
11.6311285382
 30
0.0
 10
16.0189125486
 20
11.6312904488
 30
0.0
 10
16.0214703821
 20
11.6320898295
 30
0.0
 10
16.0231469682
 20
11.6332474535
 30
0.0
 10
16.0240211113
 20
11.6343998754
 30
0.0
 10
16.0242997763
 20
11.6350258275
 30
0.0
 10
16.0243977605
 20
11.6353441743
 30
0.0
  0
SPLINE
  5
320
100
AcDbEntity
  8
LAYER_FEATURE
100
AcDbSpline
 62
7
  6
CONTINUOUS
 70
0
 71
3
 72
11
 73
7
 74
0
 42
0.0000001
 43
0.0000001
 44
0.0000000001
 40
0.0
 40
0.0
 40
0.0
 40
0.0
 40
0.2257781761
 40
0.4797703389
 40
0.744520659
 40
1.0
 40
1.0
 40
1.0
 40
1.0
 10
15.8419658345
 20
11.6374374544
 30
0.0
 10
15.8427481888
 20
11.6364783717
 30
0.0
 10
15.8447502514
 20
11.6347152618
 30
0.0
 10
15.8483566336
 20
11.6327525668
 30
0.0
 10
15.8524252938
 20
11.6314618418
 30
0.0
 10
15.8552820578
 20
11.6311285382
 30
0.0
 10
15.8566825851
 20
11.6311285382
 30
0.0
  0
SPLINE
  5
321
100
AcDbEntity
  8
LAYER_FEATURE
100
AcDbSpline
 62
7
  6
CONTINUOUS
 70
0
 71
3
 72
12
 73
8
 74
0
 42
0.0000001
 43
0.0000001
 44
0.0000000001
 40
0.0
 40
0.0
 40
0.0
 40
0.0
 40
0.3032475883
 40
0.5692005124
 40
0.7966399909
 40
0.9000539869
 40
1.0
 40
1.0
 40
1.0
 40
1.0
 10
15.6991524371
 20
11.6311285382
 30
0.0
 10
15.7001630547
 20
11.6311285382
 30
0.0
 10
15.7020675666
 20
11.6312904488
 30
0.0
 10
15.7046254002
 20
11.6320898295
 30
0.0
 10
15.7063019862
 20
11.6332474535
 30
0.0
 10
15.7071761294
 20
11.6343998754
 30
0.0
 10
15.7074547944
 20
11.6350258275
 30
0.0
 10
15.7075527786
 20
11.6353441743
 30
0.0
  0
SPLINE
  5
322
100
AcDbEntity
  8
LAYER_FEATURE
100
AcDbSpline
 62
7
  6
CONTINUOUS
 70
0
 71
3
 72
11
 73
7
 74
0
 42
0.0000001
 43
0.0000001
 44
0.0000000001
 40
0.0
 40
0.0
 40
0.0
 40
0.0
 40
0.2257781761
 40
0.4797703389
 40
0.744520659
 40
1.0
 40
1.0
 40
1.0
 40
1.0
 10
15.5251208526
 20
11.6374374544
 30
0.0
 10
15.5259032069
 20
11.6364783717
 30
0.0
 10
15.5279052694
 20
11.6347152618
 30
0.0
 10
15.5315116517
 20
11.6327525668
 30
0.0
 10
15.5355803119
 20
11.6314618418
 30
0.0
 10
15.5384370759
 20
11.6311285382
 30
0.0
 10
15.5398376032
 20
11.6311285382
 30
0.0
  0
SPLINE
  5
323
100
AcDbEntity
  8
LAYER_FEATURE
100
AcDbSpline
 62
7
  6
CONTINUOUS
 70
0
 71
3
 72
12
 73
8
 74
0
 42
0.0000001
 43
0.0000001
 44
0.0000000001
 40
0.0
 40
0.0
 40
0.0
 40
0.0
 40
0.3032475984
 40
0.5692013037
 40
0.7966413549
 40
0.9000556326
 40
1.0
 40
1.0
 40
1.0
 40
1.0
 10
15.3823074551
 20
11.6311285382
 30
0.0
 10
15.3833180725
 20
11.6311285382
 30
0.0
 10
15.3852225847
 20
11.6312904571
 30
0.0
 10
15.3877804272
 20
11.6320898227
 30
0.0
 10
15.3894570113
 20
11.6332474658
 30
0.0
 10
15.3903311381
 20
11.6343998923
 30
0.0
 10
15.3906098213
 20
11.6350258302
 30
0.0
 10
15.390707808
 20
11.6353441703
 30
0.0
  0
SPLINE
  5
324
100
AcDbEntity
  8
LAYER_FEATURE
100
AcDbSpline
 62
7
  6
CONTINUOUS
 70
0
 71
3
 72
11
 73
7
 74
0
 42
0.0000001
 43
0.0000001
 44
0.0000000001
 40
0.0
 40
0.0
 40
0.0
 40
0.0
 40
0.2257781761
 40
0.4797703389
 40
0.744520659
 40
1.0
 40
1.0
 40
1.0
 40
1.0
 10
15.2082758706
 20
11.6374374544
 30
0.0
 10
15.2090582249
 20
11.6364783717
 30
0.0
 10
15.2110602875
 20
11.6347152618
 30
0.0
 10
15.2146666697
 20
11.6327525668
 30
0.0
 10
15.2187353299
 20
11.6314618418
 30
0.0
 10
15.221592094
 20
11.6311285382
 30
0.0
 10
15.2229926213
 20
11.6311285382
 30
0.0
  0
SPLINE
  5
325
100
AcDbEntity
  8
LAYER_FEATURE
100
AcDbSpline
 62
7
  6
CONTINUOUS
 70
0
 71
3
 72
12
 73
8
 74
0
 42
0.0000001
 43
0.0000001
 44
0.0000000001
 40
0.0
 40
0.0
 40
0.0
 40
0.0
 40
0.3032475883
 40
0.5692005124
 40
0.7966399909
 40
0.9000539869
 40
1.0
 40
1.0
 40
1.0
 40
1.0
 10
15.0654624732
 20
11.6311285382
 30
0.0
 10
15.0664730908
 20
11.6311285382
 30
0.0
 10
15.0683776028
 20
11.6312904488
 30
0.0
 10
15.0709354363
 20
11.6320898295
 30
0.0
 10
15.0726120224
 20
11.6332474535
 30
0.0
 10
15.0734861655
 20
11.6343998754
 30
0.0
 10
15.0737648305
 20
11.6350258275
 30
0.0
 10
15.0738628147
 20
11.6353441743
 30
0.0
  0
SPLINE
  5
326
100
AcDbEntity
  8
LAYER_FEATURE
100
AcDbSpline
 62
7
  6
CONTINUOUS
 70
0
 71
3
 72
11
 73
7
 74
0
 42
0.0000001
 43
0.0000001
 44
0.0000000001
 40
0.0
 40
0.0
 40
0.0
 40
0.0
 40
0.2257781761
 40
0.4797703389
 40
0.744520659
 40
1.0
 40
1.0
 40
1.0
 40
1.0
 10
14.8914308887
 20
11.6374374544
 30
0.0
 10
14.892213243
 20
11.6364783717
 30
0.0
 10
14.8942153056
 20
11.6347152618
 30
0.0
 10
14.8978216878
 20
11.6327525668
 30
0.0
 10
14.901890348
 20
11.6314618418
 30
0.0
 10
14.904747112
 20
11.6311285382
 30
0.0
 10
14.9061476393
 20
11.6311285382
 30
0.0
  0
SPLINE
  5
327
100
AcDbEntity
  8
LAYER_FEATURE
100
AcDbSpline
 62
7
  6
CONTINUOUS
 70
0
 71
3
 72
12
 73
8
 74
0
 42
0.0000001
 43
0.0000001
 44
0.0000000001
 40
0.0
 40
0.0
 40
0.0
 40
0.0
 40
0.3032475883
 40
0.5692005124
 40
0.7966399909
 40
0.9000539869
 40
1.0
 40
1.0
 40
1.0
 40
1.0
 10
14.7486174913
 20
11.6311285382
 30
0.0
 10
14.7496281089
 20
11.6311285382
 30
0.0
 10
14.7515326208
 20
11.6312904488
 30
0.0
 10
14.7540904544
 20
11.6320898295
 30
0.0
 10
14.7557670404
 20
11.6332474535
 30
0.0
 10
14.7566411835
 20
11.6343998754
 30
0.0
 10
14.7569198486
 20
11.6350258275
 30
0.0
 10
14.7570178327
 20
11.6353441743
 30
0.0
  0
SPLINE
  5
328
100
AcDbEntity
  8
LAYER_FEATURE
100
AcDbSpline
 62
7
  6
CONTINUOUS
 70
0
 71
3
 72
11
 73
7
 74
0
 42
0.0000001
 43
0.0000001
 44
0.0000000001
 40
0.0
 40
0.0
 40
0.0
 40
0.0
 40
0.2257781761
 40
0.4797703389
 40
0.744520659
 40
1.0
 40
1.0
 40
1.0
 40
1.0
 10
14.5745859068
 20
11.6374374544
 30
0.0
 10
14.5753682611
 20
11.6364783717
 30
0.0
 10
14.5773703236
 20
11.6347152618
 30
0.0
 10
14.5809767059
 20
11.6327525668
 30
0.0
 10
14.5850453661
 20
11.6314618418
 30
0.0
 10
14.5879021301
 20
11.6311285382
 30
0.0
 10
14.5893026574
 20
11.6311285382
 30
0.0
  0
SPLINE
  5
329
100
AcDbEntity
  8
LAYER_FEATURE
100
AcDbSpline
 62
7
  6
CONTINUOUS
 70
0
 71
3
 72
12
 73
8
 74
0
 42
0.0000001
 43
0.0000001
 44
0.0000000001
 40
0.0
 40
0.0
 40
0.0
 40
0.0
 40
0.3032475883
 40
0.5692005124
 40
0.7966399909
 40
0.9000539869
 40
1.0
 40
1.0
 40
1.0
 40
1.0
 10
14.4317725093
 20
11.6311285382
 30
0.0
 10
14.4327831269
 20
11.6311285382
 30
0.0
 10
14.4346876389
 20
11.6312904488
 30
0.0
 10
14.4372454725
 20
11.6320898295
 30
0.0
 10
14.4389220585
 20
11.6332474535
 30
0.0
 10
14.4397962016
 20
11.6343998754
 30
0.0
 10
14.4400748666
 20
11.6350258275
 30
0.0
 10
14.4401728508
 20
11.6353441743
 30
0.0
  0
SPLINE
  5
32A
100
AcDbEntity
  8
LAYER_FEATURE
100
AcDbSpline
 62
7
  6
CONTINUOUS
 70
0
 71
3
 72
11
 73
7
 74
0
 42
0.0000001
 43
0.0000001
 44
0.0000000001
 40
0.0
 40
0.0
 40
0.0
 40
0.0
 40
0.2257781761
 40
0.4797703389
 40
0.744520659
 40
1.0
 40
1.0
 40
1.0
 40
1.0
 10
14.2577409248
 20
11.6374374544
 30
0.0
 10
14.2585232791
 20
11.6364783717
 30
0.0
 10
14.2605253417
 20
11.6347152618
 30
0.0
 10
14.2641317239
 20
11.6327525668
 30
0.0
 10
14.2682003841
 20
11.6314618418
 30
0.0
 10
14.2710571482
 20
11.6311285382
 30
0.0
 10
14.2724576755
 20
11.6311285382
 30
0.0
  0
SPLINE
  5
32B
100
AcDbEntity
  8
LAYER_FEATURE
100
AcDbSpline
 62
7
  6
CONTINUOUS
 70
0
 71
3
 72
12
 73
8
 74
0
 42
0.0000001
 43
0.0000001
 44
0.0000000001
 40
0.0
 40
0.0
 40
0.0
 40
0.0
 40
0.3032475883
 40
0.5692005124
 40
0.7966399909
 40
0.9000539869
 40
1.0
 40
1.0
 40
1.0
 40
1.0
 10
14.1149275274
 20
11.6311285382
 30
0.0
 10
14.115938145
 20
11.6311285382
 30
0.0
 10
14.1178426569
 20
11.6312904488
 30
0.0
 10
14.1204004905
 20
11.6320898295
 30
0.0
 10
14.1220770766
 20
11.6332474535
 30
0.0
 10
14.1229512197
 20
11.6343998754
 30
0.0
 10
14.1232298847
 20
11.6350258275
 30
0.0
 10
14.1233278689
 20
11.6353441743
 30
0.0
  0
SPLINE
  5
32C
100
AcDbEntity
  8
LAYER_FEATURE
100
AcDbSpline
 62
7
  6
CONTINUOUS
 70
0
 71
3
 72
11
 73
7
 74
0
 42
0.0000001
 43
0.0000001
 44
0.0000000001
 40
0.0
 40
0.0
 40
0.0
 40
0.0
 40
0.2257781761
 40
0.4797703389
 40
0.744520659
 40
1.0
 40
1.0
 40
1.0
 40
1.0
 10
13.9408959429
 20
11.6374374544
 30
0.0
 10
13.9416782972
 20
11.6364783717
 30
0.0
 10
13.9436803597
 20
11.6347152618
 30
0.0
 10
13.947286742
 20
11.6327525668
 30
0.0
 10
13.9513554022
 20
11.6314618418
 30
0.0
 10
13.9542121662
 20
11.6311285382
 30
0.0
 10
13.9556126935
 20
11.6311285382
 30
0.0
  0
SPLINE
  5
32D
100
AcDbEntity
  8
LAYER_FEATURE
100
AcDbSpline
 62
7
  6
CONTINUOUS
 70
0
 71
3
 72
12
 73
8
 74
0
 42
0.0000001
 43
0.0000001
 44
0.0000000001
 40
0.0
 40
0.0
 40
0.0
 40
0.0
 40
0.3032475883
 40
0.5692005124
 40
0.7966399909
 40
0.9000539869
 40
1.0
 40
1.0
 40
1.0
 40
1.0
 10
13.7980825454
 20
11.6311285382
 30
0.0
 10
13.7990931631
 20
11.6311285382
 30
0.0
 10
13.800997675
 20
11.6312904488
 30
0.0
 10
13.8035555086
 20
11.6320898295
 30
0.0
 10
13.8052320946
 20
11.6332474535
 30
0.0
 10
13.8061062377
 20
11.6343998754
 30
0.0
 10
13.8063849027
 20
11.6350258275
 30
0.0
 10
13.8064828869
 20
11.6353441743
 30
0.0
  0
SPLINE
  5
32E
100
AcDbEntity
  8
LAYER_FEATURE
100
AcDbSpline
 62
7
  6
CONTINUOUS
 70
0
 71
3
 72
11
 73
7
 74
0
 42
0.0000001
 43
0.0000001
 44
0.0000000001
 40
0.0
 40
0.0
 40
0.0
 40
0.0
 40
0.2257781761
 40
0.4797703389
 40
0.744520659
 40
1.0
 40
1.0
 40
1.0
 40
1.0
 10
13.6240509609
 20
11.6374374544
 30
0.0
 10
13.6248333152
 20
11.6364783717
 30
0.0
 10
13.6268353778
 20
11.6347152618
 30
0.0
 10
13.6304417601
 20
11.6327525668
 30
0.0
 10
13.6345104203
 20
11.6314618418
 30
0.0
 10
13.6373671843
 20
11.6311285382
 30
0.0
 10
13.6387677116
 20
11.6311285382
 30
0.0
  0
SPLINE
  5
32F
100
AcDbEntity
  8
0
100
AcDbSpline
 62
7
  6
CONTINUOUS
 70
0
 71
3
 72
12
 73
8
 74
0
 42
0.0000001
 43
0.0000001
 44
0.0000000001
 40
0.0
 40
0.0
 40
0.0
 40
0.0
 40
0.3032475883
 40
0.5692005124
 40
0.7966399909
 40
0.9000539869
 40
1.0
 40
1.0
 40
1.0
 40
1.0
 10
13.4812375635
 20
11.6311285382
 30
0.0
 10
13.4822481811
 20
11.6311285382
 30
0.0
 10
13.4841526931
 20
11.6312904488
 30
0.0
 10
13.4867105266
 20
11.6320898295
 30
0.0
 10
13.4883871127
 20
11.6332474535
 30
0.0
 10
13.4892612558
 20
11.6343998754
 30
0.0
 10
13.4895399208
 20
11.6350258275
 30
0.0
 10
13.489637905
 20
11.6353441743
 30
0.0
  0
SPLINE
  5
330
100
AcDbEntity
  8
0
100
AcDbSpline
 62
7
  6
CONTINUOUS
 70
0
 71
3
 72
11
 73
7
 74
0
 42
0.0000001
 43
0.0000001
 44
0.0000000001
 40
0.0
 40
0.0
 40
0.0
 40
0.0
 40
0.2257781761
 40
0.4797703389
 40
0.744520659
 40
1.0
 40
1.0
 40
1.0
 40
1.0
 10
13.307205979
 20
11.6374374544
 30
0.0
 10
13.3079883333
 20
11.6364783717
 30
0.0
 10
13.3099903959
 20
11.6347152618
 30
0.0
 10
13.3135967781
 20
11.6327525668
 30
0.0
 10
13.3176654383
 20
11.6314618418
 30
0.0
 10
13.3205222024
 20
11.6311285382
 30
0.0
 10
13.3219227296
 20
11.6311285382
 30
0.0
  0
SPLINE
  5
331
100
AcDbEntity
  8
0
100
AcDbSpline
 62
7
  6
CONTINUOUS
 70
0
 71
3
 72
11
 73
7
 74
0
 42
0.0000001
 43
0.0000001
 44
0.0000000001
 40
0.0
 40
0.0
 40
0.0
 40
0.0
 40
0.3034808828
 40
0.5700027695
 40
0.7977780159
 40
1.0
 40
1.0
 40
1.0
 40
1.0
 10
13.1711606713
 20
11.8238276284
 30
0.0
 10
13.1705741738
 20
11.8238276284
 30
0.0
 10
13.1694684182
 20
11.8237337024
 30
0.0
 10
13.1679823944
 20
11.8232676746
 30
0.0
 10
13.1668489607
 20
11.8224917037
 30
0.0
 10
13.1663984906
 20
11.8217531966
 30
0.0
 10
13.1662828721
 20
11.8213798829
 30
0.0
  0
SPLINE
  5
332
100
AcDbEntity
  8
0
100
AcDbSpline
 62
7
  6
CONTINUOUS
 70
0
 71
3
 72
11
 73
7
 74
0
 42
0.0000001
 43
0.0000001
 44
0.0000000001
 40
0.0
 40
0.0
 40
0.0
 40
0.0
 40
0.2114441167
 40
0.4633691931
 40
0.7353224623
 40
1.0
 40
1.0
 40
1.0
 40
1.0
 10
17.2542092192
 20
11.8191655536
 30
0.0
 10
17.2538760885
 20
11.8198444026
 30
0.0
 10
17.2527737427
 20
11.821144154
 30
0.0
 10
17.250551222
 20
11.8225892725
 30
0.0
 10
17.2478830461
 20
11.8235683011
 30
0.0
 10
17.2459600077
 20
11.8238276284
 30
0.0
 10
17.2450134478
 20
11.8238276284
 30
0.0
  0
ENDSEC
  0
SECTION
  2
OBJECTS
  0
DICTIONARY
  5
C
100
AcDbDictionary
280
0
281
1
  3
ACAD_GROUP
350
D
  3
ACAD_MLINESTYLE
350
17
  3
ACAD_LAYOUT
350
1A
  3
ACAD_PLOTSETTINGS
350
19
  3
ACAD_PLOTSTYLENAME
350
E
  0
DICTIONARY
  5
D
102
{ACAD_REACTORS
330
C
102
}
100
AcDbDictionary
280
0
281
1
  0
ACDBDICTIONARYWDFLT
  5
E
102
{ACAD_REACTORS
330
C
102
}
100
AcDbDictionary
281
1
  3
Normal
350
F
100
AcDbDictionaryWithDefault
340
F
  0
DICTIONARY
  5
17
102
{ACAD_REACTORS
330
C
102
}
100
AcDbDictionary
280
0
281
1
  3
Standard
350
18
  0
DICTIONARY
  5
19
102
{ACAD_REACTORS
330
C
102
}
100
AcDbDictionary
281
1
  0
DICTIONARY
  5
1A
102
{ACAD_REACTORS
330
C
102
}
100
AcDbDictionary
281
1
  3
Model
350
333
  3
Layout1
350
334
  0
ACDBPLACEHOLDER
  5
F
102
{ACAD_REACTORS
330
E
102
}
  0
MLINESTYLE
  5
18
102
{ACAD_REACTORS
330
17
102
}
100
AcDbMlineStyle
  2
STANDARD
 70
0
  3

 62
256
 51
90.0
 52
90.0
 71
2
 49
0.5
 62
256
  6
BYLAYER
 49
-0.5
 62
256
  6
BYLAYER
  0
LAYOUT
  5
333
102
{ACAD_REACTORS
330
1A
102
}
100
AcDbPlotSettings
  1

  2
none_device
  4
ANSI_C_(22.00_x_17.00_Inches)
  6

 40
0.0
 41
0.0
 42
0.0
 43
0.0
 44
558.8
 45
431.8
 46
0.0
 47
0.0
 48
0.0
 49
0.0
140
0.0
141
0.0
142
1.0
143
1.0
 70
1024
 72
0
 73
0
 74
0
  7

 75
0
147
1.0
148
0.0
149
0.0
100
AcDbLayout
  1
Model
 70
0
 71
0
 10
0.0
 20
0.0
 11
22.0
 21
17.0
 12
0.0
 22
0.0
 32
0.0
 14
0.0
 24
0.0
 34
0.0
 15
0.0
 25
0.0
 35
0.0
146
0.0
 13
0.0
 23
0.0
 33
0.0
 16
1.0
 26
0.0
 36
0.0
 17
0.0
 27
1.0
 37
0.0
 76
0
330
21C
345
0
346
0
  0
LAYOUT
  5
334
102
{ACAD_REACTORS
330
1A
102
}
100
AcDbPlotSettings
  1

  2
none_device
  4
ANSI_C_(22.00_x_17.00_Inches)
  6

 40
0.0
 41
0.0
 42
0.0
 43
0.0
 44
558.8
 45
431.8
 46
0.0
 47
0.0
 48
0.0
 49
0.0
140
0.0
141
0.0
142
1.0
143
1.0
 70
0
 72
0
 73
0
 74
0
  7

 75
0
147
1.0
148
0.0
149
0.0
100
AcDbLayout
  1
Layout1
 70
0
 71
1
 10
0.0
 20
0.0
 11
22.0
 21
17.0
 12
0.0
 22
0.0
 32
0.0
 14
0.0
 24
0.0
 34
0.0
 15
0.0
 25
0.0
 35
0.0
146
0.0
 13
0.0
 23
0.0
 33
0.0
 16
1.0
 26
0.0
 36
0.0
 17
0.0
 27
1.0
 37
0.0
 76
0
330
21D
345
0
346
0
  0
ENDSEC
  0
EOF