999
DXF file: _cgs_temp_output.dxf
999
Pro/ENGINEER 2016360 by Parametric Technology Corporation
  0
SECTION
  2
HEADER
  9
$ACADVER
  1
AC1021
  9
$DWGCODEPAGE
  3
ANSI_1252
  9
$EXTMAX
 10
22.0
 20
17.0
 30
0.0
  9
$EXTMIN
 10
0.0
 20
0.0
 30
0.0
  9
$LIMMIN
 10
0.0
 20
0.0
  9
$LIMMAX
 10
22.0
 20
17.0
  9
$VIEWCTR
 10
11.0
 20
8.5
  9
$VIEWSIZE
 40
17.0
  9
$CLAYER
  8
0
  9
$LTSCALE
 40
1.21
  9
$CELTYPE
  6
BYLAYER
  9
$DIMSCALE
 40
1.0
  9
$DIMASZ
 40
0.1875
  9
$DIMEXO
 40
0.0625
  9
$DIMDLI
 40
0.836
  9
$DIMEXE
 40
0.125
  9
$DIMCEN
 40
0.198
  9
$DIMLFAC
 40
1.0
  9
$DIMBLK
  1
_CLOSED
  9
$DIMALT
 70
0
  9
$DIMALTF
 40
25.4
  9
$DIMTXT
 40
0.15625
  9
$DIMTOL
 70
0
  9
$DIMLIM
 70
0
  9
$DIMTFAC
 40
1.0
  9
$DIMGAP
 40
0.09
  9
$DIMDSEP
 70
46
  9
$AUNITS
 70
0
  9
$PDMODE
 70
3
  9
$PDSIZE
 40
0.3125
  9
$HANDSEED
  5
334
  9
$TILEMODE
 70
1
  9
$MEASUREMENT
 70
0
  9
$INSUNITS
 70
1
  0
ENDSEC
  0
SECTION
  2
CLASSES
  0
CLASS
  1
ACDBDICTIONARYWDFLT
  2
AcDbDictionaryWithDefault
  3
AutoCAD 2000
 90
0
 91
1
280
0
281
0
  0
CLASS
  1
ACDBPLACEHOLDER
  2
AcDbPlaceHolder
  3
AutoCAD 2000
 90
0
 91
1
280
0
281
0
  0
CLASS
  1
LAYOUT
  2
AcDbLayout
  3
AutoCAD 2000
 90
0
 91
0
280
0
281
0
  0
ENDSEC
  0
SECTION
  2
TABLES
  0
TABLE
  2
VPORT
  5
8
100
AcDbSymbolTable
 70
2
  0
VPORT
  5
1F4
100
AcDbSymbolTableRecord
100
AcDbViewportTableRecord
  2
*ACTIVE
 70
0
 10
0.0
 20
0.0
 11
1.0
 21
1.0
 12
11.0
 22
8.5
 13
0.0
 23
0.0
 14
1.0
 24
1.0
 15
0.0
 25
0.0
 16
0.0
 26
0.0
 36
1.0
 17
0.0
 27
0.0
 37
0.0
 40
17.0
 41
1.2941176471
 42
50.0
 43
0.0
 44
0.0
 50
0.0
 51
0.0
 71
0
 72
100
 73
1
 74
1
 75
0
 76
0
 77
0
 78
0
  0
ENDTAB
  0
TABLE
  2
LTYPE
  5
5
100
AcDbSymbolTable
 70
6
  0
LTYPE
  5
14
100
AcDbSymbolTableRecord
100
AcDbLinetypeTableRecord
  2
BYBLOCK
 70
0
  3

 72
65
 73
0
 40
0.0
  0
LTYPE
  5
15
100
AcDbSymbolTableRecord
100
AcDbLinetypeTableRecord
  2
BYLAYER
 70
0
  3

 72
65
 73
0
 40
0.0
  0
LTYPE
  5
16
100
AcDbSymbolTableRecord
100
AcDbLinetypeTableRecord
  2
CONTINUOUS
 70
64
  3
Solid line
 72
65
 73
0
 40
0.0
  0
LTYPE
  5
1F5
100
AcDbSymbolTableRecord
100
AcDbLinetypeTableRecord
  2
CENTER
 70
64
  3
____ _ ____ _ ____ _ ____ _ ____ _ ____ _ ____
 72
65
 73
4
 40
0.6
 49
0.375
 74
0
 49
-0.075
 74
0
 49
0.075
 74
0
 49
-0.075
 74
0
  0
LTYPE
  5
1F6
100
AcDbSymbolTableRecord
100
AcDbLinetypeTableRecord
  2
HIDDEN
 70
64
  3
- - - - - - - - - - - - - - - - - - - -
 72
65
 73
2
 40
0.2
 49
0.1
 74
0
 49
-0.1
 74
0
  0
LTYPE
  5
1F7
100
AcDbSymbolTableRecord
100
AcDbLinetypeTableRecord
  2
PHANTOM
 70
64
  3
_____ _ _ _____ _ _ _____ _ _ _____
 72
65
 73
6
 40
0.8
 49
0.45
 74
0
 49
-0.05
 74
0
 49
0.1
 74
0
 49
-0.05
 74
0
 49
0.1
 74
0
 49
-0.05
 74
0
  0
LTYPE
  5
1F8
100
AcDbSymbolTableRecord
100
AcDbLinetypeTableRecord
  2
DOT
 70
64
  3
. . . . . . . . . . . . . . . . . . . .
 72
65
 73
2
 40
0.2
 49
0.1
 74
0
 49
-0.1
 74
0
  0
LTYPE
  5
1F9
100
AcDbSymbolTableRecord
100
AcDbLinetypeTableRecord
  2
DASHED
 70
64
  3
- - - - - - - - - - - - - - - - - - - -
 72
65
 73
2
 40
0.2
 49
0.1
 74
0
 49
-0.1
 74
0
  0
ENDTAB
  0
TABLE
  2
LAYER
  5
2
100
AcDbSymbolTable
 70
36
  0
LAYER
  5
10
100
AcDbSymbolTableRecord
100
AcDbLayerTableRecord
  2
0
 70
0
 62
7
  6
CONTINUOUS
370
-3
390
F
  0
LAYER
  5
1FA
100
AcDbSymbolTableRecord
100
AcDbLayerTableRecord
  2
DEFAULT_1
 70
0
 62
7
  6
CENTER
370
-3
390
F
  0
LAYER
  5
1FB
100
AcDbSymbolTableRecord
100
AcDbLayerTableRecord
  2
DEFAULT_2
 70
0
 62
8
  6
HIDDEN
370
-3
390
F
  0
LAYER
  5
1FC
100
AcDbSymbolTableRecord
100
AcDbLayerTableRecord
  2
DEFAULT_3
 70
0
 62
7
  6
PHANTOM
370
-3
390
F
  0
LAYER
  5
1FD
100
AcDbSymbolTableRecord
100
AcDbLayerTableRecord
  2
01_ALL_DTM_PLN
 70
0
 62
7
  6
CONTINUOUS
370
-3
390
F
  0
LAYER
  5
1FE
100
AcDbSymbolTableRecord
100
AcDbLayerTableRecord
  2
01__ASM_ALL_DTM_PLN
 70
0
 62
7
  6
CONTINUOUS
370
-3
390
F
  0
LAYER
  5
1FF
100
AcDbSymbolTableRecord
100
AcDbLayerTableRecord
  2
01__ASM_DEF_DTM_PLN
 70
0
 62
7
  6
CONTINUOUS
370
-3
390
F
  0
LAYER
  5
200
100
AcDbSymbolTableRecord
100
AcDbLayerTableRecord
  2
01___PRT_ALL_DTM_PLN
 70
0
 62
7
  6
CONTINUOUS
370
-3
390
F
  0
LAYER
  5
201
100
AcDbSymbolTableRecord
100
AcDbLayerTableRecord
  2
01___PRT_DEF_DTM_PLN
 70
0
 62
7
  6
CONTINUOUS
370
-3
390
F
  0
LAYER
  5
202
100
AcDbSymbolTableRecord
100
AcDbLayerTableRecord
  2
02_ALL_AXES
 70
0
 62
7
  6
CONTINUOUS
370
-3
390
F
  0
LAYER
  5
203
100
AcDbSymbolTableRecord
100
AcDbLayerTableRecord
  2
02__ASM_ALL_AXES
 70
0
 62
7
  6
CONTINUOUS
370
-3
390
F
  0
LAYER
  5
204
100
AcDbSymbolTableRecord
100
AcDbLayerTableRecord
  2
02___PRT_ALL_AXES
 70
0
 62
7
  6
CONTINUOUS
370
-3
390
F
  0
LAYER
  5
205
100
AcDbSymbolTableRecord
100
AcDbLayerTableRecord
  2
03_ALL_CURVES
 70
0
 62
7
  6
CONTINUOUS
370
-3
390
F
  0
LAYER
  5
206
100
AcDbSymbolTableRecord
100
AcDbLayerTableRecord
  2
03__ASM_ALL_CURVES
 70
0
 62
7
  6
CONTINUOUS
370
-3
390
F
  0
LAYER
  5
207
100
AcDbSymbolTableRecord
100
AcDbLayerTableRecord
  2
03___PRT_ALL_CURVES
 70
0
 62
7
  6
CONTINUOUS
370
-3
390
F
  0
LAYER
  5
208
100
AcDbSymbolTableRecord
100
AcDbLayerTableRecord
  2
04_ALL_DTM_PNT
 70
0
 62
7
  6
CONTINUOUS
370
-3
390
F
  0
LAYER
  5
209
100
AcDbSymbolTableRecord
100
AcDbLayerTableRecord
  2
04__ASM_ALL_DTM_PNT
 70
0
 62
7
  6
CONTINUOUS
370
-3
390
F
  0
LAYER
  5
20A
100
AcDbSymbolTableRecord
100
AcDbLayerTableRecord
  2
04___PRT_ALL_DTM_PNT
 70
0
 62
7
  6
CONTINUOUS
370
-3
390
F
  0
LAYER
  5
20B
100
AcDbSymbolTableRecord
100
AcDbLayerTableRecord
  2
05_ALL_DTM_CSYS
 70
0
 62
7
  6
CONTINUOUS
370
-3
390
F
  0
LAYER
  5
20C
100
AcDbSymbolTableRecord
100
AcDbLayerTableRecord
  2
05__ASM_ALL_DTM_CSYS
 70
0
 62
7
  6
CONTINUOUS
370
-3
390
F
  0
LAYER
  5
20D
100
AcDbSymbolTableRecord
100
AcDbLayerTableRecord
  2
05__ASM_DEF_DTM_CSYS
 70
0
 62
7
  6
CONTINUOUS
370
-3
390
F
  0
LAYER
  5
20E
100
AcDbSymbolTableRecord
100
AcDbLayerTableRecord
  2
05___PRT_ALL_DTM_CSYS
 70
0
 62
7
  6
CONTINUOUS
370
-3
390
F
  0
LAYER
  5
20F
100
AcDbSymbolTableRecord
100
AcDbLayerTableRecord
  2
05___PRT_DEF_DTM_CSYS
 70
0
 62
7
  6
CONTINUOUS
370
-3
390
F
  0
LAYER
  5
210
100
AcDbSymbolTableRecord
100
AcDbLayerTableRecord
  2
06_ALL_SURFS
 70
0
 62
7
  6
CONTINUOUS
370
-3
390
F
  0
LAYER
  5
211
100
AcDbSymbolTableRecord
100
AcDbLayerTableRecord
  2
06__ASM_ALL_SURFS
 70
0
 62
7
  6
CONTINUOUS
370
-3
390
F
  0
LAYER
  5
212
100
AcDbSymbolTableRecord
100
AcDbLayerTableRecord
  2
06___PRT_ALL_SURFS
 70
0
 62
7
  6
CONTINUOUS
370
-3
390
F
  0
LAYER
  5
213
100
AcDbSymbolTableRecord
100
AcDbLayerTableRecord
  2
07__ASM_ALL_SKELETONS
 70
0
 62
7
  6
CONTINUOUS
370
-3
390
F
  0
LAYER
  5
214
100
AcDbSymbolTableRecord
100
AcDbLayerTableRecord
  2
LAYER_DIM
 70
0
 62
7
  6
CONTINUOUS
370
-3
390
F
  0
LAYER
  5
215
100
AcDbSymbolTableRecord
100
AcDbLayerTableRecord
  2
LAYER_FEATURE
 70
0
 62
7
  6
CONTINUOUS
370
-3
390
F
  0
LAYER
  5
216
100
AcDbSymbolTableRecord
100
AcDbLayerTableRecord
  2
LAYER_GEOM_FEAT
 70
0
 62
7
  6
CONTINUOUS
370
-3
390
F
  0
LAYER
  5
217
100
AcDbSymbolTableRecord
100
AcDbLayerTableRecord
  2
LAYER_PARAMETER_DIM
 70
0
 62
7
  6
CONTINUOUS
370
-3
390
F
  0
LAYER
  5
218
100
AcDbSymbolTableRecord
100
AcDbLayerTableRecord
  2
LAYER_PROTRUSION_FEAT
 70
0
 62
7
  6
CONTINUOUS
370
-3
390
F
  0
LAYER
  5
219
100
AcDbSymbolTableRecord
100
AcDbLayerTableRecord
  2
LAYER_ROUND_FEAT
 70
0
 62
7
  6
CONTINUOUS
370
-3
390
F
  0
ENDTAB
  0
TABLE
  2
STYLE
  5
3
100
AcDbSymbolTable
 70
1
  0
STYLE
  5
11
100
AcDbSymbolTableRecord
100
AcDbTextStyleTableRecord
  2
STANDARD
 70
0
 40
0.0
 41
0.8
 50
0.0
 71
0
 42
0.2
  3
txt
  4

  0
STYLE
  5
21A
100
AcDbSymbolTableRecord
100
AcDbTextStyleTableRecord
  2
TEXTSTYLE_1
 70
0
 40
0.0
 41
0.8
 50
0.0
 71
0
 42
0.2
  3
gdt
  4

  0
ENDTAB
  0
TABLE
  2
VIEW
  5
6
100
AcDbSymbolTable
 70
0
  0
ENDTAB
  0
TABLE
  2
UCS
  5
7
100
AcDbSymbolTable
 70
0
  0
ENDTAB
  0
TABLE
  2
APPID
  5
9
100
AcDbSymbolTable
 70
1
  0
APPID
  5
21B
100
AcDbSymbolTableRecord
100
AcDbRegAppTableRecord
  2
ACAD
 70
0
  0
ENDTAB
  0
TABLE
  2
BLOCK_RECORD
  5
1
100
AcDbSymbolTable
 70
0
  0
BLOCK_RECORD
  5
21C
100
AcDbSymbolTableRecord
100
AcDbBlockTableRecord
  2
*Model_Space
  0
BLOCK_RECORD
  5
21D
100
AcDbSymbolTableRecord
100
AcDbBlockTableRecord
  2
*Paper_Space
  0
ENDTAB
  0
TABLE
  2
DIMSTYLE
  5
A
100
AcDbSymbolTable
 70
1
100
AcDbDimStyleTable
 71
0
  0
DIMSTYLE
105
21E
100
AcDbSymbolTableRecord
100
AcDbDimStyleTableRecord
  2
STANDARD
 70
0
  3

  4

 40
1.0
 41
0.1875
 42
0.0625
 43
0.38
 44
0.125
 45
0.0
 46
0.0
 47
0.0001
 48
0.0001
140
0.15625
141
0.09
142
0.0
143
25.4
144
1.0
145
0.0
146
1.0
147
0.09
 71
0.0
 72
0.0
 73
1
 74
1
 75
0
 76
0
 77
0
 78
4
 79
1
170
0
171
3
172
0
173
0
174
0
175
0
176
0
177
0
178
0
270
2
179
4
271
4
272
4
273
2
274
2
275
0
280
0
281
0
282
0
283
1
284
4
285
0
286
0
287
3
288
0
340
11
278
46
  0
ENDTAB
  0
ENDSEC
  0
SECTION
  2
BLOCKS
  0
BLOCK
  5
20
100
AcDbEntity
  8
0
100
AcDbBlockBegin
  2
*Model_Space
 70
0
 10
0.0
 20
0.0
 30
0.0
  3
*Model_Space
  1

  0
ENDBLK
  5
21
100
AcDbEntity
  8
0
100
AcDbBlockEnd
  0
BLOCK
  5
1C
100
AcDbEntity
  8
0
100
AcDbBlockBegin
  2
*Paper_Space
 70
0
 10
0.0
 20
0.0
 30
0.0
  3
*Paper_Space
  1

  0
ENDBLK
  5
1D
100
AcDbEntity
  8
0
100
AcDbBlockEnd
  0
ENDSEC
  0
SECTION
  2
ENTITIES
  0
MTEXT
  5
21F
100
AcDbEntity
  8
0
100
AcDbMText
 62
7
  6
CONTINUOUS
  7
STANDARD
 71
1
 72
1
 10
15.9560215477
 20
0.9479130325
 30
0.0
 11
1.0
 21
0.0
 31
0.0
 44
0.9
  1
SCALE: 1:0.500
 40
0.3
 41
3.36
  0
LINE
  5
220
100
AcDbEntity
  8
0
100
AcDbLine
 62
7
  6
CONTINUOUS
 10
0.0
 20
0.0
 11
0.0
 21
17.0
  0
LINE
  5
221
100
AcDbEntity
  8
0
100
AcDbLine
 62
7
  6
CONTINUOUS
 10
0.0
 20
0.0
 11
22.0
 21
0.0
  0
LINE
  5
222
100
AcDbEntity
  8
0
100
AcDbLine
 62
7
  6
CONTINUOUS
 10
0.0
 20
17.0
 11
22.0
 21
17.0
  0
LINE
  5
223
100
AcDbEntity
  8
0
100
AcDbLine
 62
7
  6
CONTINUOUS
 10
22.0
 20
0.0
 11
22.0
 21
17.0
  0
LINE
  5
224
100
AcDbEntity
  8
0
100
AcDbLine
 62
7
  6
CONTINUOUS
 10
3.7153672762
 20
5.6376198968
 11
3.7153672762
 21
5.6001198968
  0
LINE
  5
225
100
AcDbEntity
  8
0
100
AcDbLine
 62
7
  6
CONTINUOUS
 10
3.7153672762
 20
5.6001198968
 11
3.7742913274
 21
5.4048967776
  0
LINE
  5
226
100
AcDbEntity
  8
0
100
AcDbLine
 62
7
  6
CONTINUOUS
 10
4.0453672762
 20
5.6001198968
 11
4.0453672762
 21
5.6226198968
  0
LINE
  5
227
100
AcDbEntity
  8
LAYER_FEATURE
100
AcDbLine
 62
7
  6
CONTINUOUS
 10
4.0903672762
 20
5.6226198968
 11
4.0903672762
 21
5.6001198968
  0
LINE
  5
228
100
AcDbEntity
  8
0
100
AcDbLine
 62
7
  6
CONTINUOUS
 10
3.986443225
 20
5.4048967776
 11
4.0453672762
 21
5.6001198968
  0
LINE
  5
229
100
AcDbEntity
  8
LAYER_FEATURE
100
AcDbLine
 62
7
  6
CONTINUOUS
 10
4.0903672762
 20
5.6001198968
 11
4.1492913274
 21
5.4048967776
  0
LINE
  5
22A
100
AcDbEntity
  8
LAYER_FEATURE
100
AcDbLine
 62
7
  6
CONTINUOUS
 10
4.4203672762
 20
5.6001198968
 11
4.4203672762
 21
5.6226198968
  0
LINE
  5
22B
100
AcDbEntity
  8
LAYER_FEATURE
100
AcDbLine
 62
7
  6
CONTINUOUS
 10
4.4653672762
 20
5.6226198968
 11
4.4653672762
 21
5.6001198968
  0
LINE
  5
22C
100
AcDbEntity
  8
LAYER_FEATURE
100
AcDbLine
 62
7
  6
CONTINUOUS
 10
4.361443225
 20
5.4048967776
 11
4.4203672762
 21
5.6001198968
  0
LINE
  5
22D
100
AcDbEntity
  8
LAYER_FEATURE
100
AcDbLine
 62
7
  6
CONTINUOUS
 10
4.4653672762
 20
5.6001198968
 11
4.5242913274
 21
5.4048967776
  0
LINE
  5
22E
100
AcDbEntity
  8
LAYER_FEATURE
100
AcDbLine
 62
7
  6
CONTINUOUS
 10
4.7953672762
 20
5.6001198968
 11
4.7953672762
 21
5.6226198968
  0
LINE
  5
22F
100
AcDbEntity
  8
LAYER_FEATURE
100
AcDbLine
 62
7
  6
CONTINUOUS
 10
4.8403672762
 20
5.6226198968
 11
4.8403672762
 21
5.6001198968
  0
LINE
  5
230
100
AcDbEntity
  8
LAYER_FEATURE
100
AcDbLine
 62
7
  6
CONTINUOUS
 10
4.736443225
 20
5.4048967776
 11
4.7953672762
 21
5.6001198968
  0
LINE
  5
231
100
AcDbEntity
  8
LAYER_FEATURE
100
AcDbLine
 62
7
  6
CONTINUOUS
 10
4.8403672762
 20
5.6001198968
 11
4.8992913274
 21
5.4048967776
  0
LINE
  5
232
100
AcDbEntity
  8
LAYER_FEATURE
100
AcDbLine
 62
7
  6
CONTINUOUS
 10
5.1703672762
 20
5.6001198968
 11
5.1703672762
 21
5.6226198968
  0
LINE
  5
233
100
AcDbEntity
  8
LAYER_FEATURE
100
AcDbLine
 62
7
  6
CONTINUOUS
 10
5.2153672762
 20
5.6226198968
 11
5.2153672762
 21
5.6001198968
  0
LINE
  5
234
100
AcDbEntity
  8
LAYER_FEATURE
100
AcDbLine
 62
7
  6
CONTINUOUS
 10
5.111443225
 20
5.4048967776
 11
5.1703672762
 21
5.6001198968
  0
LINE
  5
235
100
AcDbEntity
  8
LAYER_FEATURE
100
AcDbLine
 62
7
  6
CONTINUOUS
 10
5.2153672762
 20
5.6001198968
 11
5.2742913274
 21
5.4048967776
  0
LINE
  5
236
100
AcDbEntity
  8
LAYER_FEATURE
100
AcDbLine
 62
7
  6
CONTINUOUS
 10
5.5453672762
 20
5.6001198968
 11
5.5453672762
 21
5.6226198968
  0
LINE
  5
237
100
AcDbEntity
  8
LAYER_FEATURE
100
AcDbLine
 62
7
  6
CONTINUOUS
 10
5.5903672762
 20
5.6226198968
 11
5.5903672762
 21
5.6001198968
  0
LINE
  5
238
100
AcDbEntity
  8
LAYER_FEATURE
100
AcDbLine
 62
7
  6
CONTINUOUS
 10
5.486443225
 20
5.4048967776
 11
5.5453672762
 21
5.6001198968
  0
LINE
  5
239
100
AcDbEntity
  8
LAYER_FEATURE
100
AcDbLine
 62
7
  6
CONTINUOUS
 10
5.5903672762
 20
5.6001198968
 11
5.6492913274
 21
5.4048967776
  0
LINE
  5
23A
100
AcDbEntity
  8
LAYER_FEATURE
100
AcDbLine
 62
7
  6
CONTINUOUS
 10
5.9203672762
 20
5.6001198968
 11
5.9203672762
 21
5.6226198968
  0
LINE
  5
23B
100
AcDbEntity
  8
LAYER_FEATURE
100
AcDbLine
 62
7
  6
CONTINUOUS
 10
5.9653672762
 20
5.6226198968
 11
5.9653672762
 21
5.6001198968
  0
LINE
  5
23C
100
AcDbEntity
  8
LAYER_FEATURE
100
AcDbLine
 62
7
  6
CONTINUOUS
 10
5.861443225
 20
5.4048967776
 11
5.9203672762
 21
5.6001198968
  0
LINE
  5
23D
100
AcDbEntity
  8
0
100
AcDbLine
 62
7
  6
CONTINUOUS
 10
3.7874547929
 20
5.3951198968
 11
3.9732797595
 21
5.3951198968
  0
LINE
  5
23E
100
AcDbEntity
  8
LAYER_FEATURE
100
AcDbLine
 62
7
  6
CONTINUOUS
 10
4.1624547929
 20
5.3951198968
 11
4.3482797595
 21
5.3951198968
  0
LINE
  5
23F
100
AcDbEntity
  8
LAYER_FEATURE
100
AcDbLine
 62
7
  6
CONTINUOUS
 10
4.5374547929
 20
5.3951198968
 11
4.7232797595
 21
5.3951198968
  0
LINE
  5
240
100
AcDbEntity
  8
LAYER_FEATURE
100
AcDbLine
 62
7
  6
CONTINUOUS
 10
4.9124547929
 20
5.3951198968
 11
5.0982797595
 21
5.3951198968
  0
LINE
  5
241
100
AcDbEntity
  8
LAYER_FEATURE
100
AcDbLine
 62
7
  6
CONTINUOUS
 10
5.2874547929
 20
5.3951198968
 11
5.4732797595
 21
5.3951198968
  0
LINE
  5
242
100
AcDbEntity
  8
LAYER_FEATURE
100
AcDbLine
 62
7
  6
CONTINUOUS
 10
5.6624547929
 20
5.3951198968
 11
5.8482797595
 21
5.3951198968
  0
LINE
  5
243
100
AcDbEntity
  8
LAYER_FEATURE
100
AcDbLine
 62
7
  6
CONTINUOUS
 10
6.0374547929
 20
5.3951198968
 11
6.2232797595
 21
5.3951198968
  0
LINE
  5
244
100
AcDbEntity
  8
LAYER_FEATURE
100
AcDbLine
 62
7
  6
CONTINUOUS
 10
6.4124547929
 20
5.3951198968
 11
6.5982797595
 21
5.3951198968
  0
LINE
  5
245
100
AcDbEntity
  8
LAYER_FEATURE
100
AcDbLine
 62
7
  6
CONTINUOUS
 10
6.7874547929
 20
5.3951198968
 11
6.9732797595
 21
5.3951198968
  0
LINE
  5
246
100
AcDbEntity
  8
LAYER_FEATURE
100
AcDbLine
 62
7
  6
CONTINUOUS
 10
7.1624547929
 20
5.3951198968
 11
7.3482797595
 21
5.3951198968
  0
LINE
  5
247
100
AcDbEntity
  8
LAYER_FEATURE
100
AcDbLine
 62
7
  6
CONTINUOUS
 10
7.5374547929
 20
5.3951198968
 11
7.7232797595
 21
5.3951198968
  0
LINE
  5
248
100
AcDbEntity
  8
LAYER_FEATURE
100
AcDbLine
 62
7
  6
CONTINUOUS
 10
7.9124547929
 20
5.3951198968
 11
8.0982797595
 21
5.3951198968
  0
LINE
  5
249
100
AcDbEntity
  8
LAYER_FEATURE
100
AcDbLine
 62
7
  6
CONTINUOUS
 10
8.2874547929
 20
5.3951198968
 11
8.4732797595
 21
5.3951198968
  0
LINE
  5
24A
100
AcDbEntity
  8
LAYER_FEATURE
100
AcDbLine
 62
7
  6
CONTINUOUS
 10
5.9653672762
 20
5.6001198968
 11
6.0242913274
 21
5.4048967776
  0
LINE
  5
24B
100
AcDbEntity
  8
LAYER_FEATURE
100
AcDbLine
 62
7
  6
CONTINUOUS
 10
6.2953672762
 20
5.6001198968
 11
6.2953672762
 21
5.6226198968
  0
LINE
  5
24C
100
AcDbEntity
  8
LAYER_FEATURE
100
AcDbLine
 62
7
  6
CONTINUOUS
 10
6.236443225
 20
5.4048967776
 11
6.2953672762
 21
5.6001198968
  0
LINE
  5
24D
100
AcDbEntity
  8
LAYER_FEATURE
100
AcDbLine
 62
7
  6
CONTINUOUS
 10
4.0453672762
 20
5.6226198968
 11
4.0903672762
 21
5.6226198968
  0
LINE
  5
24E
100
AcDbEntity
  8
LAYER_FEATURE
100
AcDbLine
 62
7
  6
CONTINUOUS
 10
4.4203672762
 20
5.6226198968
 11
4.4653672762
 21
5.6226198968
  0
LINE
  5
24F
100
AcDbEntity
  8
LAYER_FEATURE
100
AcDbLine
 62
7
  6
CONTINUOUS
 10
4.7953672762
 20
5.6226198968
 11
4.8403672762
 21
5.6226198968
  0
LINE
  5
250
100
AcDbEntity
  8
LAYER_FEATURE
100
AcDbLine
 62
7
  6
CONTINUOUS
 10
5.1703672762
 20
5.6226198968
 11
5.2153672762
 21
5.6226198968
  0
LINE
  5
251
100
AcDbEntity
  8
LAYER_FEATURE
100
AcDbLine
 62
7
  6
CONTINUOUS
 10
5.5453672762
 20
5.6226198968
 11
5.5903672762
 21
5.6226198968
  0
LINE
  5
252
100
AcDbEntity
  8
LAYER_FEATURE
100
AcDbLine
 62
7
  6
CONTINUOUS
 10
5.9203672762
 20
5.6226198968
 11
5.9653672762
 21
5.6226198968
  0
LINE
  5
253
100
AcDbEntity
  8
LAYER_FEATURE
100
AcDbLine
 62
7
  6
CONTINUOUS
 10
6.2953672762
 20
5.6226198968
 11
6.3403672762
 21
5.6226198968
  0
LINE
  5
254
100
AcDbEntity
  8
LAYER_FEATURE
100
AcDbLine
 62
7
  6
CONTINUOUS
 10
6.6703672762
 20
5.6226198968
 11
6.7153672762
 21
5.6226198968
  0
LINE
  5
255
100
AcDbEntity
  8
LAYER_FEATURE
100
AcDbLine
 62
7
  6
CONTINUOUS
 10
7.0453672762
 20
5.6226198968
 11
7.0903672762
 21
5.6226198968
  0
LINE
  5
256
100
AcDbEntity
  8
LAYER_FEATURE
100
AcDbLine
 62
7
  6
CONTINUOUS
 10
7.4203672762
 20
5.6226198968
 11
7.4653672762
 21
5.6226198968
  0
LINE
  5
257
100
AcDbEntity
  8
LAYER_FEATURE
100
AcDbLine
 62
7
  6
CONTINUOUS
 10
7.7953672762
 20
5.6226198968
 11
7.8403672762
 21
5.6226198968
  0
LINE
  5
258
100
AcDbEntity
  8
LAYER_FEATURE
100
AcDbLine
 62
7
  6
CONTINUOUS
 10
8.1703672762
 20
5.6226198968
 11
8.2153672762
 21
5.6226198968
  0
LINE
  5
259
100
AcDbEntity
  8
0
100
AcDbLine
 62
7
  6
CONTINUOUS
 10
8.5378672762
 20
5.6451198968
 11
3.7228672762
 21
5.6451198968
  0
LINE
  5
25A
100
AcDbEntity
  8
LAYER_FEATURE
100
AcDbLine
 62
7
  6
CONTINUOUS
 10
6.3403672762
 20
5.6226198968
 11
6.3403672762
 21
5.6001198968
  0
LINE
  5
25B
100
AcDbEntity
  8
LAYER_FEATURE
100
AcDbLine
 62
7
  6
CONTINUOUS
 10
6.3403672762
 20
5.6001198968
 11
6.3992913274
 21
5.4048967776
  0
LINE
  5
25C
100
AcDbEntity
  8
LAYER_FEATURE
100
AcDbLine
 62
7
  6
CONTINUOUS
 10
6.611443225
 20
5.4048967776
 11
6.6703672762
 21
5.6001198968
  0
LINE
  5
25D
100
AcDbEntity
  8
LAYER_FEATURE
100
AcDbLine
 62
7
  6
CONTINUOUS
 10
6.6703672762
 20
5.6001198968
 11
6.6703672762
 21
5.6226198968
  0
LINE
  5
25E
100
AcDbEntity
  8
LAYER_FEATURE
100
AcDbLine
 62
7
  6
CONTINUOUS
 10
6.7153672762
 20
5.6226198968
 11
6.7153672762
 21
5.6001198968
  0
LINE
  5
25F
100
AcDbEntity
  8
LAYER_FEATURE
100
AcDbLine
 62
7
  6
CONTINUOUS
 10
6.7153672762
 20
5.6001198968
 11
6.7742913274
 21
5.4048967776
  0
LINE
  5
260
100
AcDbEntity
  8
LAYER_FEATURE
100
AcDbLine
 62
7
  6
CONTINUOUS
 10
7.0453672762
 20
5.6001198968
 11
7.0453672762
 21
5.6226198968
  0
LINE
  5
261
100
AcDbEntity
  8
LAYER_FEATURE
100
AcDbLine
 62
7
  6
CONTINUOUS
 10
7.0903672762
 20
5.6226198968
 11
7.0903672762
 21
5.6001198968
  0
LINE
  5
262
100
AcDbEntity
  8
LAYER_FEATURE
100
AcDbLine
 62
7
  6
CONTINUOUS
 10
6.986443225
 20
5.4048967776
 11
7.0453672762
 21
5.6001198968
  0
LINE
  5
263
100
AcDbEntity
  8
LAYER_FEATURE
100
AcDbLine
 62
7
  6
CONTINUOUS
 10
7.0903672762
 20
5.6001198968
 11
7.1492913274
 21
5.4048967776
  0
LINE
  5
264
100
AcDbEntity
  8
LAYER_FEATURE
100
AcDbLine
 62
7
  6
CONTINUOUS
 10
7.4203672762
 20
5.6001198968
 11
7.4203672762
 21
5.6226198968
  0
LINE
  5
265
100
AcDbEntity
  8
LAYER_FEATURE
100
AcDbLine
 62
7
  6
CONTINUOUS
 10
7.361443225
 20
5.4048967776
 11
7.4203672762
 21
5.6001198968
  0
LINE
  5
266
100
AcDbEntity
  8
LAYER_FEATURE
100
AcDbLine
 62
7
  6
CONTINUOUS
 10
7.4653672762
 20
5.6001198968
 11
7.5242913274
 21
5.4048967776
  0
LINE
  5
267
100
AcDbEntity
  8
LAYER_FEATURE
100
AcDbLine
 62
7
  6
CONTINUOUS
 10
7.4653672762
 20
5.6226198968
 11
7.4653672762
 21
5.6001198968
  0
LINE
  5
268
100
AcDbEntity
  8
LAYER_FEATURE
100
AcDbLine
 62
7
  6
CONTINUOUS
 10
7.736443225
 20
5.4048967776
 11
7.7953672762
 21
5.6001198968
  0
LINE
  5
269
100
AcDbEntity
  8
LAYER_FEATURE
100
AcDbLine
 62
7
  6
CONTINUOUS
 10
7.7953672762
 20
5.6001198968
 11
7.7953672762
 21
5.6226198968
  0
LINE
  5
26A
100
AcDbEntity
  8
LAYER_FEATURE
100
AcDbLine
 62
7
  6
CONTINUOUS
 10
7.8403672762
 20
5.6226198968
 11
7.8403672762
 21
5.6001198968
  0
LINE
  5
26B
100
AcDbEntity
  8
LAYER_FEATURE
100
AcDbLine
 62
7
  6
CONTINUOUS
 10
7.8403672762
 20
5.6001198968
 11
7.8992913274
 21
5.4048967776
  0
LINE
  5
26C
100
AcDbEntity
  8
LAYER_FEATURE
100
AcDbLine
 62
7
  6
CONTINUOUS
 10
8.111443225
 20
5.4048967776
 11
8.1703672762
 21
5.6001198968
  0
LINE
  5
26D
100
AcDbEntity
  8
LAYER_FEATURE
100
AcDbLine
 62
7
  6
CONTINUOUS
 10
8.1703672762
 20
5.6001198968
 11
8.1703672762
 21
5.6226198968
  0
LINE
  5
26E
100
AcDbEntity
  8
LAYER_FEATURE
100
AcDbLine
 62
7
  6
CONTINUOUS
 10
8.2153672762
 20
5.6226198968
 11
8.2153672762
 21
5.6001198968
  0
LINE
  5
26F
100
AcDbEntity
  8
LAYER_FEATURE
100
AcDbLine
 62
7
  6
CONTINUOUS
 10
8.2153672762
 20
5.6001198968
 11
8.2742913274
 21
5.4048967776
  0
LINE
  5
270
100
AcDbEntity
  8
0
100
AcDbLine
 62
7
  6
CONTINUOUS
 10
8.5453672762
 20
5.6001198968
 11
8.5453672762
 21
5.6376198968
  0
LINE
  5
271
100
AcDbEntity
  8
LAYER_FEATURE
100
AcDbLine
 62
7
  6
CONTINUOUS
 10
8.486443225
 20
5.4048967776
 11
8.5453672762
 21
5.6001198968
  0
LINE
  5
272
100
AcDbEntity
  8
0
100
AcDbLine
 62
7
  6
CONTINUOUS
 10
3.6558720839
 20
13.6000477814
 11
3.6558720839
 21
11.6000477814
  0
LINE
  5
273
100
AcDbEntity
  8
0
100
AcDbLine
 62
7
  6
CONTINUOUS
 10
8.4858720839
 20
11.6000477814
 11
3.6558720839
 21
11.6000477814
  0
LINE
  5
274
100
AcDbEntity
  8
0
100
AcDbLine
 62
7
  6
CONTINUOUS
 10
3.6558720839
 20
13.6000477814
 11
8.4858720839
 21
13.6000477814
  0
LINE
  5
275
100
AcDbEntity
  8
0
100
AcDbLine
 62
7
  6
CONTINUOUS
 10
8.4858720839
 20
11.6000477814
 11
8.4858720839
 21
13.6000477814
  0
LINE
  5
276
100
AcDbEntity
  8
LAYER_FEATURE
100
AcDbLine
 62
7
  6
CONTINUOUS
 10
14.5603552569
 20
5.3356247044
 11
14.5603552569
 21
5.5406247044
  0
LINE
  5
277
100
AcDbEntity
  8
0
100
AcDbLine
 62
7
  6
CONTINUOUS
 10
14.5603552569
 20
5.5406247044
 11
14.5603552569
 21
5.5856247044
  0
LINE
  5
278
100
AcDbEntity
  8
LAYER_FEATURE
100
AcDbLine
 62
7
  6
CONTINUOUS
 10
14.5603552569
 20
5.3356247044
 11
16.5603552569
 21
5.3356247044
  0
LINE
  5
279
100
AcDbEntity
  8
LAYER_FEATURE
100
AcDbLine
 62
7
  6
CONTINUOUS
 10
16.5603552569
 20
5.5406247044
 11
14.5603552569
 21
5.5406247044
  0
LINE
  5
27A
100
AcDbEntity
  8
0
100
AcDbLine
 62
7
  6
CONTINUOUS
 10
14.5603552569
 20
5.5856247044
 11
16.5603552569
 21
5.5856247044
  0
LINE
  5
27B
100
AcDbEntity
  8
0
100
AcDbLine
 62
7
  6
CONTINUOUS
 10
16.5603552569
 20
5.5856247044
 11
16.5603552569
 21
5.5406247044
  0
LINE
  5
27C
100
AcDbEntity
  8
LAYER_FEATURE
100
AcDbLine
 62
7
  6
CONTINUOUS
 10
16.5603552569
 20
5.3356247044
 11
16.5603552569
 21
5.5406247044
  0
LINE
  5
27D
100
AcDbEntity
  8
0
100
AcDbLine
 62
7
  6
CONTINUOUS
 10
12.9964320379
 20
11.8005172546
 11
13.0078711079
 21
11.7772068807
  0
LINE
  5
27E
100
AcDbEntity
  8
0
100
AcDbLine
 62
7
  6
CONTINUOUS
 10
12.9961751475
 20
11.8027313624
 11
12.9964320379
 21
11.8005172546
  0
LINE
  5
27F
100
AcDbEntity
  8
0
100
AcDbLine
 62
7
  6
CONTINUOUS
 10
13.0078711079
 20
11.7772068807
 11
13.1216949778
 21
11.6558542438
  0
LINE
  5
280
100
AcDbEntity
  8
0
100
AcDbLine
 62
7
  6
CONTINUOUS
 10
13.311821236
 20
11.7772068807
 11
13.304957794
 21
11.791193105
  0
LINE
  5
281
100
AcDbEntity
  8
0
100
AcDbLine
 62
7
  6
CONTINUOUS
 10
13.3170998155
 20
11.6558542438
 11
13.311821236
 21
11.7772068807
  0
LINE
  5
282
100
AcDbEntity
  8
0
100
AcDbLine
 62
7
  6
CONTINUOUS
 10
13.4803069859
 20
13.3693854291
 11
12.9961743391
 21
11.8027316098
  0
LINE
  5
283
100
AcDbEntity
  8
LAYER_FEATURE
100
AcDbLine
 62
7
  6
CONTINUOUS
 10
13.3464055387
 20
11.791193105
 11
13.3532689807
 21
11.7772068807
  0
LINE
  5
284
100
AcDbEntity
  8
0
100
AcDbLine
 62
7
  6
CONTINUOUS
 10
13.3169005161
 20
11.6542643272
 11
13.3170998155
 21
11.6558542438
  0
LINE
  5
285
100
AcDbEntity
  8
LAYER_FEATURE
100
AcDbLine
 62
7
  6
CONTINUOUS
 10
13.3532689807
 20
11.7772068807
 11
13.4670928505
 21
11.6558542438
  0
LINE
  5
286
100
AcDbEntity
  8
LAYER_FEATURE
100
AcDbLine
 62
7
  6
CONTINUOUS
 10
13.6572191087
 20
11.7772068807
 11
13.6503556667
 21
11.791193105
  0
LINE
  5
287
100
AcDbEntity
  8
LAYER_FEATURE
100
AcDbLine
 62
7
  6
CONTINUOUS
 10
13.6918034114
 20
11.791193105
 11
13.6986668534
 21
11.7772068807
  0
LINE
  5
288
100
AcDbEntity
  8
LAYER_FEATURE
100
AcDbLine
 62
7
  6
CONTINUOUS
 10
13.6624976882
 20
11.6558542438
 11
13.6572191087
 21
11.7772068807
  0
LINE
  5
289
100
AcDbEntity
  8
0
100
AcDbLine
 62
7
  6
CONTINUOUS
 10
13.3161433062
 20
11.791193105
 11
13.311821236
 21
11.7772068807
  0
LINE
  5
28A
100
AcDbEntity
  8
0
100
AcDbLine
 62
7
  6
CONTINUOUS
 10
13.3169005298
 20
11.654264323
 11
13.3544902801
 21
11.7759047997
  0
LINE
  5
28B
100
AcDbEntity
  8
LAYER_FEATURE
100
AcDbLine
 62
7
  6
CONTINUOUS
 10
13.6986668534
 20
11.7772068807
 11
13.8124907233
 21
11.6558542438
  0
LINE
  5
28C
100
AcDbEntity
  8
LAYER_FEATURE
100
AcDbLine
 62
7
  6
CONTINUOUS
 10
13.6622983888
 20
11.6542643272
 11
13.6624976882
 21
11.6558542438
  0
LINE
  5
28D
100
AcDbEntity
  8
LAYER_FEATURE
100
AcDbLine
 62
7
  6
CONTINUOUS
 10
14.0026169815
 20
11.7772068807
 11
13.9957535395
 21
11.791193105
  0
LINE
  5
28E
100
AcDbEntity
  8
LAYER_FEATURE
100
AcDbLine
 62
7
  6
CONTINUOUS
 10
14.0372012842
 20
11.791193105
 11
14.0440647262
 21
11.7772068807
  0
LINE
  5
28F
100
AcDbEntity
  8
LAYER_FEATURE
100
AcDbLine
 62
7
  6
CONTINUOUS
 10
14.007895561
 20
11.6558542438
 11
14.0026169815
 21
11.7772068807
  0
LINE
  5
290
100
AcDbEntity
  8
LAYER_FEATURE
100
AcDbLine
 62
7
  6
CONTINUOUS
 10
13.6615411789
 20
11.791193105
 11
13.6572191087
 21
11.7772068807
  0
LINE
  5
291
100
AcDbEntity
  8
LAYER_FEATURE
100
AcDbLine
 62
7
  6
CONTINUOUS
 10
13.6622984025
 20
11.654264323
 11
13.6998881529
 21
11.7759047997
  0
LINE
  5
292
100
AcDbEntity
  8
LAYER_FEATURE
100
AcDbLine
 62
7
  6
CONTINUOUS
 10
14.0440647262
 20
11.7772068807
 11
14.157888596
 21
11.6558542438
  0
LINE
  5
293
100
AcDbEntity
  8
LAYER_FEATURE
100
AcDbLine
 62
7
  6
CONTINUOUS
 10
14.0076962616
 20
11.6542643272
 11
14.007895561
 21
11.6558542438
  0
LINE
  5
294
100
AcDbEntity
  8
LAYER_FEATURE
100
AcDbLine
 62
7
  6
CONTINUOUS
 10
14.3894625989
 20
11.7772068807
 11
14.5032864688
 21
11.6558542438
  0
LINE
  5
295
100
AcDbEntity
  8
LAYER_FEATURE
100
AcDbLine
 62
7
  6
CONTINUOUS
 10
14.3480148542
 20
11.7772068807
 11
14.3411514122
 21
11.791193105
  0
LINE
  5
296
100
AcDbEntity
  8
LAYER_FEATURE
100
AcDbLine
 62
7
  6
CONTINUOUS
 10
14.3825991569
 20
11.791193105
 11
14.3894625989
 21
11.7772068807
  0
LINE
  5
297
100
AcDbEntity
  8
LAYER_FEATURE
100
AcDbLine
 62
7
  6
CONTINUOUS
 10
14.3532934337
 20
11.6558542438
 11
14.3480148542
 21
11.7772068807
  0
LINE
  5
298
100
AcDbEntity
  8
LAYER_FEATURE
100
AcDbLine
 62
7
  6
CONTINUOUS
 10
14.0069390517
 20
11.791193105
 11
14.0026169815
 21
11.7772068807
  0
LINE
  5
299
100
AcDbEntity
  8
LAYER_FEATURE
100
AcDbLine
 62
7
  6
CONTINUOUS
 10
14.0076962753
 20
11.654264323
 11
14.0452860256
 21
11.7759047997
  0
LINE
  5
29A
100
AcDbEntity
  8
LAYER_FEATURE
100
AcDbLine
 62
7
  6
CONTINUOUS
 10
14.7348604717
 20
11.7772068807
 11
14.8486843415
 21
11.6558542438
  0
LINE
  5
29B
100
AcDbEntity
  8
LAYER_FEATURE
100
AcDbLine
 62
7
  6
CONTINUOUS
 10
14.3530941343
 20
11.6542643272
 11
14.3532934337
 21
11.6558542438
  0
LINE
  5
29C
100
AcDbEntity
  8
LAYER_FEATURE
100
AcDbLine
 62
7
  6
CONTINUOUS
 10
14.3523369244
 20
11.791193105
 11
14.3480148542
 21
11.7772068807
  0
LINE
  5
29D
100
AcDbEntity
  8
0
100
AcDbLine
 62
7
  6
CONTINUOUS
 10
13.1368016904
 20
11.6497768372
 11
13.3079578188
 21
11.6497768372
  0
LINE
  5
29E
100
AcDbEntity
  8
LAYER_FEATURE
100
AcDbLine
 62
7
  6
CONTINUOUS
 10
13.4821995631
 20
11.6497768372
 11
13.6533556916
 21
11.6497768372
  0
LINE
  5
29F
100
AcDbEntity
  8
LAYER_FEATURE
100
AcDbLine
 62
7
  6
CONTINUOUS
 10
13.8275974359
 20
11.6497768372
 11
13.9987535643
 21
11.6497768372
  0
LINE
  5
2A0
100
AcDbEntity
  8
LAYER_FEATURE
100
AcDbLine
 62
7
  6
CONTINUOUS
 10
14.1729953086
 20
11.6497768372
 11
14.3441514371
 21
11.6497768372
  0
LINE
  5
2A1
100
AcDbEntity
  8
LAYER_FEATURE
100
AcDbLine
 62
7
  6
CONTINUOUS
 10
14.5183931814
 20
11.6497768372
 11
14.6895493098
 21
11.6497768372
  0
LINE
  5
2A2
100
AcDbEntity
  8
LAYER_FEATURE
100
AcDbLine
 62
7
  6
CONTINUOUS
 10
14.8637910541
 20
11.6497768372
 11
15.0349471826
 21
11.6497768372
  0
LINE
  5
2A3
100
AcDbEntity
  8
LAYER_FEATURE
100
AcDbLine
 62
7
  6
CONTINUOUS
 10
15.2091889269
 20
11.6497768372
 11
15.3803450553
 21
11.6497768372
  0
LINE
  5
2A4
100
AcDbEntity
  8
LAYER_FEATURE
100
AcDbLine
 62
7
  6
CONTINUOUS
 10
15.5545867997
 20
11.6497768372
 11
15.7257429281
 21
11.6497768372
  0
LINE
  5
2A5
100
AcDbEntity
  8
LAYER_FEATURE
100
AcDbLine
 62
7
  6
CONTINUOUS
 10
15.8999846724
 20
11.6497768372
 11
16.0711408008
 21
11.6497768372
  0
LINE
  5
2A6
100
AcDbEntity
  8
LAYER_FEATURE
100
AcDbLine
 62
7
  6
CONTINUOUS
 10
16.2453825452
 20
11.6497768372
 11
16.4165386736
 21
11.6497768372
  0
LINE
  5
2A7
100
AcDbEntity
  8
LAYER_FEATURE
100
AcDbLine
 62
7
  6
CONTINUOUS
 10
16.5907804179
 20
11.6497768372
 11
16.7619365463
 21
11.6497768372
  0
LINE
  5
2A8
100
AcDbEntity
  8
LAYER_FEATURE
100
AcDbLine
 62
7
  6
CONTINUOUS
 10
16.9361782907
 20
11.6497768372
 11
17.1073344191
 21
11.6497768372
  0
LINE
  5
2A9
100
AcDbEntity
  8
LAYER_FEATURE
100
AcDbLine
 62
7
  6
CONTINUOUS
 10
17.2815761634
 20
11.6497768372
 11
17.4527322918
 21
11.6497768372
  0
LINE
  5
2AA
100
AcDbEntity
  8
LAYER_FEATURE
100
AcDbLine
 62
7
  6
CONTINUOUS
 10
14.693412727
 20
11.7772068807
 11
14.686549285
 21
11.791193105
  0
LINE
  5
2AB
100
AcDbEntity
  8
LAYER_FEATURE
100
AcDbLine
 62
7
  6
CONTINUOUS
 10
14.7279970297
 20
11.791193105
 11
14.7348604717
 21
11.7772068807
  0
LINE
  5
2AC
100
AcDbEntity
  8
LAYER_FEATURE
100
AcDbLine
 62
7
  6
CONTINUOUS
 10
14.6986913065
 20
11.6558542438
 11
14.693412727
 21
11.7772068807
  0
LINE
  5
2AD
100
AcDbEntity
  8
LAYER_FEATURE
100
AcDbLine
 62
7
  6
CONTINUOUS
 10
14.353094148
 20
11.654264323
 11
14.3906838984
 21
11.7759047997
  0
LINE
  5
2AE
100
AcDbEntity
  8
LAYER_FEATURE
100
AcDbLine
 62
7
  6
CONTINUOUS
 10
13.304957794
 20
11.791193105
 11
13.3464055387
 21
11.791193105
  0
LINE
  5
2AF
100
AcDbEntity
  8
LAYER_FEATURE
100
AcDbLine
 62
7
  6
CONTINUOUS
 10
13.6503556667
 20
11.791193105
 11
13.6918034114
 21
11.791193105
  0
LINE
  5
2B0
100
AcDbEntity
  8
LAYER_FEATURE
100
AcDbLine
 62
7
  6
CONTINUOUS
 10
13.9957535395
 20
11.791193105
 11
14.0372012842
 21
11.791193105
  0
LINE
  5
2B1
100
AcDbEntity
  8
LAYER_FEATURE
100
AcDbLine
 62
7
  6
CONTINUOUS
 10
14.3411514122
 20
11.791193105
 11
14.3825991569
 21
11.791193105
  0
LINE
  5
2B2
100
AcDbEntity
  8
LAYER_FEATURE
100
AcDbLine
 62
7
  6
CONTINUOUS
 10
14.686549285
 20
11.791193105
 11
14.7279970297
 21
11.791193105
  0
LINE
  5
2B3
100
AcDbEntity
  8
LAYER_FEATURE
100
AcDbLine
 62
7
  6
CONTINUOUS
 10
15.0319471577
 20
11.791193105
 11
15.0733949024
 21
11.791193105
  0
LINE
  5
2B4
100
AcDbEntity
  8
LAYER_FEATURE
100
AcDbLine
 62
7
  6
CONTINUOUS
 10
15.3773450305
 20
11.791193105
 11
15.4187927752
 21
11.791193105
  0
LINE
  5
2B5
100
AcDbEntity
  8
LAYER_FEATURE
100
AcDbLine
 62
7
  6
CONTINUOUS
 10
15.7227429032
 20
11.791193105
 11
15.7641906479
 21
11.791193105
  0
LINE
  5
2B6
100
AcDbEntity
  8
LAYER_FEATURE
100
AcDbLine
 62
7
  6
CONTINUOUS
 10
16.068140776
 20
11.791193105
 11
16.1095885207
 21
11.791193105
  0
LINE
  5
2B7
100
AcDbEntity
  8
LAYER_FEATURE
100
AcDbLine
 62
7
  6
CONTINUOUS
 10
16.4135386487
 20
11.791193105
 11
16.4549863934
 21
11.791193105
  0
LINE
  5
2B8
100
AcDbEntity
  8
LAYER_FEATURE
100
AcDbLine
 62
7
  6
CONTINUOUS
 10
16.7589365215
 20
11.791193105
 11
16.8003842662
 21
11.791193105
  0
LINE
  5
2B9
100
AcDbEntity
  8
LAYER_FEATURE
100
AcDbLine
 62
7
  6
CONTINUOUS
 10
17.1043343942
 20
11.791193105
 11
17.1457821389
 21
11.791193105
  0
LINE
  5
2BA
100
AcDbEntity
  8
0
100
AcDbLine
 62
7
  6
CONTINUOUS
 10
17.4359608675
 20
11.8051793293
 11
13.0010521814
 21
11.8051793293
  0
LINE
  5
2BB
100
AcDbEntity
  8
LAYER_FEATURE
100
AcDbLine
 62
7
  6
CONTINUOUS
 10
15.0802583444
 20
11.7772068807
 11
15.1940822143
 21
11.6558542438
  0
LINE
  5
2BC
100
AcDbEntity
  8
LAYER_FEATURE
100
AcDbLine
 62
7
  6
CONTINUOUS
 10
15.0388105997
 20
11.7772068807
 11
15.0319471577
 21
11.791193105
  0
LINE
  5
2BD
100
AcDbEntity
  8
LAYER_FEATURE
100
AcDbLine
 62
7
  6
CONTINUOUS
 10
14.6984920071
 20
11.6542643272
 11
14.6986913065
 21
11.6558542438
  0
LINE
  5
2BE
100
AcDbEntity
  8
LAYER_FEATURE
100
AcDbLine
 62
7
  6
CONTINUOUS
 10
14.6977347972
 20
11.791193105
 11
14.693412727
 21
11.7772068807
  0
LINE
  5
2BF
100
AcDbEntity
  8
LAYER_FEATURE
100
AcDbLine
 62
7
  6
CONTINUOUS
 10
15.4256562172
 20
11.7772068807
 11
15.539480087
 21
11.6558542438
  0
LINE
  5
2C0
100
AcDbEntity
  8
LAYER_FEATURE
100
AcDbLine
 62
7
  6
CONTINUOUS
 10
15.0733949024
 20
11.791193105
 11
15.0802583444
 21
11.7772068807
  0
LINE
  5
2C1
100
AcDbEntity
  8
LAYER_FEATURE
100
AcDbLine
 62
7
  6
CONTINUOUS
 10
15.0440891792
 20
11.6558542438
 11
15.0388105997
 21
11.7772068807
  0
LINE
  5
2C2
100
AcDbEntity
  8
LAYER_FEATURE
100
AcDbLine
 62
7
  6
CONTINUOUS
 10
14.6984920208
 20
11.654264323
 11
14.7360817711
 21
11.7759047997
  0
LINE
  5
2C3
100
AcDbEntity
  8
LAYER_FEATURE
100
AcDbLine
 62
7
  6
CONTINUOUS
 10
15.3842084725
 20
11.7772068807
 11
15.3773450305
 21
11.791193105
  0
LINE
  5
2C4
100
AcDbEntity
  8
LAYER_FEATURE
100
AcDbLine
 62
7
  6
CONTINUOUS
 10
15.4187927752
 20
11.791193105
 11
15.4256562172
 21
11.7772068807
  0
LINE
  5
2C5
100
AcDbEntity
  8
LAYER_FEATURE
100
AcDbLine
 62
7
  6
CONTINUOUS
 10
15.0438898798
 20
11.6542643272
 11
15.0440891792
 21
11.6558542438
  0
LINE
  5
2C6
100
AcDbEntity
  8
LAYER_FEATURE
100
AcDbLine
 62
7
  6
CONTINUOUS
 10
15.0431326699
 20
11.791193105
 11
15.0388105997
 21
11.7772068807
  0
LINE
  5
2C7
100
AcDbEntity
  8
LAYER_FEATURE
100
AcDbLine
 62
7
  6
CONTINUOUS
 10
15.0438898935
 20
11.654264323
 11
15.0814796439
 21
11.7759047997
  0
LINE
  5
2C8
100
AcDbEntity
  8
LAYER_FEATURE
100
AcDbLine
 62
7
  6
CONTINUOUS
 10
15.7710540899
 20
11.7772068807
 11
15.8848779598
 21
11.6558542438
  0
LINE
  5
2C9
100
AcDbEntity
  8
LAYER_FEATURE
100
AcDbLine
 62
7
  6
CONTINUOUS
 10
15.389487052
 20
11.6558542438
 11
15.3842084725
 21
11.7772068807
  0
LINE
  5
2CA
100
AcDbEntity
  8
LAYER_FEATURE
100
AcDbLine
 62
7
  6
CONTINUOUS
 10
16.1164519627
 20
11.7772068807
 11
16.2302758326
 21
11.6558542438
  0
LINE
  5
2CB
100
AcDbEntity
  8
LAYER_FEATURE
100
AcDbLine
 62
7
  6
CONTINUOUS
 10
15.7296063452
 20
11.7772068807
 11
15.7227429032
 21
11.791193105
  0
LINE
  5
2CC
100
AcDbEntity
  8
LAYER_FEATURE
100
AcDbLine
 62
7
  6
CONTINUOUS
 10
15.7641906479
 20
11.791193105
 11
15.7710540899
 21
11.7772068807
  0
LINE
  5
2CD
100
AcDbEntity
  8
LAYER_FEATURE
100
AcDbLine
 62
7
  6
CONTINUOUS
 10
15.3892877526
 20
11.6542643272
 11
15.389487052
 21
11.6558542438
  0
LINE
  5
2CE
100
AcDbEntity
  8
LAYER_FEATURE
100
AcDbLine
 62
7
  6
CONTINUOUS
 10
15.3885305427
 20
11.791193105
 11
15.3842084725
 21
11.7772068807
  0
LINE
  5
2CF
100
AcDbEntity
  8
LAYER_FEATURE
100
AcDbLine
 62
7
  6
CONTINUOUS
 10
15.3892877663
 20
11.654264323
 11
15.4268775166
 21
11.7759047997
  0
LINE
  5
2D0
100
AcDbEntity
  8
LAYER_FEATURE
100
AcDbLine
 62
7
  6
CONTINUOUS
 10
15.7348849247
 20
11.6558542438
 11
15.7296063452
 21
11.7772068807
  0
LINE
  5
2D1
100
AcDbEntity
  8
LAYER_FEATURE
100
AcDbLine
 62
7
  6
CONTINUOUS
 10
15.7346856253
 20
11.6542643272
 11
15.7348849247
 21
11.6558542438
  0
LINE
  5
2D2
100
AcDbEntity
  8
LAYER_FEATURE
100
AcDbLine
 62
7
  6
CONTINUOUS
 10
16.4618498354
 20
11.7772068807
 11
16.5756737053
 21
11.6558542438
  0
LINE
  5
2D3
100
AcDbEntity
  8
LAYER_FEATURE
100
AcDbLine
 62
7
  6
CONTINUOUS
 10
16.075004218
 20
11.7772068807
 11
16.068140776
 21
11.791193105
  0
LINE
  5
2D4
100
AcDbEntity
  8
LAYER_FEATURE
100
AcDbLine
 62
7
  6
CONTINUOUS
 10
16.1095885207
 20
11.791193105
 11
16.1164519627
 21
11.7772068807
  0
LINE
  5
2D5
100
AcDbEntity
  8
LAYER_FEATURE
100
AcDbLine
 62
7
  6
CONTINUOUS
 10
15.7339284154
 20
11.791193105
 11
15.7296063452
 21
11.7772068807
  0
LINE
  5
2D6
100
AcDbEntity
  8
LAYER_FEATURE
100
AcDbLine
 62
7
  6
CONTINUOUS
 10
15.734685639
 20
11.654264323
 11
15.7722753894
 21
11.7759047997
  0
LINE
  5
2D7
100
AcDbEntity
  8
LAYER_FEATURE
100
AcDbLine
 62
7
  6
CONTINUOUS
 10
16.8072477082
 20
11.7772068807
 11
16.9210715781
 21
11.6558542438
  0
LINE
  5
2D8
100
AcDbEntity
  8
LAYER_FEATURE
100
AcDbLine
 62
7
  6
CONTINUOUS
 10
16.4204020907
 20
11.7772068807
 11
16.4135386487
 21
11.791193105
  0
LINE
  5
2D9
100
AcDbEntity
  8
LAYER_FEATURE
100
AcDbLine
 62
7
  6
CONTINUOUS
 10
16.0802827975
 20
11.6558542438
 11
16.075004218
 21
11.7772068807
  0
LINE
  5
2DA
100
AcDbEntity
  8
LAYER_FEATURE
100
AcDbLine
 62
7
  6
CONTINUOUS
 10
16.0800834981
 20
11.6542643272
 11
16.0802827975
 21
11.6558542438
  0
LINE
  5
2DB
100
AcDbEntity
  8
LAYER_FEATURE
100
AcDbLine
 62
7
  6
CONTINUOUS
 10
16.4549863934
 20
11.791193105
 11
16.4618498354
 21
11.7772068807
  0
LINE
  5
2DC
100
AcDbEntity
  8
LAYER_FEATURE
100
AcDbLine
 62
7
  6
CONTINUOUS
 10
16.0793262882
 20
11.791193105
 11
16.075004218
 21
11.7772068807
  0
LINE
  5
2DD
100
AcDbEntity
  8
LAYER_FEATURE
100
AcDbLine
 62
7
  6
CONTINUOUS
 10
16.0800835118
 20
11.654264323
 11
16.1176732621
 21
11.7759047997
  0
LINE
  5
2DE
100
AcDbEntity
  8
0
100
AcDbLine
 62
7
  6
CONTINUOUS
 10
13.4851848282
 20
13.3718331486
 11
17.9200935143
 21
13.3718331486
  0
LINE
  5
2DF
100
AcDbEntity
  8
LAYER_FEATURE
100
AcDbLine
 62
7
  6
CONTINUOUS
 10
17.1526455809
 20
11.7772068807
 11
17.2664694508
 21
11.6558542438
  0
LINE
  5
2E0
100
AcDbEntity
  8
LAYER_FEATURE
100
AcDbLine
 62
7
  6
CONTINUOUS
 10
16.7657999635
 20
11.7772068807
 11
16.7589365215
 21
11.791193105
  0
LINE
  5
2E1
100
AcDbEntity
  8
LAYER_FEATURE
100
AcDbLine
 62
7
  6
CONTINUOUS
 10
16.8003842662
 20
11.791193105
 11
16.8072477082
 21
11.7772068807
  0
LINE
  5
2E2
100
AcDbEntity
  8
LAYER_FEATURE
100
AcDbLine
 62
7
  6
CONTINUOUS
 10
16.4256806702
 20
11.6558542438
 11
16.4204020907
 21
11.7772068807
  0
LINE
  5
2E3
100
AcDbEntity
  8
LAYER_FEATURE
100
AcDbLine
 62
7
  6
CONTINUOUS
 10
16.4254813708
 20
11.6542643272
 11
16.4256806702
 21
11.6558542438
  0
LINE
  5
2E4
100
AcDbEntity
  8
LAYER_FEATURE
100
AcDbLine
 62
7
  6
CONTINUOUS
 10
16.4247241609
 20
11.791193105
 11
16.4204020907
 21
11.7772068807
  0
LINE
  5
2E5
100
AcDbEntity
  8
LAYER_FEATURE
100
AcDbLine
 62
7
  6
CONTINUOUS
 10
16.4254813845
 20
11.654264323
 11
16.4630711349
 21
11.7759047997
  0
LINE
  5
2E6
100
AcDbEntity
  8
LAYER_FEATURE
100
AcDbLine
 62
7
  6
CONTINUOUS
 10
17.1111978362
 20
11.7772068807
 11
17.1043343942
 21
11.791193105
  0
LINE
  5
2E7
100
AcDbEntity
  8
LAYER_FEATURE
100
AcDbLine
 62
7
  6
CONTINUOUS
 10
17.1457821389
 20
11.791193105
 11
17.1526455809
 21
11.7772068807
  0
LINE
  5
2E8
100
AcDbEntity
  8
LAYER_FEATURE
100
AcDbLine
 62
7
  6
CONTINUOUS
 10
16.771078543
 20
11.6558542438
 11
16.7657999635
 21
11.7772068807
  0
LINE
  5
2E9
100
AcDbEntity
  8
LAYER_FEATURE
100
AcDbLine
 62
7
  6
CONTINUOUS
 10
16.7708792436
 20
11.6542643272
 11
16.771078543
 21
11.6558542438
  0
LINE
  5
2EA
100
AcDbEntity
  8
LAYER_FEATURE
100
AcDbLine
 62
7
  6
CONTINUOUS
 10
16.7701220337
 20
11.791193105
 11
16.7657999635
 21
11.7772068807
  0
LINE
  5
2EB
100
AcDbEntity
  8
LAYER_FEATURE
100
AcDbLine
 62
7
  6
CONTINUOUS
 10
16.7708792573
 20
11.654264323
 11
16.8084690076
 21
11.7759047997
  0
LINE
  5
2EC
100
AcDbEntity
  8
0
100
AcDbLine
 62
7
  6
CONTINUOUS
 10
17.456595709
 20
11.7772068807
 11
17.445156639
 21
11.8005172546
  0
LINE
  5
2ED
100
AcDbEntity
  8
LAYER_FEATURE
100
AcDbLine
 62
7
  6
CONTINUOUS
 10
17.1164764157
 20
11.6558542438
 11
17.1111978362
 21
11.7772068807
  0
LINE
  5
2EE
100
AcDbEntity
  8
LAYER_FEATURE
100
AcDbLine
 62
7
  6
CONTINUOUS
 10
17.1162771163
 20
11.6542643272
 11
17.1164764157
 21
11.6558542438
  0
LINE
  5
2EF
100
AcDbEntity
  8
LAYER_FEATURE
100
AcDbLine
 62
7
  6
CONTINUOUS
 10
17.1155199064
 20
11.791193105
 11
17.1111978362
 21
11.7772068807
  0
LINE
  5
2F0
100
AcDbEntity
  8
LAYER_FEATURE
100
AcDbLine
 62
7
  6
CONTINUOUS
 10
17.11627713
 20
11.654264323
 11
17.1538668804
 21
11.7759047997
  0
LINE
  5
2F1
100
AcDbEntity
  8
LAYER_FEATURE
100
AcDbLine
 62
7
  6
CONTINUOUS
 10
17.4618742885
 20
11.6558542438
 11
17.456595709
 21
11.7772068807
  0
LINE
  5
2F2
100
AcDbEntity
  8
LAYER_FEATURE
100
AcDbLine
 62
7
  6
CONTINUOUS
 10
17.4616749891
 20
11.6542643272
 11
17.4618742885
 21
11.6558542438
  0
LINE
  5
2F3
100
AcDbEntity
  8
LAYER_FEATURE
100
AcDbLine
 62
7
  6
CONTINUOUS
 10
17.9407283558
 20
13.3438607
 11
17.456595709
 21
11.7772068807
  0
LINE
  5
2F4
100
AcDbEntity
  8
LAYER_FEATURE
100
AcDbLine
 62
7
  6
CONTINUOUS
 10
17.4616750028
 20
11.654264323
 11
17.9458076496
 21
13.2209181422
  0
LINE
  5
2F5
100
AcDbEntity
  8
LAYER_FEATURE
100
AcDbLine
 62
7
  6
CONTINUOUS
 10
17.9460069353
 20
13.2225080631
 11
17.9407283558
 21
13.3438607
  0
LINE
  5
2F6
100
AcDbEntity
  8
LAYER_FEATURE
100
AcDbLine
 62
7
  6
CONTINUOUS
 10
17.9460069353
 20
13.2225080631
 11
17.9458076359
 21
13.2209181464
  0
LINE
  5
2F7
100
AcDbEntity
  8
0
100
AcDbLine
 62
7
  6
CONTINUOUS
 10
17.9292892858
 20
13.3671710738
 11
17.9407283558
 21
13.3438607
  0
ARC
  5
2F8
100
AcDbEntity
  8
0
100
AcDbCircle
 62
7
  6
CONTINUOUS
 10
3.7874547929
 20
5.4088698968
 40
0.01375
100
AcDbArc
 50
196.7953511265
 51
270.0
  0
ARC
  5
2F9
100
AcDbEntity
  8
0
100
AcDbCircle
 62
7
  6
CONTINUOUS
 10
3.9732797595
 20
5.4088698968
 40
0.01375
100
AcDbArc
 50
270.0
 51
343.2046488735
  0
ARC
  5
2FA
100
AcDbEntity
  8
LAYER_FEATURE
100
AcDbCircle
 62
7
  6
CONTINUOUS
 10
4.1624547929
 20
5.4088698968
 40
0.01375
100
AcDbArc
 50
196.7953511265
 51
270.0
  0
ARC
  5
2FB
100
AcDbEntity
  8
LAYER_FEATURE
100
AcDbCircle
 62
7
  6
CONTINUOUS
 10
4.3482797595
 20
5.4088698968
 40
0.01375
100
AcDbArc
 50
270.0
 51
343.2046488735
  0
ARC
  5
2FC
100
AcDbEntity
  8
LAYER_FEATURE
100
AcDbCircle
 62
7
  6
CONTINUOUS
 10
4.5374547929
 20
5.4088698968
 40
0.01375
100
AcDbArc
 50
196.7953511265
 51
270.0
  0
ARC
  5
2FD
100
AcDbEntity
  8
LAYER_FEATURE
100
AcDbCircle
 62
7
  6
CONTINUOUS
 10
4.7232797595
 20
5.4088698968
 40
0.01375
100
AcDbArc
 50
270.0
 51
343.2046488735
  0
ARC
  5
2FE
100
AcDbEntity
  8
LAYER_FEATURE
100
AcDbCircle
 62
7
  6
CONTINUOUS
 10
4.9124547929
 20
5.4088698968
 40
0.01375
100
AcDbArc
 50
196.7953511265
 51
270.0
  0
ARC
  5
2FF
100
AcDbEntity
  8
LAYER_FEATURE
100
AcDbCircle
 62
7
  6
CONTINUOUS
 10
5.0982797595
 20
5.4088698968
 40
0.01375
100
AcDbArc
 50
270.0
 51
343.2046488735
  0
ARC
  5
300
100
AcDbEntity
  8
LAYER_FEATURE
100
AcDbCircle
 62
7
  6
CONTINUOUS
 10
5.2874547929
 20
5.4088698968
 40
0.01375
100
AcDbArc
 50
196.7953511265
 51
270.0
  0
ARC
  5
301
100
AcDbEntity
  8
LAYER_FEATURE
100
AcDbCircle
 62
7
  6
CONTINUOUS
 10
5.4732797595
 20
5.4088698968
 40
0.01375
100
AcDbArc
 50
270.0
 51
343.2046488735
  0
ARC
  5
302
100
AcDbEntity
  8
LAYER_FEATURE
100
AcDbCircle
 62
7
  6
CONTINUOUS
 10
5.6624547929
 20
5.4088698968
 40
0.01375
100
AcDbArc
 50
196.7953511265
 51
270.0
  0
ARC
  5
303
100
AcDbEntity
  8
LAYER_FEATURE
100
AcDbCircle
 62
7
  6
CONTINUOUS
 10
5.8482797595
 20
5.4088698968
 40
0.01375
100
AcDbArc
 50
270.0
 51
343.2046488735
  0
ARC
  5
304
100
AcDbEntity
  8
LAYER_FEATURE
100
AcDbCircle
 62
7
  6
CONTINUOUS
 10
6.0374547929
 20
5.4088698968
 40
0.01375
100
AcDbArc
 50
196.7953511265
 51
270.0
  0
ARC
  5
305
100
AcDbEntity
  8
LAYER_FEATURE
100
AcDbCircle
 62
7
  6
CONTINUOUS
 10
6.2232797595
 20
5.4088698968
 40
0.01375
100
AcDbArc
 50
270.0
 51
343.2046488735
  0
ARC
  5
306
100
AcDbEntity
  8
LAYER_FEATURE
100
AcDbCircle
 62
7
  6
CONTINUOUS
 10
6.4124547929
 20
5.4088698968
 40
0.01375
100
AcDbArc
 50
196.7953511265
 51
270.0
  0
ARC
  5
307
100
AcDbEntity
  8
LAYER_FEATURE
100
AcDbCircle
 62
7
  6
CONTINUOUS
 10
6.5982797595
 20
5.4088698968
 40
0.01375
100
AcDbArc
 50
270.0
 51
343.2046488735
  0
ARC
  5
308
100
AcDbEntity
  8
LAYER_FEATURE
100
AcDbCircle
 62
7
  6
CONTINUOUS
 10
6.7874547929
 20
5.4088698968
 40
0.01375
100
AcDbArc
 50
196.7953511265
 51
270.0
  0
ARC
  5
309
100
AcDbEntity
  8
LAYER_FEATURE
100
AcDbCircle
 62
7
  6
CONTINUOUS
 10
6.9732797595
 20
5.4088698968
 40
0.01375
100
AcDbArc
 50
270.0
 51
343.2046488735
  0
ARC
  5
30A
100
AcDbEntity
  8
LAYER_FEATURE
100
AcDbCircle
 62
7
  6
CONTINUOUS
 10
7.1624547929
 20
5.4088698968
 40
0.01375
100
AcDbArc
 50
196.7953511265
 51
270.0
  0
ARC
  5
30B
100
AcDbEntity
  8
LAYER_FEATURE
100
AcDbCircle
 62
7
  6
CONTINUOUS
 10
7.3482797595
 20
5.4088698968
 40
0.01375
100
AcDbArc
 50
270.0
 51
343.2046488735
  0
ARC
  5
30C
100
AcDbEntity
  8
LAYER_FEATURE
100
AcDbCircle
 62
7
  6
CONTINUOUS
 10
7.5374547929
 20
5.4088698968
 40
0.01375
100
AcDbArc
 50
196.7953511265
 51
270.0
  0
ARC
  5
30D
100
AcDbEntity
  8
LAYER_FEATURE
100
AcDbCircle
 62
7
  6
CONTINUOUS
 10
7.7232797595
 20
5.4088698968
 40
0.01375
100
AcDbArc
 50
270.0
 51
343.2046488735
  0
ARC
  5
30E
100
AcDbEntity
  8
LAYER_FEATURE
100
AcDbCircle
 62
7
  6
CONTINUOUS
 10
8.4732797595
 20
5.4088698968
 40
0.01375
100
AcDbArc
 50
270.0
 51
343.2046488735
  0
ARC
  5
30F
100
AcDbEntity
  8
LAYER_FEATURE
100
AcDbCircle
 62
7
  6
CONTINUOUS
 10
8.2874547929
 20
5.4088698968
 40
0.01375
100
AcDbArc
 50
196.7953511265
 51
270.0
  0
ARC
  5
310
100
AcDbEntity
  8
LAYER_FEATURE
100
AcDbCircle
 62
7
  6
CONTINUOUS
 10
8.0982797595
 20
5.4088698968
 40
0.01375
100
AcDbArc
 50
270.0
 51
343.2046488735
  0
ARC
  5
311
100
AcDbEntity
  8
LAYER_FEATURE
100
AcDbCircle
 62
7
  6
CONTINUOUS
 10
7.9124547929
 20
5.4088698968
 40
0.01375
100
AcDbArc
 50
196.7953511265
 51
270.0
  0
ARC
  5
312
100
AcDbEntity
  8
0
100
AcDbCircle
 62
7
  6
CONTINUOUS
 10
3.7228672762
 20
5.6376198968
 40
0.0075
100
AcDbArc
 50
90.0
 51
180.0
  0
ARC
  5
313
100
AcDbEntity
  8
0
100
AcDbCircle
 62
7
  6
CONTINUOUS
 10
8.5378672762
 20
5.6376198968
 40
0.0075
100
AcDbArc
 50
0.0
 51
90.0
  0
SPLINE
  5
314
100
AcDbEntity
  8
0
100
AcDbSpline
 62
7
  6
CONTINUOUS
 70
0
 71
3
 72
12
 73
8
 74
0
 42
0.0000001
 43
0.0000001
 44
0.0000000001
 40
0.0
 40
0.0
 40
0.0
 40
0.0
 40
0.2642051881
 40
0.53615925
 40
0.7879547432
 40
0.9000009334
 40
1.0
 40
1.0
 40
1.0
 40
1.0
 10
17.9200935143
 20
13.3718331486
 30
0.0
 10
17.9210391731
 20
13.3718331486
 30
0.0
 10
17.9229621988
 20
13.3715702433
 30
0.0
 10
17.9256291652
 20
13.3705994359
 30
0.0
 10
17.9275603711
 20
13.3693374736
 30
0.0
 10
17.9287103042
 20
13.3681317733
 30
0.0
 10
17.9291316056
 20
13.3674923922
 30
0.0
 10
17.9292892858
 20
13.3671710738
 30
0.0
  0
SPLINE
  5
315
100
AcDbEntity
  8
0
100
AcDbSpline
 62
7
  6
CONTINUOUS
 70
0
 71
3
 72
11
 73
7
 74
0
 42
0.0000001
 43
0.0000001
 44
0.0000000001
 40
0.0
 40
0.0
 40
0.0
 40
0.0
 40
0.2022595964
 40
0.4301234434
 40
0.6973865799
 40
1.0
 40
1.0
 40
1.0
 40
1.0
 10
13.4803075513
 20
13.3693852563
 30
0.0
 10
13.4804211595
 20
13.369759255
 30
0.0
 10
13.4808728262
 20
13.3704981463
 30
0.0
 10
13.482007609
 20
13.3712749725
 30
0.0
 10
13.4834951777
 20
13.3717357617
 30
0.0
 10
13.484600018
 20
13.3718331486
 30
0.0
 10
13.4851848282
 20
13.3718331486
 30
0.0
  0
SPLINE
  5
316
100
AcDbEntity
  8
LAYER_FEATURE
100
AcDbSpline
 62
7
  6
CONTINUOUS
 70
0
 71
3
 72
12
 73
8
 74
0
 42
0.0000001
 43
0.0000001
 44
0.0000000001
 40
0.0
 40
0.0
 40
0.0
 40
0.0
 40
0.3032791945
 40
0.5691592087
 40
0.7966016813
 40
0.9000381153
 40
1.0
 40
1.0
 40
1.0
 40
1.0
 10
17.4527322918
 20
11.6497768372
 30
0.0
 10
17.4538082283
 20
11.6497768372
 30
0.0
 10
17.4558354945
 20
11.649948951
 30
0.0
 10
17.4585582355
 20
11.6508000643
 30
0.0
 10
17.4603427263
 20
11.6520322031
 30
0.0
 10
17.4612738136
 20
11.6532589112
 30
0.0
 10
17.4615697765
 20
11.653925661
 30
0.0
 10
17.4616743173
 20
11.6542645346
 30
0.0
  0
SPLINE
  5
317
100
AcDbEntity
  8
LAYER_FEATURE
100
AcDbSpline
 62
7
  6
CONTINUOUS
 70
0
 71
3
 72
11
 73
7
 74
0
 42
0.0000001
 43
0.0000001
 44
0.0000000001
 40
0.0
 40
0.0
 40
0.0
 40
0.0
 40
0.2304431642
 40
0.4848899039
 40
0.7473055244
 40
1.0
 40
1.0
 40
1.0
 40
1.0
 10
17.2664694508
 20
11.6558542438
 30
0.0
 10
17.2673451741
 20
11.6549205966
 30
0.0
 10
17.2694718172
 20
11.6532186105
 30
0.0
 10
17.2731909136
 20
11.6513255896
 30
0.0
 10
17.2773065669
 20
11.6500923388
 30
0.0
 10
17.2801724874
 20
11.6497768372
 30
0.0
 10
17.2815761634
 20
11.6497768372
 30
0.0
  0
SPLINE
  5
318
100
AcDbEntity
  8
LAYER_FEATURE
100
AcDbSpline
 62
7
  6
CONTINUOUS
 70
0
 71
3
 72
12
 73
8
 74
0
 42
0.0000001
 43
0.0000001
 44
0.0000000001
 40
0.0
 40
0.0
 40
0.0
 40
0.0
 40
0.3032791945
 40
0.5691592087
 40
0.7966016813
 40
0.9000381153
 40
1.0
 40
1.0
 40
1.0
 40
1.0
 10
17.1073344191
 20
11.6497768372
 30
0.0
 10
17.1084103555
 20
11.6497768372
 30
0.0
 10
17.1104376218
 20
11.649948951
 30
0.0
 10
17.1131603627
 20
11.6508000643
 30
0.0
 10
17.1149448536
 20
11.6520322031
 30
0.0
 10
17.1158759409
 20
11.6532589112
 30
0.0
 10
17.1161719037
 20
11.653925661
 30
0.0
 10
17.1162764446
 20
11.6542645346
 30
0.0
  0
SPLINE
  5
319
100
AcDbEntity
  8
LAYER_FEATURE
100
AcDbSpline
 62
7
  6
CONTINUOUS
 70
0
 71
3
 72
11
 73
7
 74
0
 42
0.0000001
 43
0.0000001
 44
0.0000000001
 40
0.0
 40
0.0
 40
0.0
 40
0.0
 40
0.2304431642
 40
0.4848899039
 40
0.7473055244
 40
1.0
 40
1.0
 40
1.0
 40
1.0
 10
16.9210715781
 20
11.6558542438
 30
0.0
 10
16.9219473014
 20
11.6549205966
 30
0.0
 10
16.9240739445
 20
11.6532186105
 30
0.0
 10
16.9277930409
 20
11.6513255896
 30
0.0
 10
16.9319086942
 20
11.6500923388
 30
0.0
 10
16.9347746147
 20
11.6497768372
 30
0.0
 10
16.9361782907
 20
11.6497768372
 30
0.0
  0
SPLINE
  5
31A
100
AcDbEntity
  8
LAYER_FEATURE
100
AcDbSpline
 62
7
  6
CONTINUOUS
 70
0
 71
3
 72
12
 73
8
 74
0
 42
0.0000001
 43
0.0000001
 44
0.0000000001
 40
0.0
 40
0.0
 40
0.0
 40
0.0
 40
0.3032791945
 40
0.5691592087
 40
0.7966016813
 40
0.9000381153
 40
1.0
 40
1.0
 40
1.0
 40
1.0
 10
16.7619365463
 20
11.6497768372
 30
0.0
 10
16.7630124828
 20
11.6497768372
 30
0.0
 10
16.765039749
 20
11.649948951
 30
0.0
 10
16.76776249
 20
11.6508000643
 30
0.0
 10
16.7695469808
 20
11.6520322031
 30
0.0
 10
16.7704780681
 20
11.6532589112
 30
0.0
 10
16.770774031
 20
11.653925661
 30
0.0
 10
16.7708785718
 20
11.6542645346
 30
0.0
  0
SPLINE
  5
31B
100
AcDbEntity
  8
LAYER_FEATURE
100
AcDbSpline
 62
7
  6
CONTINUOUS
 70
0
 71
3
 72
11
 73
7
 74
0
 42
0.0000001
 43
0.0000001
 44
0.0000000001
 40
0.0
 40
0.0
 40
0.0
 40
0.0
 40
0.2304431642
 40
0.4848899039
 40
0.7473055244
 40
1.0
 40
1.0
 40
1.0
 40
1.0
 10
16.5756737053
 20
11.6558542438
 30
0.0
 10
16.5765494286
 20
11.6549205966
 30
0.0
 10
16.5786760717
 20
11.6532186105
 30
0.0
 10
16.5823951681
 20
11.6513255896
 30
0.0
 10
16.5865108214
 20
11.6500923388
 30
0.0
 10
16.5893767419
 20
11.6497768372
 30
0.0
 10
16.5907804179
 20
11.6497768372
 30
0.0
  0
SPLINE
  5
31C
100
AcDbEntity
  8
LAYER_FEATURE
100
AcDbSpline
 62
7
  6
CONTINUOUS
 70
0
 71
3
 72
12
 73
8
 74
0
 42
0.0000001
 43
0.0000001
 44
0.0000000001
 40
0.0
 40
0.0
 40
0.0
 40
0.0
 40
0.3032791945
 40
0.5691592087
 40
0.7966016813
 40
0.9000381153
 40
1.0
 40
1.0
 40
1.0
 40
1.0
 10
16.4165386736
 20
11.6497768372
 30
0.0
 10
16.41761461
 20
11.6497768372
 30
0.0
 10
16.4196418763
 20
11.649948951
 30
0.0
 10
16.4223646172
 20
11.6508000643
 30
0.0
 10
16.4241491081
 20
11.6520322031
 30
0.0
 10
16.4250801954
 20
11.6532589112
 30
0.0
 10
16.4253761582
 20
11.653925661
 30
0.0
 10
16.4254806991
 20
11.6542645346
 30
0.0
  0
SPLINE
  5
31D
100
AcDbEntity
  8
LAYER_FEATURE
100
AcDbSpline
 62
7
  6
CONTINUOUS
 70
0
 71
3
 72
11
 73
7
 74
0
 42
0.0000001
 43
0.0000001
 44
0.0000000001
 40
0.0
 40
0.0
 40
0.0
 40
0.0
 40
0.2304431642
 40
0.4848899039
 40
0.7473055244
 40
1.0
 40
1.0
 40
1.0
 40
1.0
 10
16.2302758326
 20
11.6558542438
 30
0.0
 10
16.2311515559
 20
11.6549205966
 30
0.0
 10
16.233278199
 20
11.6532186105
 30
0.0
 10
16.2369972954
 20
11.6513255896
 30
0.0
 10
16.2411129487
 20
11.6500923388
 30
0.0
 10
16.2439788692
 20
11.6497768372
 30
0.0
 10
16.2453825452
 20
11.6497768372
 30
0.0
  0
SPLINE
  5
31E
100
AcDbEntity
  8
LAYER_FEATURE
100
AcDbSpline
 62
7
  6
CONTINUOUS
 70
0
 71
3
 72
12
 73
8
 74
0
 42
0.0000001
 43
0.0000001
 44
0.0000000001
 40
0.0
 40
0.0
 40
0.0
 40
0.0
 40
0.3032791945
 40
0.5691592087
 40
0.7966016813
 40
0.9000381153
 40
1.0
 40
1.0
 40
1.0
 40
1.0
 10
16.0711408008
 20
11.6497768372
 30
0.0
 10
16.0722167373
 20
11.6497768372
 30
0.0
 10
16.0742440035
 20
11.649948951
 30
0.0
 10
16.0769667445
 20
11.6508000643
 30
0.0
 10
16.0787512353
 20
11.6520322031
 30
0.0
 10
16.0796823226
 20
11.6532589112
 30
0.0
 10
16.0799782855
 20
11.653925661
 30
0.0
 10
16.0800828263
 20
11.6542645346
 30
0.0
  0
SPLINE
  5
31F
100
AcDbEntity
  8
LAYER_FEATURE
100
AcDbSpline
 62
7
  6
CONTINUOUS
 70
0
 71
3
 72
11
 73
7
 74
0
 42
0.0000001
 43
0.0000001
 44
0.0000000001
 40
0.0
 40
0.0
 40
0.0
 40
0.0
 40
0.2304431642
 40
0.4848899039
 40
0.7473055244
 40
1.0
 40
1.0
 40
1.0
 40
1.0
 10
15.8848779598
 20
11.6558542438
 30
0.0
 10
15.8857536831
 20
11.6549205966
 30
0.0
 10
15.8878803262
 20
11.6532186105
 30
0.0
 10
15.8915994226
 20
11.6513255896
 30
0.0
 10
15.8957150759
 20
11.6500923388
 30
0.0
 10
15.8985809964
 20
11.6497768372
 30
0.0
 10
15.8999846724
 20
11.6497768372
 30
0.0
  0
SPLINE
  5
320
100
AcDbEntity
  8
LAYER_FEATURE
100
AcDbSpline
 62
7
  6
CONTINUOUS
 70
0
 71
3
 72
12
 73
8
 74
0
 42
0.0000001
 43
0.0000001
 44
0.0000000001
 40
0.0
 40
0.0
 40
0.0
 40
0.0
 40
0.3032791945
 40
0.5691592087
 40
0.7966016813
 40
0.9000381153
 40
1.0
 40
1.0
 40
1.0
 40
1.0
 10
15.7257429281
 20
11.6497768372
 30
0.0
 10
15.7268188645
 20
11.6497768372
 30
0.0
 10
15.7288461308
 20
11.649948951
 30
0.0
 10
15.7315688717
 20
11.6508000643
 30
0.0
 10
15.7333533626
 20
11.6520322031
 30
0.0
 10
15.7342844499
 20
11.6532589112
 30
0.0
 10
15.7345804127
 20
11.653925661
 30
0.0
 10
15.7346849536
 20
11.6542645346
 30
0.0
  0
SPLINE
  5
321
100
AcDbEntity
  8
LAYER_FEATURE
100
AcDbSpline
 62
7
  6
CONTINUOUS
 70
0
 71
3
 72
11
 73
7
 74
0
 42
0.0000001
 43
0.0000001
 44
0.0000000001
 40
0.0
 40
0.0
 40
0.0
 40
0.0
 40
0.2304431642
 40
0.4848899039
 40
0.7473055244
 40
1.0
 40
1.0
 40
1.0
 40
1.0
 10
15.539480087
 20
11.6558542438
 30
0.0
 10
15.5403558104
 20
11.6549205966
 30
0.0
 10
15.5424824535
 20
11.6532186105
 30
0.0
 10
15.5462015499
 20
11.6513255896
 30
0.0
 10
15.5503172032
 20
11.6500923388
 30
0.0
 10
15.5531831237
 20
11.6497768372
 30
0.0
 10
15.5545867997
 20
11.6497768372
 30
0.0
  0
SPLINE
  5
322
100
AcDbEntity
  8
LAYER_FEATURE
100
AcDbSpline
 62
7
  6
CONTINUOUS
 70
0
 71
3
 72
12
 73
8
 74
0
 42
0.0000001
 43
0.0000001
 44
0.0000000001
 40
0.0
 40
0.0
 40
0.0
 40
0.0
 40
0.3032791945
 40
0.5691592087
 40
0.7966016813
 40
0.9000381153
 40
1.0
 40
1.0
 40
1.0
 40
1.0
 10
15.3803450553
 20
11.6497768372
 30
0.0
 10
15.3814209918
 20
11.6497768372
 30
0.0
 10
15.383448258
 20
11.649948951
 30
0.0
 10
15.386170999
 20
11.6508000643
 30
0.0
 10
15.3879554898
 20
11.6520322031
 30
0.0
 10
15.3888865771
 20
11.6532589112
 30
0.0
 10
15.38918254
 20
11.653925661
 30
0.0
 10
15.3892870808
 20
11.6542645346
 30
0.0
  0
SPLINE
  5
323
100
AcDbEntity
  8
LAYER_FEATURE
100
AcDbSpline
 62
7
  6
CONTINUOUS
 70
0
 71
3
 72
11
 73
7
 74
0
 42
0.0000001
 43
0.0000001
 44
0.0000000001
 40
0.0
 40
0.0
 40
0.0
 40
0.0
 40
0.2304431642
 40
0.4848899039
 40
0.7473055244
 40
1.0
 40
1.0
 40
1.0
 40
1.0
 10
15.1940822143
 20
11.6558542438
 30
0.0
 10
15.1949579376
 20
11.6549205966
 30
0.0
 10
15.1970845807
 20
11.6532186105
 30
0.0
 10
15.2008036771
 20
11.6513255896
 30
0.0
 10
15.2049193304
 20
11.6500923388
 30
0.0
 10
15.2077852509
 20
11.6497768372
 30
0.0
 10
15.2091889269
 20
11.6497768372
 30
0.0
  0
SPLINE
  5
324
100
AcDbEntity
  8
LAYER_FEATURE
100
AcDbSpline
 62
7
  6
CONTINUOUS
 70
0
 71
3
 72
12
 73
8
 74
0
 42
0.0000001
 43
0.0000001
 44
0.0000000001
 40
0.0
 40
0.0
 40
0.0
 40
0.0
 40
0.3032791945
 40
0.5691592087
 40
0.7966016813
 40
0.9000381153
 40
1.0
 40
1.0
 40
1.0
 40
1.0
 10
15.0349471826
 20
11.6497768372
 30
0.0
 10
15.036023119
 20
11.6497768372
 30
0.0
 10
15.0380503853
 20
11.649948951
 30
0.0
 10
15.0407731262
 20
11.6508000643
 30
0.0
 10
15.0425576171
 20
11.6520322031
 30
0.0
 10
15.0434887044
 20
11.6532589112
 30
0.0
 10
15.0437846672
 20
11.653925661
 30
0.0
 10
15.0438892081
 20
11.6542645346
 30
0.0
  0
SPLINE
  5
325
100
AcDbEntity
  8
LAYER_FEATURE
100
AcDbSpline
 62
7
  6
CONTINUOUS
 70
0
 71
3
 72
11
 73
7
 74
0
 42
0.0000001
 43
0.0000001
 44
0.0000000001
 40
0.0
 40
0.0
 40
0.0
 40
0.0
 40
0.2304431642
 40
0.4848899039
 40
0.7473055244
 40
1.0
 40
1.0
 40
1.0
 40
1.0
 10
14.8486843415
 20
11.6558542438
 30
0.0
 10
14.8495600649
 20
11.6549205966
 30
0.0
 10
14.851686708
 20
11.6532186105
 30
0.0
 10
14.8554058044
 20
11.6513255896
 30
0.0
 10
14.8595214577
 20
11.6500923388
 30
0.0
 10
14.8623873782
 20
11.6497768372
 30
0.0
 10
14.8637910541
 20
11.6497768372
 30
0.0
  0
SPLINE
  5
326
100
AcDbEntity
  8
LAYER_FEATURE
100
AcDbSpline
 62
7
  6
CONTINUOUS
 70
0
 71
3
 72
12
 73
8
 74
0
 42
0.0000001
 43
0.0000001
 44
0.0000000001
 40
0.0
 40
0.0
 40
0.0
 40
0.0
 40
0.3032791945
 40
0.5691592087
 40
0.7966016813
 40
0.9000381153
 40
1.0
 40
1.0
 40
1.0
 40
1.0
 10
14.6895493098
 20
11.6497768372
 30
0.0
 10
14.6906252463
 20
11.6497768372
 30
0.0
 10
14.6926525125
 20
11.649948951
 30
0.0
 10
14.6953752535
 20
11.6508000643
 30
0.0
 10
14.6971597443
 20
11.6520322031
 30
0.0
 10
14.6980908316
 20
11.6532589112
 30
0.0
 10
14.6983867945
 20
11.653925661
 30
0.0
 10
14.6984913353
 20
11.6542645346
 30
0.0
  0
SPLINE
  5
327
100
AcDbEntity
  8
LAYER_FEATURE
100
AcDbSpline
 62
7
  6
CONTINUOUS
 70
0
 71
3
 72
11
 73
7
 74
0
 42
0.0000001
 43
0.0000001
 44
0.0000000001
 40
0.0
 40
0.0
 40
0.0
 40
0.0
 40
0.2304431642
 40
0.4848899039
 40
0.7473055244
 40
1.0
 40
1.0
 40
1.0
 40
1.0
 10
14.5032864688
 20
11.6558542438
 30
0.0
 10
14.5041621921
 20
11.6549205966
 30
0.0
 10
14.5062888352
 20
11.6532186105
 30
0.0
 10
14.5100079316
 20
11.6513255896
 30
0.0
 10
14.5141235849
 20
11.6500923388
 30
0.0
 10
14.5169895054
 20
11.6497768372
 30
0.0
 10
14.5183931814
 20
11.6497768372
 30
0.0
  0
SPLINE
  5
328
100
AcDbEntity
  8
LAYER_FEATURE
100
AcDbSpline
 62
7
  6
CONTINUOUS
 70
0
 71
3
 72
12
 73
8
 74
0
 42
0.0000001
 43
0.0000001
 44
0.0000000001
 40
0.0
 40
0.0
 40
0.0
 40
0.0
 40
0.3032791945
 40
0.5691592087
 40
0.7966016813
 40
0.9000381153
 40
1.0
 40
1.0
 40
1.0
 40
1.0
 10
14.3441514371
 20
11.6497768372
 30
0.0
 10
14.3452273735
 20
11.6497768372
 30
0.0
 10
14.3472546397
 20
11.649948951
 30
0.0
 10
14.3499773807
 20
11.6508000643
 30
0.0
 10
14.3517618716
 20
11.6520322031
 30
0.0
 10
14.3526929589
 20
11.6532589112
 30
0.0
 10
14.3529889217
 20
11.653925661
 30
0.0
 10
14.3530934626
 20
11.6542645346
 30
0.0
  0
SPLINE
  5
329
100
AcDbEntity
  8
LAYER_FEATURE
100
AcDbSpline
 62
7
  6
CONTINUOUS
 70
0
 71
3
 72
11
 73
7
 74
0
 42
0.0000001
 43
0.0000001
 44
0.0000000001
 40
0.0
 40
0.0
 40
0.0
 40
0.0
 40
0.2304431642
 40
0.4848899039
 40
0.7473055244
 40
1.0
 40
1.0
 40
1.0
 40
1.0
 10
14.157888596
 20
11.6558542438
 30
0.0
 10
14.1587643194
 20
11.6549205966
 30
0.0
 10
14.1608909625
 20
11.6532186105
 30
0.0
 10
14.1646100589
 20
11.6513255896
 30
0.0
 10
14.1687257122
 20
11.6500923388
 30
0.0
 10
14.1715916327
 20
11.6497768372
 30
0.0
 10
14.1729953086
 20
11.6497768372
 30
0.0
  0
SPLINE
  5
32A
100
AcDbEntity
  8
LAYER_FEATURE
100
AcDbSpline
 62
7
  6
CONTINUOUS
 70
0
 71
3
 72
12
 73
8
 74
0
 42
0.0000001
 43
0.0000001
 44
0.0000000001
 40
0.0
 40
0.0
 40
0.0
 40
0.0
 40
0.3032791945
 40
0.5691592087
 40
0.7966016813
 40
0.9000381153
 40
1.0
 40
1.0
 40
1.0
 40
1.0
 10
13.9987535643
 20
11.6497768372
 30
0.0
 10
13.9998295008
 20
11.6497768372
 30
0.0
 10
14.001856767
 20
11.649948951
 30
0.0
 10
14.004579508
 20
11.6508000643
 30
0.0
 10
14.0063639988
 20
11.6520322031
 30
0.0
 10
14.0072950861
 20
11.6532589112
 30
0.0
 10
14.007591049
 20
11.653925661
 30
0.0
 10
14.0076955898
 20
11.6542645346
 30
0.0
  0
SPLINE
  5
32B
100
AcDbEntity
  8
LAYER_FEATURE
100
AcDbSpline
 62
7
  6
CONTINUOUS
 70
0
 71
3
 72
11
 73
7
 74
0
 42
0.0000001
 43
0.0000001
 44
0.0000000001
 40
0.0
 40
0.0
 40
0.0
 40
0.0
 40
0.2304431642
 40
0.4848899039
 40
0.7473055244
 40
1.0
 40
1.0
 40
1.0
 40
1.0
 10
13.8124907233
 20
11.6558542438
 30
0.0
 10
13.8133664466
 20
11.6549205966
 30
0.0
 10
13.8154930897
 20
11.6532186105
 30
0.0
 10
13.8192121861
 20
11.6513255896
 30
0.0
 10
13.8233278394
 20
11.6500923388
 30
0.0
 10
13.8261937599
 20
11.6497768372
 30
0.0
 10
13.8275974359
 20
11.6497768372
 30
0.0
  0
SPLINE
  5
32C
100
AcDbEntity
  8
LAYER_FEATURE
100
AcDbSpline
 62
7
  6
CONTINUOUS
 70
0
 71
3
 72
12
 73
8
 74
0
 42
0.0000001
 43
0.0000001
 44
0.0000000001
 40
0.0
 40
0.0
 40
0.0
 40
0.0
 40
0.3032791945
 40
0.5691592087
 40
0.7966016813
 40
0.9000381153
 40
1.0
 40
1.0
 40
1.0
 40
1.0
 10
13.6533556916
 20
11.6497768372
 30
0.0
 10
13.654431628
 20
11.6497768372
 30
0.0
 10
13.6564588942
 20
11.649948951
 30
0.0
 10
13.6591816352
 20
11.6508000643
 30
0.0
 10
13.6609661261
 20
11.6520322031
 30
0.0
 10
13.6618972134
 20
11.6532589112
 30
0.0
 10
13.6621931762
 20
11.653925661
 30
0.0
 10
13.6622977171
 20
11.6542645346
 30
0.0
  0
SPLINE
  5
32D
100
AcDbEntity
  8
LAYER_FEATURE
100
AcDbSpline
 62
7
  6
CONTINUOUS
 70
0
 71
3
 72
11
 73
7
 74
0
 42
0.0000001
 43
0.0000001
 44
0.0000000001
 40
0.0
 40
0.0
 40
0.0
 40
0.0
 40
0.2304431642
 40
0.4848899039
 40
0.7473055244
 40
1.0
 40
1.0
 40
1.0
 40
1.0
 10
13.4670928505
 20
11.6558542438
 30
0.0
 10
13.4679685739
 20
11.6549205966
 30
0.0
 10
13.470095217
 20
11.6532186105
 30
0.0
 10
13.4738143134
 20
11.6513255896
 30
0.0
 10
13.4779299667
 20
11.6500923388
 30
0.0
 10
13.4807958872
 20
11.6497768372
 30
0.0
 10
13.4821995631
 20
11.6497768372
 30
0.0
  0
SPLINE
  5
32E
100
AcDbEntity
  8
0
100
AcDbSpline
 62
7
  6
CONTINUOUS
 70
0
 71
3
 72
12
 73
8
 74
0
 42
0.0000001
 43
0.0000001
 44
0.0000000001
 40
0.0
 40
0.0
 40
0.0
 40
0.0
 40
0.3032791945
 40
0.5691592087
 40
0.7966016813
 40
0.9000381153
 40
1.0
 40
1.0
 40
1.0
 40
1.0
 10
13.3079578188
 20
11.6497768372
 30
0.0
 10
13.3090337553
 20
11.6497768372
 30
0.0
 10
13.3110610215
 20
11.649948951
 30
0.0
 10
13.3137837625
 20
11.6508000643
 30
0.0
 10
13.3155682533
 20
11.6520322031
 30
0.0
 10
13.3164993406
 20
11.6532589112
 30
0.0
 10
13.3167953035
 20
11.653925661
 30
0.0
 10
13.3168998443
 20
11.6542645346
 30
0.0
  0
SPLINE
  5
32F
100
AcDbEntity
  8
0
100
AcDbSpline
 62
7
  6
CONTINUOUS
 70
0
 71
3
 72
11
 73
7
 74
0
 42
0.0000001
 43
0.0000001
 44
0.0000000001
 40
0.0
 40
0.0
 40
0.0
 40
0.0
 40
0.2304431642
 40
0.4848899039
 40
0.7473055244
 40
1.0
 40
1.0
 40
1.0
 40
1.0
 10
13.1216949778
 20
11.6558542438
 30
0.0
 10
13.1225707011
 20
11.6549205966
 30
0.0
 10
13.1246973442
 20
11.6532186105
 30
0.0
 10
13.1284164406
 20
11.6513255896
 30
0.0
 10
13.1325320939
 20
11.6500923388
 30
0.0
 10
13.1353980144
 20
11.6497768372
 30
0.0
 10
13.1368016904
 20
11.6497768372
 30
0.0
  0
SPLINE
  5
330
100
AcDbEntity
  8
0
100
AcDbSpline
 62
7
  6
CONTINUOUS
 70
0
 71
3
 72
11
 73
7
 74
0
 42
0.0000001
 43
0.0000001
 44
0.0000000001
 40
0.0
 40
0.0
 40
0.0
 40
0.0
 40
0.3026134201
 40
0.5698765566
 40
0.7977404036
 40
1.0
 40
1.0
 40
1.0
 40
1.0
 10
13.0010521814
 20
11.8051793293
 30
0.0
 10
13.0004673711
 20
11.8051793293
 30
0.0
 10
12.9993625309
 20
11.8050819424
 30
0.0
 10
12.9978749622
 20
11.8046211532
 30
0.0
 10
12.9967401794
 20
11.803844327
 30
0.0
 10
12.9962885127
 20
11.8031054358
 30
0.0
 10
12.9961749045
 20
11.802731437
 30
0.0
  0
SPLINE
  5
331
100
AcDbEntity
  8
0
100
AcDbSpline
 62
7
  6
CONTINUOUS
 70
0
 71
3
 72
12
 73
8
 74
0
 42
0.0000001
 43
0.0000001
 44
0.0000000001
 40
0.0
 40
0.0
 40
0.0
 40
0.0
 40
0.0999990666
 40
0.2120452568
 40
0.46384075
 40
0.7357948119
 40
1.0
 40
1.0
 40
1.0
 40
1.0
 10
17.445156639
 20
11.8005172546
 30
0.0
 10
17.4449989588
 20
11.800838573
 30
0.0
 10
17.4445776574
 20
11.801477954
 30
0.0
 10
17.4434277243
 20
11.8026836544
 30
0.0
 10
17.4414965184
 20
11.8039456166
 30
0.0
 10
17.438829552
 20
11.804916424
 30
0.0
 10
17.4369065263
 20
11.8051793293
 30
0.0
 10
17.4359608675
 20
11.8051793293
 30
0.0
  0
ENDSEC
  0
SECTION
  2
OBJECTS
  0
DICTIONARY
  5
C
100
AcDbDictionary
280
0
281
1
  3
ACAD_GROUP
350
D
  3
ACAD_MLINESTYLE
350
17
  3
ACAD_LAYOUT
350
1A
  3
ACAD_PLOTSETTINGS
350
19
  3
ACAD_PLOTSTYLENAME
350
E
  0
DICTIONARY
  5
D
102
{ACAD_REACTORS
330
C
102
}
100
AcDbDictionary
280
0
281
1
  0
ACDBDICTIONARYWDFLT
  5
E
102
{ACAD_REACTORS
330
C
102
}
100
AcDbDictionary
281
1
  3
Normal
350
F
100
AcDbDictionaryWithDefault
340
F
  0
DICTIONARY
  5
17
102
{ACAD_REACTORS
330
C
102
}
100
AcDbDictionary
280
0
281
1
  3
Standard
350
18
  0
DICTIONARY
  5
19
102
{ACAD_REACTORS
330
C
102
}
100
AcDbDictionary
281
1
  0
DICTIONARY
  5
1A
102
{ACAD_REACTORS
330
C
102
}
100
AcDbDictionary
281
1
  3
Model
350
332
  3
Layout1
350
333
  0
ACDBPLACEHOLDER
  5
F
102
{ACAD_REACTORS
330
E
102
}
  0
MLINESTYLE
  5
18
102
{ACAD_REACTORS
330
17
102
}
100
AcDbMlineStyle
  2
STANDARD
 70
0
  3

 62
256
 51
90.0
 52
90.0
 71
2
 49
0.5
 62
256
  6
BYLAYER
 49
-0.5
 62
256
  6
BYLAYER
  0
LAYOUT
  5
332
102
{ACAD_REACTORS
330
1A
102
}
100
AcDbPlotSettings
  1

  2
none_device
  4
ANSI_C_(22.00_x_17.00_Inches)
  6

 40
0.0
 41
0.0
 42
0.0
 43
0.0
 44
558.8
 45
431.8
 46
0.0
 47
0.0
 48
0.0
 49
0.0
140
0.0
141
0.0
142
1.0
143
1.0
 70
1024
 72
0
 73
0
 74
0
  7

 75
0
147
1.0
148
0.0
149
0.0
100
AcDbLayout
  1
Model
 70
0
 71
0
 10
0.0
 20
0.0
 11
22.0
 21
17.0
 12
0.0
 22
0.0
 32
0.0
 14
0.0
 24
0.0
 34
0.0
 15
0.0
 25
0.0
 35
0.0
146
0.0
 13
0.0
 23
0.0
 33
0.0
 16
1.0
 26
0.0
 36
0.0
 17
0.0
 27
1.0
 37
0.0
 76
0
330
21C
345
0
346
0
  0
LAYOUT
  5
333
102
{ACAD_REACTORS
330
1A
102
}
100
AcDbPlotSettings
  1

  2
none_device
  4
ANSI_C_(22.00_x_17.00_Inches)
  6

 40
0.0
 41
0.0
 42
0.0
 43
0.0
 44
558.8
 45
431.8
 46
0.0
 47
0.0
 48
0.0
 49
0.0
140
0.0
141
0.0
142
1.0
143
1.0
 70
0
 72
0
 73
0
 74
0
  7

 75
0
147
1.0
148
0.0
149
0.0
100
AcDbLayout
  1
Layout1
 70
0
 71
1
 10
0.0
 20
0.0
 11
22.0
 21
17.0
 12
0.0
 22
0.0
 32
0.0
 14
0.0
 24
0.0
 34
0.0
 15
0.0
 25
0.0
 35
0.0
146
0.0
 13
0.0
 23
0.0
 33
0.0
 16
1.0
 26
0.0
 36
0.0
 17
0.0
 27
1.0
 37
0.0
 76
0
330
21D
345
0
346
0
  0
ENDSEC
  0
EOF