999
DXF file: _cgs_temp_output.dxf
999
Pro/ENGINEER 2015110 by Parametric Technology Corporation
  0
SECTION
  2
HEADER
  9
$ACADVER
  1
AC1021
  9
$DWGCODEPAGE
  3
ANSI_1252
  9
$EXTMAX
 10
22.0
 20
17.0
 30
0.0
  9
$EXTMIN
 10
0.0
 20
0.0
 30
0.0
  9
$LIMMIN
 10
0.0
 20
0.0
  9
$LIMMAX
 10
22.0
 20
17.0
  9
$VIEWCTR
 10
11.0
 20
8.5
  9
$VIEWSIZE
 40
17.0
  9
$CLAYER
  8
0
  9
$LTSCALE
 40
1.21
  9
$CELTYPE
  6
BYLAYER
  9
$DIMSCALE
 40
1.0
  9
$DIMASZ
 40
0.1875
  9
$DIMEXO
 40
0.0625
  9
$DIMDLI
 40
0.836
  9
$DIMEXE
 40
0.125
  9
$DIMCEN
 40
0.198
  9
$DIMLFAC
 40
1.0
  9
$DIMBLK
  1
_CLOSED
  9
$DIMALT
 70
0
  9
$DIMALTF
 40
25.4
  9
$DIMTXT
 40
0.15625
  9
$DIMTOL
 70
0
  9
$DIMLIM
 70
0
  9
$DIMTFAC
 40
1.0
  9
$DIMGAP
 40
0.09
  9
$DIMDSEP
 70
46
  9
$AUNITS
 70
0
  9
$PDMODE
 70
3
  9
$PDSIZE
 40
0.3125
  9
$HANDSEED
  5
2AE
  9
$TILEMODE
 70
1
  9
$MEASUREMENT
 70
0
  9
$INSUNITS
 70
1
  0
ENDSEC
  0
SECTION
  2
CLASSES
  0
CLASS
  1
ACDBDICTIONARYWDFLT
  2
AcDbDictionaryWithDefault
  3
AutoCAD 2000
 90
0
 91
1
280
0
281
0
  0
CLASS
  1
ACDBPLACEHOLDER
  2
AcDbPlaceHolder
  3
AutoCAD 2000
 90
0
 91
1
280
0
281
0
  0
CLASS
  1
LAYOUT
  2
AcDbLayout
  3
AutoCAD 2000
 90
0
 91
0
280
0
281
0
  0
ENDSEC
  0
SECTION
  2
TABLES
  0
TABLE
  2
VPORT
  5
8
100
AcDbSymbolTable
 70
2
  0
VPORT
  5
1F4
100
AcDbSymbolTableRecord
100
AcDbViewportTableRecord
  2
*ACTIVE
 70
0
 10
0.0
 20
0.0
 11
1.0
 21
1.0
 12
11.0
 22
8.5
 13
0.0
 23
0.0
 14
1.0
 24
1.0
 15
0.0
 25
0.0
 16
0.0
 26
0.0
 36
1.0
 17
0.0
 27
0.0
 37
0.0
 40
17.0
 41
1.2941176471
 42
50.0
 43
0.0
 44
0.0
 50
0.0
 51
0.0
 71
0
 72
100
 73
1
 74
1
 75
0
 76
0
 77
0
 78
0
  0
ENDTAB
  0
TABLE
  2
LTYPE
  5
5
100
AcDbSymbolTable
 70
6
  0
LTYPE
  5
14
100
AcDbSymbolTableRecord
100
AcDbLinetypeTableRecord
  2
BYBLOCK
 70
0
  3

 72
65
 73
0
 40
0.0
  0
LTYPE
  5
15
100
AcDbSymbolTableRecord
100
AcDbLinetypeTableRecord
  2
BYLAYER
 70
0
  3

 72
65
 73
0
 40
0.0
  0
LTYPE
  5
16
100
AcDbSymbolTableRecord
100
AcDbLinetypeTableRecord
  2
CONTINUOUS
 70
64
  3
Solid line
 72
65
 73
0
 40
0.0
  0
LTYPE
  5
1F5
100
AcDbSymbolTableRecord
100
AcDbLinetypeTableRecord
  2
CENTER
 70
64
  3
____ _ ____ _ ____ _ ____ _ ____ _ ____ _ ____
 72
65
 73
4
 40
0.6
 49
0.375
 74
0
 49
-0.075
 74
0
 49
0.075
 74
0
 49
-0.075
 74
0
  0
LTYPE
  5
1F6
100
AcDbSymbolTableRecord
100
AcDbLinetypeTableRecord
  2
HIDDEN
 70
64
  3
- - - - - - - - - - - - - - - - - - - -
 72
65
 73
2
 40
0.2
 49
0.1
 74
0
 49
-0.1
 74
0
  0
LTYPE
  5
1F7
100
AcDbSymbolTableRecord
100
AcDbLinetypeTableRecord
  2
PHANTOM
 70
64
  3
_____ _ _ _____ _ _ _____ _ _ _____
 72
65
 73
6
 40
0.8
 49
0.45
 74
0
 49
-0.05
 74
0
 49
0.1
 74
0
 49
-0.05
 74
0
 49
0.1
 74
0
 49
-0.05
 74
0
  0
LTYPE
  5
1F8
100
AcDbSymbolTableRecord
100
AcDbLinetypeTableRecord
  2
DOT
 70
64
  3
. . . . . . . . . . . . . . . . . . . .
 72
65
 73
2
 40
0.2
 49
0.1
 74
0
 49
-0.1
 74
0
  0
LTYPE
  5
1F9
100
AcDbSymbolTableRecord
100
AcDbLinetypeTableRecord
  2
DASHED
 70
64
  3
- - - - - - - - - - - - - - - - - - - -
 72
65
 73
2
 40
0.2
 49
0.1
 74
0
 49
-0.1
 74
0
  0
ENDTAB
  0
TABLE
  2
LAYER
  5
2
100
AcDbSymbolTable
 70
36
  0
LAYER
  5
10
100
AcDbSymbolTableRecord
100
AcDbLayerTableRecord
  2
0
 70
0
 62
7
  6
CONTINUOUS
370
-3
390
F
  0
LAYER
  5
1FA
100
AcDbSymbolTableRecord
100
AcDbLayerTableRecord
  2
DEFAULT_1
 70
0
 62
7
  6
CENTER
370
-3
390
F
  0
LAYER
  5
1FB
100
AcDbSymbolTableRecord
100
AcDbLayerTableRecord
  2
DEFAULT_2
 70
0
 62
8
  6
HIDDEN
370
-3
390
F
  0
LAYER
  5
1FC
100
AcDbSymbolTableRecord
100
AcDbLayerTableRecord
  2
DEFAULT_3
 70
0
 62
7
  6
PHANTOM
370
-3
390
F
  0
LAYER
  5
1FD
100
AcDbSymbolTableRecord
100
AcDbLayerTableRecord
  2
01_ALL_DTM_PLN
 70
0
 62
7
  6
CONTINUOUS
370
-3
390
F
  0
LAYER
  5
1FE
100
AcDbSymbolTableRecord
100
AcDbLayerTableRecord
  2
01__ASM_ALL_DTM_PLN
 70
0
 62
7
  6
CONTINUOUS
370
-3
390
F
  0
LAYER
  5
1FF
100
AcDbSymbolTableRecord
100
AcDbLayerTableRecord
  2
01__ASM_DEF_DTM_PLN
 70
0
 62
7
  6
CONTINUOUS
370
-3
390
F
  0
LAYER
  5
200
100
AcDbSymbolTableRecord
100
AcDbLayerTableRecord
  2
01___PRT_ALL_DTM_PLN
 70
0
 62
7
  6
CONTINUOUS
370
-3
390
F
  0
LAYER
  5
201
100
AcDbSymbolTableRecord
100
AcDbLayerTableRecord
  2
01___PRT_DEF_DTM_PLN
 70
0
 62
7
  6
CONTINUOUS
370
-3
390
F
  0
LAYER
  5
202
100
AcDbSymbolTableRecord
100
AcDbLayerTableRecord
  2
02_ALL_AXES
 70
0
 62
7
  6
CONTINUOUS
370
-3
390
F
  0
LAYER
  5
203
100
AcDbSymbolTableRecord
100
AcDbLayerTableRecord
  2
02__ASM_ALL_AXES
 70
0
 62
7
  6
CONTINUOUS
370
-3
390
F
  0
LAYER
  5
204
100
AcDbSymbolTableRecord
100
AcDbLayerTableRecord
  2
02___PRT_ALL_AXES
 70
0
 62
7
  6
CONTINUOUS
370
-3
390
F
  0
LAYER
  5
205
100
AcDbSymbolTableRecord
100
AcDbLayerTableRecord
  2
03_ALL_CURVES
 70
0
 62
7
  6
CONTINUOUS
370
-3
390
F
  0
LAYER
  5
206
100
AcDbSymbolTableRecord
100
AcDbLayerTableRecord
  2
03__ASM_ALL_CURVES
 70
0
 62
7
  6
CONTINUOUS
370
-3
390
F
  0
LAYER
  5
207
100
AcDbSymbolTableRecord
100
AcDbLayerTableRecord
  2
03___PRT_ALL_CURVES
 70
0
 62
7
  6
CONTINUOUS
370
-3
390
F
  0
LAYER
  5
208
100
AcDbSymbolTableRecord
100
AcDbLayerTableRecord
  2
04_ALL_DTM_PNT
 70
0
 62
7
  6
CONTINUOUS
370
-3
390
F
  0
LAYER
  5
209
100
AcDbSymbolTableRecord
100
AcDbLayerTableRecord
  2
04__ASM_ALL_DTM_PNT
 70
0
 62
7
  6
CONTINUOUS
370
-3
390
F
  0
LAYER
  5
20A
100
AcDbSymbolTableRecord
100
AcDbLayerTableRecord
  2
04___PRT_ALL_DTM_PNT
 70
0
 62
7
  6
CONTINUOUS
370
-3
390
F
  0
LAYER
  5
20B
100
AcDbSymbolTableRecord
100
AcDbLayerTableRecord
  2
05_ALL_DTM_CSYS
 70
0
 62
7
  6
CONTINUOUS
370
-3
390
F
  0
LAYER
  5
20C
100
AcDbSymbolTableRecord
100
AcDbLayerTableRecord
  2
05__ASM_ALL_DTM_CSYS
 70
0
 62
7
  6
CONTINUOUS
370
-3
390
F
  0
LAYER
  5
20D
100
AcDbSymbolTableRecord
100
AcDbLayerTableRecord
  2
05__ASM_DEF_DTM_CSYS
 70
0
 62
7
  6
CONTINUOUS
370
-3
390
F
  0
LAYER
  5
20E
100
AcDbSymbolTableRecord
100
AcDbLayerTableRecord
  2
05___PRT_ALL_DTM_CSYS
 70
0
 62
7
  6
CONTINUOUS
370
-3
390
F
  0
LAYER
  5
20F
100
AcDbSymbolTableRecord
100
AcDbLayerTableRecord
  2
05___PRT_DEF_DTM_CSYS
 70
0
 62
7
  6
CONTINUOUS
370
-3
390
F
  0
LAYER
  5
210
100
AcDbSymbolTableRecord
100
AcDbLayerTableRecord
  2
06_ALL_SURFS
 70
0
 62
7
  6
CONTINUOUS
370
-3
390
F
  0
LAYER
  5
211
100
AcDbSymbolTableRecord
100
AcDbLayerTableRecord
  2
06__ASM_ALL_SURFS
 70
0
 62
7
  6
CONTINUOUS
370
-3
390
F
  0
LAYER
  5
212
100
AcDbSymbolTableRecord
100
AcDbLayerTableRecord
  2
06___PRT_ALL_SURFS
 70
0
 62
7
  6
CONTINUOUS
370
-3
390
F
  0
LAYER
  5
213
100
AcDbSymbolTableRecord
100
AcDbLayerTableRecord
  2
07__ASM_ALL_SKELETONS
 70
0
 62
7
  6
CONTINUOUS
370
-3
390
F
  0
ENDTAB
  0
TABLE
  2
STYLE
  5
3
100
AcDbSymbolTable
 70
1
  0
STYLE
  5
11
100
AcDbSymbolTableRecord
100
AcDbTextStyleTableRecord
  2
STANDARD
 70
0
 40
0.0
 41
0.8
 50
0.0
 71
0
 42
0.2
  3
txt
  4

  0
STYLE
  5
214
100
AcDbSymbolTableRecord
100
AcDbTextStyleTableRecord
  2
TEXTSTYLE_1
 70
0
 40
0.0
 41
0.8
 50
0.0
 71
0
 42
0.2
  3
gdt
  4

  0
ENDTAB
  0
TABLE
  2
VIEW
  5
6
100
AcDbSymbolTable
 70
0
  0
ENDTAB
  0
TABLE
  2
UCS
  5
7
100
AcDbSymbolTable
 70
0
  0
ENDTAB
  0
TABLE
  2
APPID
  5
9
100
AcDbSymbolTable
 70
1
  0
APPID
  5
215
100
AcDbSymbolTableRecord
100
AcDbRegAppTableRecord
  2
ACAD
 70
0
  0
ENDTAB
  0
TABLE
  2
BLOCK_RECORD
  5
1
100
AcDbSymbolTable
 70
0
  0
BLOCK_RECORD
  5
216
100
AcDbSymbolTableRecord
100
AcDbBlockTableRecord
  2
*Model_Space
  0
BLOCK_RECORD
  5
217
100
AcDbSymbolTableRecord
100
AcDbBlockTableRecord
  2
*Paper_Space
  0
ENDTAB
  0
TABLE
  2
DIMSTYLE
  5
A
100
AcDbSymbolTable
 70
1
100
AcDbDimStyleTable
 71
0
  0
DIMSTYLE
105
218
100
AcDbSymbolTableRecord
100
AcDbDimStyleTableRecord
  2
STANDARD
 70
0
  3

  4

 40
1.0
 41
0.1875
 42
0.0625
 43
0.38
 44
0.125
 45
0.0
 46
0.0
 47
0.0001
 48
0.0001
140
0.15625
141
0.09
142
0.0
143
25.4
144
1.0
145
0.0
146
1.0
147
0.09
 71
0.0
 72
0.0
 73
1
 74
1
 75
0
 76
0
 77
0
 78
4
170
0
171
2
172
0
173
0
174
0
175
0
176
0
177
0
178
0
270
2
271
4
272
4
273
2
274
2
275
0
280
0
281
0
282
0
283
1
284
4
285
0
286
0
287
3
288
0
340
11
278
46
  0
ENDTAB
  0
ENDSEC
  0
SECTION
  2
BLOCKS
  0
BLOCK
  5
20
100
AcDbEntity
  8
0
100
AcDbBlockBegin
  2
*Model_Space
 70
0
 10
0.0
 20
0.0
 30
0.0
  3
*Model_Space
  1

  0
ENDBLK
  5
21
100
AcDbEntity
  8
0
100
AcDbBlockEnd
  0
BLOCK
  5
1C
100
AcDbEntity
  8
0
100
AcDbBlockBegin
  2
*Paper_Space
 70
0
 10
0.0
 20
0.0
 30
0.0
  3
*Paper_Space
  1

  0
ENDBLK
  5
1D
100
AcDbEntity
  8
0
100
AcDbBlockEnd
  0
ENDSEC
  0
SECTION
  2
ENTITIES
  0
MTEXT
  5
219
100
AcDbEntity
  8
0
100
AcDbMText
 62
7
  6
CONTINUOUS
  7
STANDARD
 71
1
 72
1
 10
15.9560215477
 20
0.9479130325
 30
0.0
 11
1.0
 21
0.0
 31
0.0
 44
0.9
  1
SCALE: 1:1.000
 40
0.3
 41
3.36
  0
LINE
  5
21A
100
AcDbEntity
  8
0
100
AcDbLine
 62
7
  6
CONTINUOUS
 10
0.0
 20
0.0
 11
0.0
 21
17.0
  0
LINE
  5
21B
100
AcDbEntity
  8
0
100
AcDbLine
 62
7
  6
CONTINUOUS
 10
0.0
 20
0.0
 11
22.0
 21
0.0
  0
LINE
  5
21C
100
AcDbEntity
  8
0
100
AcDbLine
 62
7
  6
CONTINUOUS
 10
0.0
 20
17.0
 11
22.0
 21
17.0
  0
LINE
  5
21D
100
AcDbEntity
  8
0
100
AcDbLine
 62
7
  6
CONTINUOUS
 10
22.0
 20
0.0
 11
22.0
 21
17.0
  0
LINE
  5
21E
100
AcDbEntity
  8
0
100
AcDbLine
 62
7
  6
CONTINUOUS
 10
4.6303672762
 20
5.6001198968
 11
4.6303672762
 21
5.5301198968
  0
LINE
  5
21F
100
AcDbEntity
  8
0
100
AcDbLine
 62
7
  6
CONTINUOUS
 10
4.7312200788
 20
5.5129722143
 11
4.7507422928
 21
5.4658414204
  0
LINE
  5
220
100
AcDbEntity
  8
0
100
AcDbLine
 62
7
  6
CONTINUOUS
 10
5.0099922595
 20
5.4658414204
 11
5.0295144735
 21
5.5129722143
  0
LINE
  5
221
100
AcDbEntity
  8
0
100
AcDbLine
 62
7
  6
CONTINUOUS
 10
5.2312200788
 20
5.5129722143
 11
5.2507422928
 21
5.4658414204
  0
LINE
  5
222
100
AcDbEntity
  8
0
100
AcDbLine
 62
7
  6
CONTINUOUS
 10
5.5099922595
 20
5.4658414204
 11
5.5295144735
 21
5.5129722143
  0
LINE
  5
223
100
AcDbEntity
  8
0
100
AcDbLine
 62
7
  6
CONTINUOUS
 10
5.7312200788
 20
5.5129722143
 11
5.7507422928
 21
5.4658414204
  0
LINE
  5
224
100
AcDbEntity
  8
0
100
AcDbLine
 62
7
  6
CONTINUOUS
 10
6.0099922595
 20
5.4658414204
 11
6.0295144735
 21
5.5129722143
  0
LINE
  5
225
100
AcDbEntity
  8
0
100
AcDbLine
 62
7
  6
CONTINUOUS
 10
4.7892372734
 20
5.4401198968
 11
4.971497279
 21
5.4401198968
  0
LINE
  5
226
100
AcDbEntity
  8
0
100
AcDbLine
 62
7
  6
CONTINUOUS
 10
5.2892372734
 20
5.4401198968
 11
5.471497279
 21
5.4401198968
  0
LINE
  5
227
100
AcDbEntity
  8
0
100
AcDbLine
 62
7
  6
CONTINUOUS
 10
5.7892372734
 20
5.4401198968
 11
5.971497279
 21
5.4401198968
  0
LINE
  5
228
100
AcDbEntity
  8
0
100
AcDbLine
 62
7
  6
CONTINUOUS
 10
6.2892372734
 20
5.4401198968
 11
6.471497279
 21
5.4401198968
  0
LINE
  5
229
100
AcDbEntity
  8
0
100
AcDbLine
 62
7
  6
CONTINUOUS
 10
6.7892372734
 20
5.4401198968
 11
6.971497279
 21
5.4401198968
  0
LINE
  5
22A
100
AcDbEntity
  8
0
100
AcDbLine
 62
7
  6
CONTINUOUS
 10
7.2892372734
 20
5.4401198968
 11
7.471497279
 21
5.4401198968
  0
LINE
  5
22B
100
AcDbEntity
  8
0
100
AcDbLine
 62
7
  6
CONTINUOUS
 10
4.6303672762
 20
5.5301198968
 11
4.7055567584
 21
5.5301198968
  0
LINE
  5
22C
100
AcDbEntity
  8
0
100
AcDbLine
 62
7
  6
CONTINUOUS
 10
5.0551777939
 20
5.5301198968
 11
5.2055567584
 21
5.5301198968
  0
LINE
  5
22D
100
AcDbEntity
  8
0
100
AcDbLine
 62
7
  6
CONTINUOUS
 10
5.5551777939
 20
5.5301198968
 11
5.7055567584
 21
5.5301198968
  0
LINE
  5
22E
100
AcDbEntity
  8
0
100
AcDbLine
 62
7
  6
CONTINUOUS
 10
6.0551777939
 20
5.5301198968
 11
6.2055567584
 21
5.5301198968
  0
LINE
  5
22F
100
AcDbEntity
  8
0
100
AcDbLine
 62
7
  6
CONTINUOUS
 10
6.5551777939
 20
5.5301198968
 11
6.7055567584
 21
5.5301198968
  0
LINE
  5
230
100
AcDbEntity
  8
0
100
AcDbLine
 62
7
  6
CONTINUOUS
 10
7.0551777939
 20
5.5301198968
 11
7.2055567584
 21
5.5301198968
  0
LINE
  5
231
100
AcDbEntity
  8
0
100
AcDbLine
 62
7
  6
CONTINUOUS
 10
7.5551777939
 20
5.5301198968
 11
7.6303672762
 21
5.5301198968
  0
LINE
  5
232
100
AcDbEntity
  8
0
100
AcDbLine
 62
7
  6
CONTINUOUS
 10
7.6303672762
 20
5.6001198968
 11
4.6303672762
 21
5.6001198968
  0
LINE
  5
233
100
AcDbEntity
  8
0
100
AcDbLine
 62
7
  6
CONTINUOUS
 10
6.2312200788
 20
5.5129722143
 11
6.2507422928
 21
5.4658414204
  0
LINE
  5
234
100
AcDbEntity
  8
0
100
AcDbLine
 62
7
  6
CONTINUOUS
 10
6.5099922595
 20
5.4658414204
 11
6.5295144735
 21
5.5129722143
  0
LINE
  5
235
100
AcDbEntity
  8
0
100
AcDbLine
 62
7
  6
CONTINUOUS
 10
6.7312200788
 20
5.5129722143
 11
6.7507422928
 21
5.4658414204
  0
LINE
  5
236
100
AcDbEntity
  8
0
100
AcDbLine
 62
7
  6
CONTINUOUS
 10
7.0099922595
 20
5.4658414204
 11
7.0295144735
 21
5.5129722143
  0
LINE
  5
237
100
AcDbEntity
  8
0
100
AcDbLine
 62
7
  6
CONTINUOUS
 10
7.2312200788
 20
5.5129722143
 11
7.2507422928
 21
5.4658414204
  0
LINE
  5
238
100
AcDbEntity
  8
0
100
AcDbLine
 62
7
  6
CONTINUOUS
 10
7.5099922595
 20
5.4658414204
 11
7.5295144735
 21
5.5129722143
  0
LINE
  5
239
100
AcDbEntity
  8
0
100
AcDbLine
 62
7
  6
CONTINUOUS
 10
7.6303672762
 20
5.5301198968
 11
7.6303672762
 21
5.6001198968
  0
LINE
  5
23A
100
AcDbEntity
  8
0
100
AcDbLine
 62
7
  6
CONTINUOUS
 10
4.5708720839
 20
14.1000477814
 11
4.5708720839
 21
11.1000477814
  0
LINE
  5
23B
100
AcDbEntity
  8
0
100
AcDbLine
 62
7
  6
CONTINUOUS
 10
7.5708720839
 20
11.1000477814
 11
4.5708720839
 21
11.1000477814
  0
LINE
  5
23C
100
AcDbEntity
  8
0
100
AcDbLine
 62
7
  6
CONTINUOUS
 10
7.5708720839
 20
14.1000477814
 11
7.5708720839
 21
11.1000477814
  0
LINE
  5
23D
100
AcDbEntity
  8
0
100
AcDbLine
 62
7
  6
CONTINUOUS
 10
4.5708720839
 20
14.1000477814
 11
7.5708720839
 21
14.1000477814
  0
LINE
  5
23E
100
AcDbEntity
  8
0
100
AcDbLine
 62
7
  6
CONTINUOUS
 10
14.0603552569
 20
5.3806247044
 11
14.0603552569
 21
5.5406247044
  0
LINE
  5
23F
100
AcDbEntity
  8
0
100
AcDbLine
 62
7
  6
CONTINUOUS
 10
14.0603552569
 20
5.3806247044
 11
17.0603552569
 21
5.3806247044
  0
LINE
  5
240
100
AcDbEntity
  8
0
100
AcDbLine
 62
7
  6
CONTINUOUS
 10
17.0603552569
 20
5.4706247044
 11
14.0603552569
 21
5.4706247044
  0
LINE
  5
241
100
AcDbEntity
  8
0
100
AcDbLine
 62
7
  6
CONTINUOUS
 10
17.0603552569
 20
5.5406247044
 11
14.0603552569
 21
5.5406247044
  0
LINE
  5
242
100
AcDbEntity
  8
0
100
AcDbLine
 62
7
  6
CONTINUOUS
 10
17.0603552569
 20
5.3806247044
 11
17.0603552569
 21
5.5406247044
  0
LINE
  5
243
100
AcDbEntity
  8
0
100
AcDbLine
 62
7
  6
CONTINUOUS
 10
13.715745027
 20
11.3855434259
 11
13.7370979577
 21
11.3420307281
  0
LINE
  5
244
100
AcDbEntity
  8
0
100
AcDbLine
 62
7
  6
CONTINUOUS
 10
13.8352203014
 20
11.3313715578
 11
13.8675783166
 21
11.3020745865
  0
LINE
  5
245
100
AcDbEntity
  8
0
100
AcDbLine
 62
7
  6
CONTINUOUS
 10
14.2957507984
 20
11.3313715578
 11
14.3281088136
 21
11.3020745865
  0
LINE
  5
246
100
AcDbEntity
  8
0
100
AcDbLine
 62
7
  6
CONTINUOUS
 10
14.4419439972
 20
13.7355241548
 11
13.715745027
 21
11.3855434259
  0
LINE
  5
247
100
AcDbEntity
  8
0
100
AcDbLine
 62
7
  6
CONTINUOUS
 10
14.7562812954
 20
11.3313715578
 11
14.7886393106
 21
11.3020745865
  0
LINE
  5
248
100
AcDbEntity
  8
0
100
AcDbLine
 62
7
  6
CONTINUOUS
 10
14.1063633486
 20
11.3020745865
 11
14.1099676331
 21
11.3313715578
  0
LINE
  5
249
100
AcDbEntity
  8
0
100
AcDbLine
 62
7
  6
CONTINUOUS
 10
13.9108806832
 20
11.286085831
 11
14.0787532652
 21
11.286085831
  0
LINE
  5
24A
100
AcDbEntity
  8
0
100
AcDbLine
 62
7
  6
CONTINUOUS
 10
14.3714111802
 20
11.286085831
 11
14.5392837622
 21
11.286085831
  0
LINE
  5
24B
100
AcDbEntity
  8
0
100
AcDbLine
 62
7
  6
CONTINUOUS
 10
14.8319416772
 20
11.286085831
 11
14.9998142592
 21
11.286085831
  0
LINE
  5
24C
100
AcDbEntity
  8
0
100
AcDbLine
 62
7
  6
CONTINUOUS
 10
15.2924721742
 20
11.286085831
 11
15.4603447562
 21
11.286085831
  0
LINE
  5
24D
100
AcDbEntity
  8
0
100
AcDbLine
 62
7
  6
CONTINUOUS
 10
15.7530026712
 20
11.286085831
 11
15.9208752532
 21
11.286085831
  0
LINE
  5
24E
100
AcDbEntity
  8
0
100
AcDbLine
 62
7
  6
CONTINUOUS
 10
16.2135331682
 20
11.286085831
 11
16.3814057502
 21
11.286085831
  0
LINE
  5
24F
100
AcDbEntity
  8
0
100
AcDbLine
 62
7
  6
CONTINUOUS
 10
13.7370979577
 20
11.3420307281
 11
13.806352057
 21
11.3420307281
  0
LINE
  5
250
100
AcDbEntity
  8
0
100
AcDbLine
 62
7
  6
CONTINUOUS
 10
14.1283743554
 20
11.3420307281
 11
14.266882554
 21
11.3420307281
  0
LINE
  5
251
100
AcDbEntity
  8
0
100
AcDbLine
 62
7
  6
CONTINUOUS
 10
14.5889048524
 20
11.3420307281
 11
14.727413051
 21
11.3420307281
  0
LINE
  5
252
100
AcDbEntity
  8
0
100
AcDbLine
 62
7
  6
CONTINUOUS
 10
15.0494353494
 20
11.3420307281
 11
15.187943548
 21
11.3420307281
  0
LINE
  5
253
100
AcDbEntity
  8
0
100
AcDbLine
 62
7
  6
CONTINUOUS
 10
15.5099658464
 20
11.3420307281
 11
15.648474045
 21
11.3420307281
  0
LINE
  5
254
100
AcDbEntity
  8
0
100
AcDbLine
 62
7
  6
CONTINUOUS
 10
15.9704963434
 20
11.3420307281
 11
16.109004542
 21
11.3420307281
  0
LINE
  5
255
100
AcDbEntity
  8
0
100
AcDbLine
 62
7
  6
CONTINUOUS
 10
16.4310268404
 20
11.3420307281
 11
16.5002809397
 21
11.3420307281
  0
LINE
  5
256
100
AcDbEntity
  8
0
100
AcDbLine
 62
7
  6
CONTINUOUS
 10
16.478928009
 20
11.3855434259
 11
13.715745027
 21
11.3855434259
  0
LINE
  5
257
100
AcDbEntity
  8
0
100
AcDbLine
 62
7
  6
CONTINUOUS
 10
14.10584633
 20
11.2996861421
 11
14.1063633486
 21
11.3020745865
  0
LINE
  5
258
100
AcDbEntity
  8
0
100
AcDbLine
 62
7
  6
CONTINUOUS
 10
14.1099676331
 20
11.3313715578
 11
14.1103131883
 21
11.3329635835
  0
LINE
  5
259
100
AcDbEntity
  8
0
100
AcDbLine
 62
7
  6
CONTINUOUS
 10
15.2168117924
 20
11.3313715578
 11
15.2491698076
 21
11.3020745865
  0
LINE
  5
25A
100
AcDbEntity
  8
0
100
AcDbLine
 62
7
  6
CONTINUOUS
 10
14.106571203
 20
11.3020103546
 11
14.1183638816
 21
11.3401714768
  0
LINE
  5
25B
100
AcDbEntity
  8
0
100
AcDbLine
 62
7
  6
CONTINUOUS
 10
14.5668938456
 20
11.3020745865
 11
14.5704981301
 21
11.3313715578
  0
LINE
  5
25C
100
AcDbEntity
  8
0
100
AcDbLine
 62
7
  6
CONTINUOUS
 10
15.6773422894
 20
11.3313715578
 11
15.7097003046
 21
11.3020745865
  0
LINE
  5
25D
100
AcDbEntity
  8
0
100
AcDbLine
 62
7
  6
CONTINUOUS
 10
14.566376827
 20
11.2996861421
 11
14.5668938456
 21
11.3020745865
  0
LINE
  5
25E
100
AcDbEntity
  8
0
100
AcDbLine
 62
7
  6
CONTINUOUS
 10
14.5704981301
 20
11.3313715578
 11
14.5708436853
 21
11.3329635835
  0
LINE
  5
25F
100
AcDbEntity
  8
0
100
AcDbLine
 62
7
  6
CONTINUOUS
 10
14.5671017
 20
11.3020103546
 11
14.5788943786
 21
11.3401714768
  0
LINE
  5
260
100
AcDbEntity
  8
0
100
AcDbLine
 62
7
  6
CONTINUOUS
 10
16.1378727864
 20
11.3313715578
 11
16.1702308016
 21
11.3020745865
  0
LINE
  5
261
100
AcDbEntity
  8
0
100
AcDbLine
 62
7
  6
CONTINUOUS
 10
15.0274243426
 20
11.3020745865
 11
15.0310286271
 21
11.3313715578
  0
LINE
  5
262
100
AcDbEntity
  8
0
100
AcDbLine
 62
7
  6
CONTINUOUS
 10
15.026907324
 20
11.2996861421
 11
15.0274243426
 21
11.3020745865
  0
LINE
  5
263
100
AcDbEntity
  8
0
100
AcDbLine
 62
7
  6
CONTINUOUS
 10
15.0310286271
 20
11.3313715578
 11
15.0313741823
 21
11.3329635835
  0
LINE
  5
264
100
AcDbEntity
  8
0
100
AcDbLine
 62
7
  6
CONTINUOUS
 10
15.027632197
 20
11.3020103546
 11
15.0394248756
 21
11.3401714768
  0
LINE
  5
265
100
AcDbEntity
  8
0
100
AcDbLine
 62
7
  6
CONTINUOUS
 10
15.4879548396
 20
11.3020745865
 11
15.4915591241
 21
11.3313715578
  0
LINE
  5
266
100
AcDbEntity
  8
0
100
AcDbLine
 62
7
  6
CONTINUOUS
 10
15.487437821
 20
11.2996861421
 11
15.4879548396
 21
11.3020745865
  0
LINE
  5
267
100
AcDbEntity
  8
0
100
AcDbLine
 62
7
  6
CONTINUOUS
 10
15.4915591241
 20
11.3313715578
 11
15.4919046793
 21
11.3329635835
  0
LINE
  5
268
100
AcDbEntity
  8
0
100
AcDbLine
 62
7
  6
CONTINUOUS
 10
15.488162694
 20
11.3020103546
 11
15.4999553726
 21
11.3401714768
  0
LINE
  5
269
100
AcDbEntity
  8
0
100
AcDbLine
 62
7
  6
CONTINUOUS
 10
16.5002809397
 20
11.3420307281
 11
16.478928009
 21
11.3855434259
  0
LINE
  5
26A
100
AcDbEntity
  8
0
100
AcDbLine
 62
7
  6
CONTINUOUS
 10
15.9484853366
 20
11.3020745865
 11
15.9520896211
 21
11.3313715578
  0
LINE
  5
26B
100
AcDbEntity
  8
0
100
AcDbLine
 62
7
  6
CONTINUOUS
 10
15.947968318
 20
11.2996861421
 11
15.9484853366
 21
11.3020745865
  0
LINE
  5
26C
100
AcDbEntity
  8
0
100
AcDbLine
 62
7
  6
CONTINUOUS
 10
15.9520896211
 20
11.3313715578
 11
15.9524351763
 21
11.3329635835
  0
LINE
  5
26D
100
AcDbEntity
  8
0
100
AcDbLine
 62
7
  6
CONTINUOUS
 10
15.948693191
 20
11.3020103546
 11
15.9604858696
 21
11.3401714768
  0
LINE
  5
26E
100
AcDbEntity
  8
0
100
AcDbLine
 62
7
  6
CONTINUOUS
 10
16.4090158336
 20
11.3020745865
 11
16.4126201181
 21
11.3313715578
  0
LINE
  5
26F
100
AcDbEntity
  8
0
100
AcDbLine
 62
7
  6
CONTINUOUS
 10
16.408498815
 20
11.2996861421
 11
16.4090158336
 21
11.3020745865
  0
LINE
  5
270
100
AcDbEntity
  8
0
100
AcDbLine
 62
7
  6
CONTINUOUS
 10
16.4126201181
 20
11.3313715578
 11
16.4129656733
 21
11.3329635835
  0
LINE
  5
271
100
AcDbEntity
  8
0
100
AcDbLine
 62
7
  6
CONTINUOUS
 10
16.409223688
 20
11.3020103546
 11
16.4210163666
 21
11.3401714768
  0
LINE
  5
272
100
AcDbEntity
  8
0
100
AcDbLine
 62
7
  6
CONTINUOUS
 10
17.2051269793
 20
13.7355241548
 11
16.478928009
 21
11.3855434259
  0
LINE
  5
273
100
AcDbEntity
  8
0
100
AcDbLine
 62
7
  6
CONTINUOUS
 10
14.4419439972
 20
13.7355241548
 11
17.2051269793
 21
13.7355241548
  0
LINE
  5
274
100
AcDbEntity
  8
0
100
AcDbLine
 62
7
  6
CONTINUOUS
 10
17.2264799099
 20
13.692011457
 11
16.5002809397
 21
11.3420307281
  0
LINE
  5
275
100
AcDbEntity
  8
0
100
AcDbLine
 62
7
  6
CONTINUOUS
 10
17.2264799099
 20
13.692011457
 11
17.2051269793
 21
13.7355241548
  0
ARC
  5
276
100
AcDbEntity
  8
0
100
AcDbCircle
 62
7
  6
CONTINUOUS
 10
5.2892372734
 20
5.4817865634
 40
0.0416666667
100
AcDbArc
 50
202.5
 51
270.0
  0
ARC
  5
277
100
AcDbEntity
  8
0
100
AcDbCircle
 62
7
  6
CONTINUOUS
 10
5.471497279
 20
5.4817865634
 40
0.0416666667
100
AcDbArc
 50
270.0
 51
337.5
  0
ARC
  5
278
100
AcDbEntity
  8
0
100
AcDbCircle
 62
7
  6
CONTINUOUS
 10
5.7892372734
 20
5.4817865634
 40
0.0416666667
100
AcDbArc
 50
202.5
 51
270.0
  0
ARC
  5
279
100
AcDbEntity
  8
0
100
AcDbCircle
 62
7
  6
CONTINUOUS
 10
5.971497279
 20
5.4817865634
 40
0.0416666667
100
AcDbArc
 50
270.0
 51
337.5
  0
ARC
  5
27A
100
AcDbEntity
  8
0
100
AcDbCircle
 62
7
  6
CONTINUOUS
 10
6.2892372734
 20
5.4817865634
 40
0.0416666667
100
AcDbArc
 50
202.5
 51
270.0
  0
ARC
  5
27B
100
AcDbEntity
  8
0
100
AcDbCircle
 62
7
  6
CONTINUOUS
 10
6.471497279
 20
5.4817865634
 40
0.0416666667
100
AcDbArc
 50
270.0
 51
337.5
  0
ARC
  5
27C
100
AcDbEntity
  8
0
100
AcDbCircle
 62
7
  6
CONTINUOUS
 10
4.971497279
 20
5.4817865634
 40
0.0416666667
100
AcDbArc
 50
270.0
 51
337.5
  0
ARC
  5
27D
100
AcDbEntity
  8
0
100
AcDbCircle
 62
7
  6
CONTINUOUS
 10
4.7892372734
 20
5.4817865634
 40
0.0416666667
100
AcDbArc
 50
202.5
 51
270.0
  0
ARC
  5
27E
100
AcDbEntity
  8
0
100
AcDbCircle
 62
7
  6
CONTINUOUS
 10
7.471497279
 20
5.4817865634
 40
0.0416666667
100
AcDbArc
 50
270.0
 51
337.5
  0
ARC
  5
27F
100
AcDbEntity
  8
0
100
AcDbCircle
 62
7
  6
CONTINUOUS
 10
7.2892372734
 20
5.4817865634
 40
0.0416666667
100
AcDbArc
 50
202.5
 51
270.0
  0
ARC
  5
280
100
AcDbEntity
  8
0
100
AcDbCircle
 62
7
  6
CONTINUOUS
 10
6.971497279
 20
5.4817865634
 40
0.0416666667
100
AcDbArc
 50
270.0
 51
337.5
  0
ARC
  5
281
100
AcDbEntity
  8
0
100
AcDbCircle
 62
7
  6
CONTINUOUS
 10
6.7892372734
 20
5.4817865634
 40
0.0416666667
100
AcDbArc
 50
202.5
 51
270.0
  0
ARC
  5
282
100
AcDbEntity
  8
0
100
AcDbCircle
 62
7
  6
CONTINUOUS
 10
5.0551777939
 20
5.502342119
 40
0.0277777778
100
AcDbArc
 50
90.0
 51
157.5
  0
ARC
  5
283
100
AcDbEntity
  8
0
100
AcDbCircle
 62
7
  6
CONTINUOUS
 10
4.7055567584
 20
5.502342119
 40
0.0277777778
100
AcDbArc
 50
22.5
 51
90.0
  0
ARC
  5
284
100
AcDbEntity
  8
0
100
AcDbCircle
 62
7
  6
CONTINUOUS
 10
5.5551777939
 20
5.502342119
 40
0.0277777778
100
AcDbArc
 50
90.0
 51
157.5
  0
ARC
  5
285
100
AcDbEntity
  8
0
100
AcDbCircle
 62
7
  6
CONTINUOUS
 10
5.2055567584
 20
5.502342119
 40
0.0277777778
100
AcDbArc
 50
22.5
 51
90.0
  0
ARC
  5
286
100
AcDbEntity
  8
0
100
AcDbCircle
 62
7
  6
CONTINUOUS
 10
6.0551777939
 20
5.502342119
 40
0.0277777778
100
AcDbArc
 50
90.0
 51
157.5
  0
ARC
  5
287
100
AcDbEntity
  8
0
100
AcDbCircle
 62
7
  6
CONTINUOUS
 10
5.7055567584
 20
5.502342119
 40
0.0277777778
100
AcDbArc
 50
22.5
 51
90.0
  0
ARC
  5
288
100
AcDbEntity
  8
0
100
AcDbCircle
 62
7
  6
CONTINUOUS
 10
6.5551777939
 20
5.502342119
 40
0.0277777778
100
AcDbArc
 50
90.0
 51
157.5
  0
ARC
  5
289
100
AcDbEntity
  8
0
100
AcDbCircle
 62
7
  6
CONTINUOUS
 10
6.2055567584
 20
5.502342119
 40
0.0277777778
100
AcDbArc
 50
22.5
 51
90.0
  0
ARC
  5
28A
100
AcDbEntity
  8
0
100
AcDbCircle
 62
7
  6
CONTINUOUS
 10
7.0551777939
 20
5.502342119
 40
0.0277777778
100
AcDbArc
 50
90.0
 51
157.5
  0
ARC
  5
28B
100
AcDbEntity
  8
0
100
AcDbCircle
 62
7
  6
CONTINUOUS
 10
6.7055567584
 20
5.502342119
 40
0.0277777778
100
AcDbArc
 50
22.5
 51
90.0
  0
ARC
  5
28C
100
AcDbEntity
  8
0
100
AcDbCircle
 62
7
  6
CONTINUOUS
 10
7.5551777939
 20
5.502342119
 40
0.0277777778
100
AcDbArc
 50
90.0
 51
157.5
  0
ARC
  5
28D
100
AcDbEntity
  8
0
100
AcDbCircle
 62
7
  6
CONTINUOUS
 10
7.2055567584
 20
5.502342119
 40
0.0277777778
100
AcDbArc
 50
22.5
 51
90.0
  0
SPLINE
  5
28E
100
AcDbEntity
  8
0
100
AcDbSpline
 62
7
  6
CONTINUOUS
 70
0
 71
3
 72
11
 73
7
 74
0
 42
0.0000001
 43
0.0000001
 44
0.0000000001
 40
0.0
 40
0.0
 40
0.0
 40
0.0
 40
0.2342316255
 40
0.4753730441
 40
0.7291564627
 40
1.0
 40
1.0
 40
1.0
 40
1.0
 10
14.1103091509
 20
11.332964832
 30
0.0
 10
14.1105007142
 20
11.3335834724
 30
0.0
 10
14.1110255027
 20
11.3348010893
 30
0.0
 10
14.1121973149
 20
11.3364576463
 30
0.0
 10
14.1137353084
 20
11.3379290455
 30
0.0
 10
14.114941795
 20
11.3387465619
 30
0.0
 10
14.1155898737
 20
11.3391217513
 30
0.0
  0
SPLINE
  5
28F
100
AcDbEntity
  8
0
100
AcDbSpline
 62
7
  6
CONTINUOUS
 70
0
 71
3
 72
11
 73
7
 74
0
 42
0.0000001
 43
0.0000001
 44
0.0000000001
 40
0.0
 40
0.0
 40
0.0
 40
0.0
 40
0.2218824809
 40
0.4632362631
 40
0.7235701482
 40
1.0
 40
1.0
 40
1.0
 40
1.0
 10
14.1155898737
 20
11.3391217513
 30
0.0
 10
14.1164378283
 20
11.339612654
 30
0.0
 10
14.1183047391
 20
11.3404748894
 30
0.0
 10
14.1213800812
 20
11.3413748614
 30
0.0
 10
14.1247813347
 20
11.3419153407
 30
0.0
 10
14.1271536796
 20
11.3420307281
 30
0.0
 10
14.1283743554
 20
11.3420307281
 30
0.0
  0
SPLINE
  5
290
100
AcDbEntity
  8
0
100
AcDbSpline
 62
7
  6
CONTINUOUS
 70
0
 71
3
 72
11
 73
7
 74
0
 42
0.0000001
 43
0.0000001
 44
0.0000000001
 40
0.0
 40
0.0
 40
0.0
 40
0.0
 40
0.2342316255
 40
0.4753730441
 40
0.7291564627
 40
1.0
 40
1.0
 40
1.0
 40
1.0
 10
14.5708396479
 20
11.332964832
 30
0.0
 10
14.5710312112
 20
11.3335834724
 30
0.0
 10
14.5715559997
 20
11.3348010893
 30
0.0
 10
14.5727278119
 20
11.3364576463
 30
0.0
 10
14.5742658054
 20
11.3379290455
 30
0.0
 10
14.575472292
 20
11.3387465619
 30
0.0
 10
14.5761203707
 20
11.3391217513
 30
0.0
  0
SPLINE
  5
291
100
AcDbEntity
  8
0
100
AcDbSpline
 62
7
  6
CONTINUOUS
 70
0
 71
3
 72
11
 73
7
 74
0
 42
0.0000001
 43
0.0000001
 44
0.0000000001
 40
0.0
 40
0.0
 40
0.0
 40
0.0
 40
0.2218824809
 40
0.4632362631
 40
0.7235701482
 40
1.0
 40
1.0
 40
1.0
 40
1.0
 10
14.5761203707
 20
11.3391217513
 30
0.0
 10
14.5769683253
 20
11.339612654
 30
0.0
 10
14.5788352361
 20
11.3404748894
 30
0.0
 10
14.5819105782
 20
11.3413748614
 30
0.0
 10
14.5853118317
 20
11.3419153407
 30
0.0
 10
14.5876841766
 20
11.3420307281
 30
0.0
 10
14.5889048524
 20
11.3420307281
 30
0.0
  0
SPLINE
  5
292
100
AcDbEntity
  8
0
100
AcDbSpline
 62
7
  6
CONTINUOUS
 70
0
 71
3
 72
11
 73
7
 74
0
 42
0.0000001
 43
0.0000001
 44
0.0000000001
 40
0.0
 40
0.0
 40
0.0
 40
0.0
 40
0.2342316255
 40
0.4753730441
 40
0.7291564627
 40
1.0
 40
1.0
 40
1.0
 40
1.0
 10
15.031370145
 20
11.332964832
 30
0.0
 10
15.0315617082
 20
11.3335834724
 30
0.0
 10
15.0320864967
 20
11.3348010893
 30
0.0
 10
15.0332583089
 20
11.3364576463
 30
0.0
 10
15.0347963024
 20
11.3379290455
 30
0.0
 10
15.036002789
 20
11.3387465619
 30
0.0
 10
15.0366508677
 20
11.3391217513
 30
0.0
  0
SPLINE
  5
293
100
AcDbEntity
  8
0
100
AcDbSpline
 62
7
  6
CONTINUOUS
 70
0
 71
3
 72
11
 73
7
 74
0
 42
0.0000001
 43
0.0000001
 44
0.0000000001
 40
0.0
 40
0.0
 40
0.0
 40
0.0
 40
0.2218824809
 40
0.4632362631
 40
0.7235701482
 40
1.0
 40
1.0
 40
1.0
 40
1.0
 10
15.0366508677
 20
11.3391217513
 30
0.0
 10
15.0374988223
 20
11.339612654
 30
0.0
 10
15.0393657331
 20
11.3404748894
 30
0.0
 10
15.0424410752
 20
11.3413748614
 30
0.0
 10
15.0458423287
 20
11.3419153407
 30
0.0
 10
15.0482146736
 20
11.3420307281
 30
0.0
 10
15.0494353494
 20
11.3420307281
 30
0.0
  0
SPLINE
  5
294
100
AcDbEntity
  8
0
100
AcDbSpline
 62
7
  6
CONTINUOUS
 70
0
 71
3
 72
11
 73
7
 74
0
 42
0.0000001
 43
0.0000001
 44
0.0000000001
 40
0.0
 40
0.0
 40
0.0
 40
0.0
 40
0.2342316255
 40
0.4753730441
 40
0.7291564627
 40
1.0
 40
1.0
 40
1.0
 40
1.0
 10
15.491900642
 20
11.332964832
 30
0.0
 10
15.4920922052
 20
11.3335834724
 30
0.0
 10
15.4926169937
 20
11.3348010893
 30
0.0
 10
15.4937888059
 20
11.3364576463
 30
0.0
 10
15.4953267994
 20
11.3379290455
 30
0.0
 10
15.496533286
 20
11.3387465619
 30
0.0
 10
15.4971813647
 20
11.3391217513
 30
0.0
  0
SPLINE
  5
295
100
AcDbEntity
  8
0
100
AcDbSpline
 62
7
  6
CONTINUOUS
 70
0
 71
3
 72
11
 73
7
 74
0
 42
0.0000001
 43
0.0000001
 44
0.0000000001
 40
0.0
 40
0.0
 40
0.0
 40
0.0
 40
0.2218824809
 40
0.4632362631
 40
0.7235701482
 40
1.0
 40
1.0
 40
1.0
 40
1.0
 10
15.4971813647
 20
11.3391217513
 30
0.0
 10
15.4980293193
 20
11.339612654
 30
0.0
 10
15.4998962301
 20
11.3404748894
 30
0.0
 10
15.5029715722
 20
11.3413748614
 30
0.0
 10
15.5063728257
 20
11.3419153407
 30
0.0
 10
15.5087451706
 20
11.3420307281
 30
0.0
 10
15.5099658464
 20
11.3420307281
 30
0.0
  0
SPLINE
  5
296
100
AcDbEntity
  8
0
100
AcDbSpline
 62
7
  6
CONTINUOUS
 70
0
 71
3
 72
11
 73
7
 74
0
 42
0.0000001
 43
0.0000001
 44
0.0000000001
 40
0.0
 40
0.0
 40
0.0
 40
0.0
 40
0.2342316255
 40
0.4753730441
 40
0.7291564627
 40
1.0
 40
1.0
 40
1.0
 40
1.0
 10
15.952431139
 20
11.332964832
 30
0.0
 10
15.9526227022
 20
11.3335834724
 30
0.0
 10
15.9531474907
 20
11.3348010893
 30
0.0
 10
15.9543193029
 20
11.3364576463
 30
0.0
 10
15.9558572964
 20
11.3379290455
 30
0.0
 10
15.957063783
 20
11.3387465619
 30
0.0
 10
15.9577118617
 20
11.3391217513
 30
0.0
  0
SPLINE
  5
297
100
AcDbEntity
  8
0
100
AcDbSpline
 62
7
  6
CONTINUOUS
 70
0
 71
3
 72
11
 73
7
 74
0
 42
0.0000001
 43
0.0000001
 44
0.0000000001
 40
0.0
 40
0.0
 40
0.0
 40
0.0
 40
0.2218824809
 40
0.4632362631
 40
0.7235701482
 40
1.0
 40
1.0
 40
1.0
 40
1.0
 10
15.9577118617
 20
11.3391217513
 30
0.0
 10
15.9585598163
 20
11.339612654
 30
0.0
 10
15.9604267271
 20
11.3404748894
 30
0.0
 10
15.9635020692
 20
11.3413748614
 30
0.0
 10
15.9669033227
 20
11.3419153407
 30
0.0
 10
15.9692756676
 20
11.3420307281
 30
0.0
 10
15.9704963434
 20
11.3420307281
 30
0.0
  0
SPLINE
  5
298
100
AcDbEntity
  8
0
100
AcDbSpline
 62
7
  6
CONTINUOUS
 70
0
 71
3
 72
11
 73
7
 74
0
 42
0.0000001
 43
0.0000001
 44
0.0000000001
 40
0.0
 40
0.0
 40
0.0
 40
0.0
 40
0.2342316255
 40
0.4753730441
 40
0.7291564627
 40
1.0
 40
1.0
 40
1.0
 40
1.0
 10
16.412961636
 20
11.332964832
 30
0.0
 10
16.4131531992
 20
11.3335834724
 30
0.0
 10
16.4136779877
 20
11.3348010893
 30
0.0
 10
16.4148497999
 20
11.3364576463
 30
0.0
 10
16.4163877934
 20
11.3379290455
 30
0.0
 10
16.41759428
 20
11.3387465619
 30
0.0
 10
16.4182423587
 20
11.3391217513
 30
0.0
  0
SPLINE
  5
299
100
AcDbEntity
  8
0
100
AcDbSpline
 62
7
  6
CONTINUOUS
 70
0
 71
3
 72
11
 73
7
 74
0
 42
0.0000001
 43
0.0000001
 44
0.0000000001
 40
0.0
 40
0.0
 40
0.0
 40
0.0
 40
0.2218824809
 40
0.4632362631
 40
0.7235701482
 40
1.0
 40
1.0
 40
1.0
 40
1.0
 10
16.4182423587
 20
11.3391217513
 30
0.0
 10
16.4190903133
 20
11.339612654
 30
0.0
 10
16.4209572241
 20
11.3404748894
 30
0.0
 10
16.4240325662
 20
11.3413748614
 30
0.0
 10
16.4274338197
 20
11.3419153407
 30
0.0
 10
16.4298061646
 20
11.3420307281
 30
0.0
 10
16.4310268404
 20
11.3420307281
 30
0.0
  0
SPLINE
  5
29A
100
AcDbEntity
  8
0
100
AcDbSpline
 62
7
  6
CONTINUOUS
 70
0
 71
3
 72
15
 73
11
 74
0
 42
0.0000001
 43
0.0000001
 44
0.0000000001
 40
0.0
 40
0.0
 40
0.0
 40
0.0
 40
0.1556209018
 40
0.3031462772
 40
0.4410969623
 40
0.5690291535
 40
0.6872674063
 40
0.796984344
 40
0.9002653779
 40
1.0
 40
1.0
 40
1.0
 40
1.0
 10
14.0787532652
 20
11.286085831
 30
0.0
 10
14.080429388
 20
11.286085831
 30
0.0
 10
14.0836968327
 20
11.2862315794
 30
0.0
 10
14.0884074764
 20
11.2869105878
 30
0.0
 10
14.0927250942
 20
11.2880425368
 30
0.0
 10
14.0965702763
 20
11.2896054766
 30
0.0
 10
14.0998766568
 20
11.2915782335
 30
0.0
 10
14.1025854533
 20
11.293933931
 30
0.0
 10
14.1046354802
 20
11.2966390032
 30
0.0
 10
14.105533338
 20
11.2986585452
 30
0.0
 10
14.1058510772
 20
11.2996846741
 30
0.0
  0
SPLINE
  5
29B
100
AcDbEntity
  8
0
100
AcDbSpline
 62
7
  6
CONTINUOUS
 70
0
 71
3
 72
15
 73
11
 74
0
 42
0.0000001
 43
0.0000001
 44
0.0000000001
 40
0.0
 40
0.0
 40
0.0
 40
0.0
 40
0.1148027264
 40
0.2360615996
 40
0.3619922537
 40
0.4908819933
 40
0.620977738
 40
0.7504747917
 40
0.8775142009
 40
1.0
 40
1.0
 40
1.0
 40
1.0
 10
13.8675783166
 20
11.3020745865
 30
0.0
 10
13.8689144583
 20
11.3008648428
 30
0.0
 10
13.8718115224
 20
11.2985395959
 30
0.0
 10
13.876584922
 20
11.2954399166
 30
0.0
 10
13.8818224845
 20
11.2926962482
 30
0.0
 10
13.8874052916
 20
11.2903635428
 30
0.0
 10
13.8932183015
 20
11.2884935607
 30
0.0
 10
13.8991392353
 20
11.2871221634
 30
0.0
 10
13.9050381526
 20
11.2862857275
 30
0.0
 10
13.908957627
 20
11.286085831
 30
0.0
 10
13.9108806832
 20
11.286085831
 30
0.0
  0
SPLINE
  5
29C
100
AcDbEntity
  8
0
100
AcDbSpline
 62
7
  6
CONTINUOUS
 70
0
 71
3
 72
15
 73
11
 74
0
 42
0.0000001
 43
0.0000001
 44
0.0000000001
 40
0.0
 40
0.0
 40
0.0
 40
0.0
 40
0.1556209018
 40
0.3031462772
 40
0.4410969623
 40
0.5690291535
 40
0.6872674063
 40
0.796984344
 40
0.9002653779
 40
1.0
 40
1.0
 40
1.0
 40
1.0
 10
16.3814057502
 20
11.286085831
 30
0.0
 10
16.383081873
 20
11.286085831
 30
0.0
 10
16.3863493177
 20
11.2862315794
 30
0.0
 10
16.3910599614
 20
11.2869105878
 30
0.0
 10
16.3953775792
 20
11.2880425368
 30
0.0
 10
16.3992227613
 20
11.2896054766
 30
0.0
 10
16.4025291418
 20
11.2915782335
 30
0.0
 10
16.4052379383
 20
11.293933931
 30
0.0
 10
16.4072879652
 20
11.2966390032
 30
0.0
 10
16.408185823
 20
11.2986585452
 30
0.0
 10
16.4085035622
 20
11.2996846741
 30
0.0
  0
SPLINE
  5
29D
100
AcDbEntity
  8
0
100
AcDbSpline
 62
7
  6
CONTINUOUS
 70
0
 71
3
 72
15
 73
11
 74
0
 42
0.0000001
 43
0.0000001
 44
0.0000000001
 40
0.0
 40
0.0
 40
0.0
 40
0.0
 40
0.1148027264
 40
0.2360615996
 40
0.3619922537
 40
0.4908819933
 40
0.620977738
 40
0.7504747917
 40
0.8775142009
 40
1.0
 40
1.0
 40
1.0
 40
1.0
 10
16.1702308016
 20
11.3020745865
 30
0.0
 10
16.1715669433
 20
11.3008648428
 30
0.0
 10
16.1744640074
 20
11.2985395959
 30
0.0
 10
16.179237407
 20
11.2954399166
 30
0.0
 10
16.1844749695
 20
11.2926962482
 30
0.0
 10
16.1900577766
 20
11.2903635428
 30
0.0
 10
16.1958707865
 20
11.2884935607
 30
0.0
 10
16.2017917203
 20
11.2871221634
 30
0.0
 10
16.2076906376
 20
11.2862857275
 30
0.0
 10
16.211610112
 20
11.286085831
 30
0.0
 10
16.2135331682
 20
11.286085831
 30
0.0
  0
SPLINE
  5
29E
100
AcDbEntity
  8
0
100
AcDbSpline
 62
7
  6
CONTINUOUS
 70
0
 71
3
 72
15
 73
11
 74
0
 42
0.0000001
 43
0.0000001
 44
0.0000000001
 40
0.0
 40
0.0
 40
0.0
 40
0.0
 40
0.1556209018
 40
0.3031462772
 40
0.4410969623
 40
0.5690291535
 40
0.6872674063
 40
0.796984344
 40
0.9002653779
 40
1.0
 40
1.0
 40
1.0
 40
1.0
 10
15.9208752532
 20
11.286085831
 30
0.0
 10
15.922551376
 20
11.286085831
 30
0.0
 10
15.9258188207
 20
11.2862315794
 30
0.0
 10
15.9305294644
 20
11.2869105878
 30
0.0
 10
15.9348470822
 20
11.2880425368
 30
0.0
 10
15.9386922643
 20
11.2896054766
 30
0.0
 10
15.9419986448
 20
11.2915782335
 30
0.0
 10
15.9447074413
 20
11.293933931
 30
0.0
 10
15.9467574682
 20
11.2966390032
 30
0.0
 10
15.947655326
 20
11.2986585452
 30
0.0
 10
15.9479730652
 20
11.2996846741
 30
0.0
  0
SPLINE
  5
29F
100
AcDbEntity
  8
0
100
AcDbSpline
 62
7
  6
CONTINUOUS
 70
0
 71
3
 72
15
 73
11
 74
0
 42
0.0000001
 43
0.0000001
 44
0.0000000001
 40
0.0
 40
0.0
 40
0.0
 40
0.0
 40
0.1148027264
 40
0.2360615996
 40
0.3619922537
 40
0.4908819933
 40
0.620977738
 40
0.7504747917
 40
0.8775142009
 40
1.0
 40
1.0
 40
1.0
 40
1.0
 10
15.7097003046
 20
11.3020745865
 30
0.0
 10
15.7110364463
 20
11.3008648428
 30
0.0
 10
15.7139335104
 20
11.2985395959
 30
0.0
 10
15.71870691
 20
11.2954399166
 30
0.0
 10
15.7239444725
 20
11.2926962482
 30
0.0
 10
15.7295272796
 20
11.2903635428
 30
0.0
 10
15.7353402895
 20
11.2884935607
 30
0.0
 10
15.7412612233
 20
11.2871221634
 30
0.0
 10
15.7471601406
 20
11.2862857275
 30
0.0
 10
15.751079615
 20
11.286085831
 30
0.0
 10
15.7530026712
 20
11.286085831
 30
0.0
  0
SPLINE
  5
2A0
100
AcDbEntity
  8
0
100
AcDbSpline
 62
7
  6
CONTINUOUS
 70
0
 71
3
 72
15
 73
11
 74
0
 42
0.0000001
 43
0.0000001
 44
0.0000000001
 40
0.0
 40
0.0
 40
0.0
 40
0.0
 40
0.1556209018
 40
0.3031462772
 40
0.4410969623
 40
0.5690291535
 40
0.6872674063
 40
0.796984344
 40
0.9002653779
 40
1.0
 40
1.0
 40
1.0
 40
1.0
 10
15.4603447562
 20
11.286085831
 30
0.0
 10
15.462020879
 20
11.286085831
 30
0.0
 10
15.4652883237
 20
11.2862315794
 30
0.0
 10
15.4699989674
 20
11.2869105878
 30
0.0
 10
15.4743165852
 20
11.2880425368
 30
0.0
 10
15.4781617673
 20
11.2896054766
 30
0.0
 10
15.4814681478
 20
11.2915782335
 30
0.0
 10
15.4841769443
 20
11.293933931
 30
0.0
 10
15.4862269712
 20
11.2966390032
 30
0.0
 10
15.487124829
 20
11.2986585452
 30
0.0
 10
15.4874425682
 20
11.2996846741
 30
0.0
  0
SPLINE
  5
2A1
100
AcDbEntity
  8
0
100
AcDbSpline
 62
7
  6
CONTINUOUS
 70
0
 71
3
 72
15
 73
11
 74
0
 42
0.0000001
 43
0.0000001
 44
0.0000000001
 40
0.0
 40
0.0
 40
0.0
 40
0.0
 40
0.1148027264
 40
0.2360615996
 40
0.3619922537
 40
0.4908819933
 40
0.620977738
 40
0.7504747917
 40
0.8775142009
 40
1.0
 40
1.0
 40
1.0
 40
1.0
 10
15.2491698076
 20
11.3020745865
 30
0.0
 10
15.2505059493
 20
11.3008648428
 30
0.0
 10
15.2534030134
 20
11.2985395959
 30
0.0
 10
15.258176413
 20
11.2954399166
 30
0.0
 10
15.2634139755
 20
11.2926962482
 30
0.0
 10
15.2689967826
 20
11.2903635428
 30
0.0
 10
15.2748097925
 20
11.2884935607
 30
0.0
 10
15.2807307263
 20
11.2871221634
 30
0.0
 10
15.2866296436
 20
11.2862857275
 30
0.0
 10
15.290549118
 20
11.286085831
 30
0.0
 10
15.2924721742
 20
11.286085831
 30
0.0
  0
SPLINE
  5
2A2
100
AcDbEntity
  8
0
100
AcDbSpline
 62
7
  6
CONTINUOUS
 70
0
 71
3
 72
15
 73
11
 74
0
 42
0.0000001
 43
0.0000001
 44
0.0000000001
 40
0.0
 40
0.0
 40
0.0
 40
0.0
 40
0.1556209018
 40
0.3031462772
 40
0.4410969623
 40
0.5690291535
 40
0.6872674063
 40
0.796984344
 40
0.9002653779
 40
1.0
 40
1.0
 40
1.0
 40
1.0
 10
14.9998142592
 20
11.286085831
 30
0.0
 10
15.001490382
 20
11.286085831
 30
0.0
 10
15.0047578267
 20
11.2862315794
 30
0.0
 10
15.0094684704
 20
11.2869105878
 30
0.0
 10
15.0137860882
 20
11.2880425368
 30
0.0
 10
15.0176312703
 20
11.2896054766
 30
0.0
 10
15.0209376508
 20
11.2915782335
 30
0.0
 10
15.0236464473
 20
11.293933931
 30
0.0
 10
15.0256964742
 20
11.2966390032
 30
0.0
 10
15.026594332
 20
11.2986585452
 30
0.0
 10
15.0269120712
 20
11.2996846741
 30
0.0
  0
SPLINE
  5
2A3
100
AcDbEntity
  8
0
100
AcDbSpline
 62
7
  6
CONTINUOUS
 70
0
 71
3
 72
15
 73
11
 74
0
 42
0.0000001
 43
0.0000001
 44
0.0000000001
 40
0.0
 40
0.0
 40
0.0
 40
0.0
 40
0.1148027264
 40
0.2360615996
 40
0.3619922537
 40
0.4908819933
 40
0.620977738
 40
0.7504747917
 40
0.8775142009
 40
1.0
 40
1.0
 40
1.0
 40
1.0
 10
14.7886393106
 20
11.3020745865
 30
0.0
 10
14.7899754523
 20
11.3008648428
 30
0.0
 10
14.7928725164
 20
11.2985395959
 30
0.0
 10
14.797645916
 20
11.2954399166
 30
0.0
 10
14.8028834785
 20
11.2926962482
 30
0.0
 10
14.8084662856
 20
11.2903635428
 30
0.0
 10
14.8142792955
 20
11.2884935607
 30
0.0
 10
14.8202002293
 20
11.2871221634
 30
0.0
 10
14.8260991466
 20
11.2862857275
 30
0.0
 10
14.830018621
 20
11.286085831
 30
0.0
 10
14.8319416772
 20
11.286085831
 30
0.0
  0
SPLINE
  5
2A4
100
AcDbEntity
  8
0
100
AcDbSpline
 62
7
  6
CONTINUOUS
 70
0
 71
3
 72
15
 73
11
 74
0
 42
0.0000001
 43
0.0000001
 44
0.0000000001
 40
0.0
 40
0.0
 40
0.0
 40
0.0
 40
0.1556209018
 40
0.3031462772
 40
0.4410969623
 40
0.5690291535
 40
0.6872674063
 40
0.796984344
 40
0.9002653779
 40
1.0
 40
1.0
 40
1.0
 40
1.0
 10
14.5392837622
 20
11.286085831
 30
0.0
 10
14.540959885
 20
11.286085831
 30
0.0
 10
14.5442273297
 20
11.2862315794
 30
0.0
 10
14.5489379734
 20
11.2869105878
 30
0.0
 10
14.5532555912
 20
11.2880425368
 30
0.0
 10
14.5571007733
 20
11.2896054766
 30
0.0
 10
14.5604071538
 20
11.2915782335
 30
0.0
 10
14.5631159503
 20
11.293933931
 30
0.0
 10
14.5651659772
 20
11.2966390032
 30
0.0
 10
14.566063835
 20
11.2986585452
 30
0.0
 10
14.5663815742
 20
11.2996846741
 30
0.0
  0
SPLINE
  5
2A5
100
AcDbEntity
  8
0
100
AcDbSpline
 62
7
  6
CONTINUOUS
 70
0
 71
3
 72
15
 73
11
 74
0
 42
0.0000001
 43
0.0000001
 44
0.0000000001
 40
0.0
 40
0.0
 40
0.0
 40
0.0
 40
0.1148027264
 40
0.2360615996
 40
0.3619922537
 40
0.4908819933
 40
0.620977738
 40
0.7504747917
 40
0.8775142009
 40
1.0
 40
1.0
 40
1.0
 40
1.0
 10
14.3281088136
 20
11.3020745865
 30
0.0
 10
14.3294449553
 20
11.3008648428
 30
0.0
 10
14.3323420194
 20
11.2985395959
 30
0.0
 10
14.337115419
 20
11.2954399166
 30
0.0
 10
14.3423529815
 20
11.2926962482
 30
0.0
 10
14.3479357886
 20
11.2903635428
 30
0.0
 10
14.3537487985
 20
11.2884935607
 30
0.0
 10
14.3596697323
 20
11.2871221634
 30
0.0
 10
14.3655686496
 20
11.2862857275
 30
0.0
 10
14.369488124
 20
11.286085831
 30
0.0
 10
14.3714111802
 20
11.286085831
 30
0.0
  0
SPLINE
  5
2A6
100
AcDbEntity
  8
0
100
AcDbSpline
 62
7
  6
CONTINUOUS
 70
0
 71
3
 72
15
 73
11
 74
0
 42
0.0000001
 43
0.0000001
 44
0.0000000001
 40
0.0
 40
0.0
 40
0.0
 40
0.0
 40
0.1224865479
 40
0.249527545
 40
0.3790254231
 40
0.5091196319
 40
0.6380052518
 40
0.763933632
 40
0.8851950846
 40
1.0
 40
1.0
 40
1.0
 40
1.0
 10
13.806352057
 20
11.3420307281
 30
0.0
 10
13.8076341023
 20
11.3420307281
 30
0.0
 10
13.8102471092
 20
11.3418974558
 30
0.0
 10
13.8141797536
 20
11.3413398293
 30
0.0
 10
13.8181270493
 20
11.3404255502
 30
0.0
 10
13.8220023373
 20
11.3391789038
 30
0.0
 10
13.8257241463
 20
11.3376238329
 30
0.0
 10
13.8292158093
 20
11.3357947174
 30
0.0
 10
13.8323980891
 20
11.3337282413
 30
0.0
 10
13.8343295233
 20
11.332178069
 30
0.0
 10
13.8352203014
 20
11.3313715578
 30
0.0
  0
SPLINE
  5
2A7
100
AcDbEntity
  8
0
100
AcDbSpline
 62
7
  6
CONTINUOUS
 70
0
 71
3
 72
15
 73
11
 74
0
 42
0.0000001
 43
0.0000001
 44
0.0000000001
 40
0.0
 40
0.0
 40
0.0
 40
0.0
 40
0.1224865479
 40
0.249527545
 40
0.3790254231
 40
0.5091196319
 40
0.6380052518
 40
0.763933632
 40
0.8851950846
 40
1.0
 40
1.0
 40
1.0
 40
1.0
 10
14.266882554
 20
11.3420307281
 30
0.0
 10
14.2681645993
 20
11.3420307281
 30
0.0
 10
14.2707776062
 20
11.3418974558
 30
0.0
 10
14.2747102506
 20
11.3413398293
 30
0.0
 10
14.2786575463
 20
11.3404255502
 30
0.0
 10
14.2825328343
 20
11.3391789038
 30
0.0
 10
14.2862546433
 20
11.3376238329
 30
0.0
 10
14.2897463063
 20
11.3357947174
 30
0.0
 10
14.2929285861
 20
11.3337282413
 30
0.0
 10
14.2948600203
 20
11.332178069
 30
0.0
 10
14.2957507984
 20
11.3313715578
 30
0.0
  0
SPLINE
  5
2A8
100
AcDbEntity
  8
0
100
AcDbSpline
 62
7
  6
CONTINUOUS
 70
0
 71
3
 72
15
 73
11
 74
0
 42
0.0000001
 43
0.0000001
 44
0.0000000001
 40
0.0
 40
0.0
 40
0.0
 40
0.0
 40
0.1224865479
 40
0.249527545
 40
0.3790254231
 40
0.5091196319
 40
0.6380052518
 40
0.763933632
 40
0.8851950846
 40
1.0
 40
1.0
 40
1.0
 40
1.0
 10
14.727413051
 20
11.3420307281
 30
0.0
 10
14.7286950963
 20
11.3420307281
 30
0.0
 10
14.7313081032
 20
11.3418974558
 30
0.0
 10
14.7352407476
 20
11.3413398293
 30
0.0
 10
14.7391880433
 20
11.3404255502
 30
0.0
 10
14.7430633313
 20
11.3391789038
 30
0.0
 10
14.7467851403
 20
11.3376238329
 30
0.0
 10
14.7502768033
 20
11.3357947174
 30
0.0
 10
14.7534590831
 20
11.3337282413
 30
0.0
 10
14.7553905173
 20
11.332178069
 30
0.0
 10
14.7562812954
 20
11.3313715578
 30
0.0
  0
SPLINE
  5
2A9
100
AcDbEntity
  8
0
100
AcDbSpline
 62
7
  6
CONTINUOUS
 70
0
 71
3
 72
15
 73
11
 74
0
 42
0.0000001
 43
0.0000001
 44
0.0000000001
 40
0.0
 40
0.0
 40
0.0
 40
0.0
 40
0.1224865479
 40
0.249527545
 40
0.3790254231
 40
0.5091196319
 40
0.6380052518
 40
0.763933632
 40
0.8851950846
 40
1.0
 40
1.0
 40
1.0
 40
1.0
 10
15.187943548
 20
11.3420307281
 30
0.0
 10
15.1892255933
 20
11.3420307281
 30
0.0
 10
15.1918386002
 20
11.3418974558
 30
0.0
 10
15.1957712446
 20
11.3413398293
 30
0.0
 10
15.1997185403
 20
11.3404255502
 30
0.0
 10
15.2035938283
 20
11.3391789038
 30
0.0
 10
15.2073156373
 20
11.3376238329
 30
0.0
 10
15.2108073003
 20
11.3357947174
 30
0.0
 10
15.2139895801
 20
11.3337282413
 30
0.0
 10
15.2159210143
 20
11.332178069
 30
0.0
 10
15.2168117924
 20
11.3313715578
 30
0.0
  0
SPLINE
  5
2AA
100
AcDbEntity
  8
0
100
AcDbSpline
 62
7
  6
CONTINUOUS
 70
0
 71
3
 72
15
 73
11
 74
0
 42
0.0000001
 43
0.0000001
 44
0.0000000001
 40
0.0
 40
0.0
 40
0.0
 40
0.0
 40
0.1224865479
 40
0.249527545
 40
0.3790254231
 40
0.5091196319
 40
0.6380052518
 40
0.763933632
 40
0.8851950846
 40
1.0
 40
1.0
 40
1.0
 40
1.0
 10
15.648474045
 20
11.3420307281
 30
0.0
 10
15.6497560903
 20
11.3420307281
 30
0.0
 10
15.6523690972
 20
11.3418974558
 30
0.0
 10
15.6563017416
 20
11.3413398293
 30
0.0
 10
15.6602490373
 20
11.3404255502
 30
0.0
 10
15.6641243253
 20
11.3391789038
 30
0.0
 10
15.6678461343
 20
11.3376238329
 30
0.0
 10
15.6713377973
 20
11.3357947174
 30
0.0
 10
15.6745200771
 20
11.3337282413
 30
0.0
 10
15.6764515113
 20
11.332178069
 30
0.0
 10
15.6773422894
 20
11.3313715578
 30
0.0
  0
SPLINE
  5
2AB
100
AcDbEntity
  8
0
100
AcDbSpline
 62
7
  6
CONTINUOUS
 70
0
 71
3
 72
15
 73
11
 74
0
 42
0.0000001
 43
0.0000001
 44
0.0000000001
 40
0.0
 40
0.0
 40
0.0
 40
0.0
 40
0.1224865479
 40
0.249527545
 40
0.3790254231
 40
0.5091196319
 40
0.6380052518
 40
0.763933632
 40
0.8851950846
 40
1.0
 40
1.0
 40
1.0
 40
1.0
 10
16.109004542
 20
11.3420307281
 30
0.0
 10
16.1102865873
 20
11.3420307281
 30
0.0
 10
16.1128995942
 20
11.3418974558
 30
0.0
 10
16.1168322386
 20
11.3413398293
 30
0.0
 10
16.1207795343
 20
11.3404255502
 30
0.0
 10
16.1246548223
 20
11.3391789038
 30
0.0
 10
16.1283766313
 20
11.3376238329
 30
0.0
 10
16.1318682943
 20
11.3357947174
 30
0.0
 10
16.1350505741
 20
11.3337282413
 30
0.0
 10
16.1369820083
 20
11.332178069
 30
0.0
 10
16.1378727864
 20
11.3313715578
 30
0.0
  0
ENDSEC
  0
SECTION
  2
OBJECTS
  0
DICTIONARY
  5
C
100
AcDbDictionary
280
0
281
1
  3
ACAD_GROUP
350
D
  3
ACAD_MLINESTYLE
350
17
  3
ACAD_LAYOUT
350
1A
  3
ACAD_PLOTSETTINGS
350
19
  3
ACAD_PLOTSTYLENAME
350
E
  0
DICTIONARY
  5
D
102
{ACAD_REACTORS
330
C
102
}
100
AcDbDictionary
280
0
281
1
  0
ACDBDICTIONARYWDFLT
  5
E
102
{ACAD_REACTORS
330
C
102
}
100
AcDbDictionary
281
1
  3
Normal
350
F
100
AcDbDictionaryWithDefault
340
F
  0
DICTIONARY
  5
17
102
{ACAD_REACTORS
330
C
102
}
100
AcDbDictionary
280
0
281
1
  3
Standard
350
18
  0
DICTIONARY
  5
19
102
{ACAD_REACTORS
330
C
102
}
100
AcDbDictionary
281
1
  0
DICTIONARY
  5
1A
102
{ACAD_REACTORS
330
C
102
}
100
AcDbDictionary
281
1
  3
Model
350
2AC
  3
Layout1
350
2AD
  0
ACDBPLACEHOLDER
  5
F
102
{ACAD_REACTORS
330
E
102
}
  0
MLINESTYLE
  5
18
102
{ACAD_REACTORS
330
17
102
}
100
AcDbMlineStyle
  2
STANDARD
 70
0
  3

 62
256
 51
90.0
 52
90.0
 71
2
 49
0.5
 62
256
  6
BYLAYER
 49
-0.5
 62
256
  6
BYLAYER
  0
LAYOUT
  5
2AC
102
{ACAD_REACTORS
330
1A
102
}
100
AcDbPlotSettings
  1

  2
none_device
  4
ANSI_C_(22.00_x_17.00_Inches)
  6

 40
0.0
 41
0.0
 42
0.0
 43
0.0
 44
558.8
 45
431.8
 46
0.0
 47
0.0
 48
0.0
 49
0.0
140
0.0
141
0.0
142
1.0
143
1.0
 70
1024
 72
0
 73
0
 74
0
  7

 75
0
147
1.0
148
0.0
149
0.0
100
AcDbLayout
  1
Model
 70
0
 71
0
 10
0.0
 20
0.0
 11
22.0
 21
17.0
 12
0.0
 22
0.0
 32
0.0
 14
0.0
 24
0.0
 34
0.0
 15
0.0
 25
0.0
 35
0.0
146
0.0
 13
0.0
 23
0.0
 33
0.0
 16
1.0
 26
0.0
 36
0.0
 17
0.0
 27
1.0
 37
0.0
 76
0
330
216
345
0
346
0
  0
LAYOUT
  5
2AD
102
{ACAD_REACTORS
330
1A
102
}
100
AcDbPlotSettings
  1

  2
none_device
  4
ANSI_C_(22.00_x_17.00_Inches)
  6

 40
0.0
 41
0.0
 42
0.0
 43
0.0
 44
558.8
 45
431.8
 46
0.0
 47
0.0
 48
0.0
 49
0.0
140
0.0
141
0.0
142
1.0
143
1.0
 70
0
 72
0
 73
0
 74
0
  7

 75
0
147
1.0
148
0.0
149
0.0
100
AcDbLayout
  1
Layout1
 70
0
 71
1
 10
0.0
 20
0.0
 11
22.0
 21
17.0
 12
0.0
 22
0.0
 32
0.0
 14
0.0
 24
0.0
 34
0.0
 15
0.0
 25
0.0
 35
0.0
146
0.0
 13
0.0
 23
0.0
 33
0.0
 16
1.0
 26
0.0
 36
0.0
 17
0.0
 27
1.0
 37
0.0
 76
0
330
217
345
0
346
0
  0
ENDSEC
  0
EOF