999
DXF file: _cgs_temp_output.dxf
999
Pro/ENGINEER 2015110 by Parametric Technology Corporation
  0
SECTION
  2
HEADER
  9
$ACADVER
  1
AC1021
  9
$DWGCODEPAGE
  3
ANSI_1252
  9
$EXTMAX
 10
22.0
 20
17.0
 30
0.0
  9
$EXTMIN
 10
0.0
 20
0.0
 30
0.0
  9
$LIMMIN
 10
0.0
 20
0.0
  9
$LIMMAX
 10
22.0
 20
17.0
  9
$VIEWCTR
 10
11.0
 20
8.5
  9
$VIEWSIZE
 40
17.0
  9
$CLAYER
  8
0
  9
$LTSCALE
 40
1.21
  9
$CELTYPE
  6
BYLAYER
  9
$DIMSCALE
 40
1.0
  9
$DIMASZ
 40
0.1875
  9
$DIMEXO
 40
0.0625
  9
$DIMDLI
 40
0.836
  9
$DIMEXE
 40
0.125
  9
$DIMCEN
 40
0.198
  9
$DIMLFAC
 40
1.0
  9
$DIMBLK
  1
_CLOSED
  9
$DIMALT
 70
0
  9
$DIMALTF
 40
25.4
  9
$DIMTXT
 40
0.15625
  9
$DIMTOL
 70
0
  9
$DIMLIM
 70
0
  9
$DIMTFAC
 40
1.0
  9
$DIMGAP
 40
0.09
  9
$DIMDSEP
 70
46
  9
$AUNITS
 70
0
  9
$PDMODE
 70
3
  9
$PDSIZE
 40
0.3125
  9
$HANDSEED
  5
347
  9
$TILEMODE
 70
1
  9
$MEASUREMENT
 70
0
  9
$INSUNITS
 70
1
  0
ENDSEC
  0
SECTION
  2
CLASSES
  0
CLASS
  1
ACDBDICTIONARYWDFLT
  2
AcDbDictionaryWithDefault
  3
AutoCAD 2000
 90
0
 91
1
280
0
281
0
  0
CLASS
  1
ACDBPLACEHOLDER
  2
AcDbPlaceHolder
  3
AutoCAD 2000
 90
0
 91
1
280
0
281
0
  0
CLASS
  1
LAYOUT
  2
AcDbLayout
  3
AutoCAD 2000
 90
0
 91
0
280
0
281
0
  0
ENDSEC
  0
SECTION
  2
TABLES
  0
TABLE
  2
VPORT
  5
8
100
AcDbSymbolTable
 70
2
  0
VPORT
  5
1F4
100
AcDbSymbolTableRecord
100
AcDbViewportTableRecord
  2
*ACTIVE
 70
0
 10
0.0
 20
0.0
 11
1.0
 21
1.0
 12
11.0
 22
8.5
 13
0.0
 23
0.0
 14
1.0
 24
1.0
 15
0.0
 25
0.0
 16
0.0
 26
0.0
 36
1.0
 17
0.0
 27
0.0
 37
0.0
 40
17.0
 41
1.2941176471
 42
50.0
 43
0.0
 44
0.0
 50
0.0
 51
0.0
 71
0
 72
100
 73
1
 74
1
 75
0
 76
0
 77
0
 78
0
  0
ENDTAB
  0
TABLE
  2
LTYPE
  5
5
100
AcDbSymbolTable
 70
6
  0
LTYPE
  5
14
100
AcDbSymbolTableRecord
100
AcDbLinetypeTableRecord
  2
BYBLOCK
 70
0
  3

 72
65
 73
0
 40
0.0
  0
LTYPE
  5
15
100
AcDbSymbolTableRecord
100
AcDbLinetypeTableRecord
  2
BYLAYER
 70
0
  3

 72
65
 73
0
 40
0.0
  0
LTYPE
  5
16
100
AcDbSymbolTableRecord
100
AcDbLinetypeTableRecord
  2
CONTINUOUS
 70
64
  3
Solid line
 72
65
 73
0
 40
0.0
  0
LTYPE
  5
1F5
100
AcDbSymbolTableRecord
100
AcDbLinetypeTableRecord
  2
CENTER
 70
64
  3
____ _ ____ _ ____ _ ____ _ ____ _ ____ _ ____
 72
65
 73
4
 40
0.6
 49
0.375
 74
0
 49
-0.075
 74
0
 49
0.075
 74
0
 49
-0.075
 74
0
  0
LTYPE
  5
1F6
100
AcDbSymbolTableRecord
100
AcDbLinetypeTableRecord
  2
HIDDEN
 70
64
  3
- - - - - - - - - - - - - - - - - - - -
 72
65
 73
2
 40
0.2
 49
0.1
 74
0
 49
-0.1
 74
0
  0
LTYPE
  5
1F7
100
AcDbSymbolTableRecord
100
AcDbLinetypeTableRecord
  2
PHANTOM
 70
64
  3
_____ _ _ _____ _ _ _____ _ _ _____
 72
65
 73
6
 40
0.8
 49
0.45
 74
0
 49
-0.05
 74
0
 49
0.1
 74
0
 49
-0.05
 74
0
 49
0.1
 74
0
 49
-0.05
 74
0
  0
LTYPE
  5
1F8
100
AcDbSymbolTableRecord
100
AcDbLinetypeTableRecord
  2
DOT
 70
64
  3
. . . . . . . . . . . . . . . . . . . .
 72
65
 73
2
 40
0.2
 49
0.1
 74
0
 49
-0.1
 74
0
  0
LTYPE
  5
1F9
100
AcDbSymbolTableRecord
100
AcDbLinetypeTableRecord
  2
DASHED
 70
64
  3
- - - - - - - - - - - - - - - - - - - -
 72
65
 73
2
 40
0.2
 49
0.1
 74
0
 49
-0.1
 74
0
  0
ENDTAB
  0
TABLE
  2
LAYER
  5
2
100
AcDbSymbolTable
 70
36
  0
LAYER
  5
10
100
AcDbSymbolTableRecord
100
AcDbLayerTableRecord
  2
0
 70
0
 62
7
  6
CONTINUOUS
370
-3
390
F
  0
LAYER
  5
1FA
100
AcDbSymbolTableRecord
100
AcDbLayerTableRecord
  2
DEFAULT_1
 70
0
 62
7
  6
CENTER
370
-3
390
F
  0
LAYER
  5
1FB
100
AcDbSymbolTableRecord
100
AcDbLayerTableRecord
  2
DEFAULT_2
 70
0
 62
8
  6
HIDDEN
370
-3
390
F
  0
LAYER
  5
1FC
100
AcDbSymbolTableRecord
100
AcDbLayerTableRecord
  2
DEFAULT_3
 70
0
 62
7
  6
PHANTOM
370
-3
390
F
  0
LAYER
  5
1FD
100
AcDbSymbolTableRecord
100
AcDbLayerTableRecord
  2
01_ALL_DTM_PLN
 70
0
 62
7
  6
CONTINUOUS
370
-3
390
F
  0
LAYER
  5
1FE
100
AcDbSymbolTableRecord
100
AcDbLayerTableRecord
  2
01__ASM_ALL_DTM_PLN
 70
0
 62
7
  6
CONTINUOUS
370
-3
390
F
  0
LAYER
  5
1FF
100
AcDbSymbolTableRecord
100
AcDbLayerTableRecord
  2
01__ASM_DEF_DTM_PLN
 70
0
 62
7
  6
CONTINUOUS
370
-3
390
F
  0
LAYER
  5
200
100
AcDbSymbolTableRecord
100
AcDbLayerTableRecord
  2
01___PRT_ALL_DTM_PLN
 70
0
 62
7
  6
CONTINUOUS
370
-3
390
F
  0
LAYER
  5
201
100
AcDbSymbolTableRecord
100
AcDbLayerTableRecord
  2
01___PRT_DEF_DTM_PLN
 70
0
 62
7
  6
CONTINUOUS
370
-3
390
F
  0
LAYER
  5
202
100
AcDbSymbolTableRecord
100
AcDbLayerTableRecord
  2
02_ALL_AXES
 70
0
 62
7
  6
CONTINUOUS
370
-3
390
F
  0
LAYER
  5
203
100
AcDbSymbolTableRecord
100
AcDbLayerTableRecord
  2
02__ASM_ALL_AXES
 70
0
 62
7
  6
CONTINUOUS
370
-3
390
F
  0
LAYER
  5
204
100
AcDbSymbolTableRecord
100
AcDbLayerTableRecord
  2
02___PRT_ALL_AXES
 70
0
 62
7
  6
CONTINUOUS
370
-3
390
F
  0
LAYER
  5
205
100
AcDbSymbolTableRecord
100
AcDbLayerTableRecord
  2
03_ALL_CURVES
 70
0
 62
7
  6
CONTINUOUS
370
-3
390
F
  0
LAYER
  5
206
100
AcDbSymbolTableRecord
100
AcDbLayerTableRecord
  2
03__ASM_ALL_CURVES
 70
0
 62
7
  6
CONTINUOUS
370
-3
390
F
  0
LAYER
  5
207
100
AcDbSymbolTableRecord
100
AcDbLayerTableRecord
  2
03___PRT_ALL_CURVES
 70
0
 62
7
  6
CONTINUOUS
370
-3
390
F
  0
LAYER
  5
208
100
AcDbSymbolTableRecord
100
AcDbLayerTableRecord
  2
04_ALL_DTM_PNT
 70
0
 62
7
  6
CONTINUOUS
370
-3
390
F
  0
LAYER
  5
209
100
AcDbSymbolTableRecord
100
AcDbLayerTableRecord
  2
04__ASM_ALL_DTM_PNT
 70
0
 62
7
  6
CONTINUOUS
370
-3
390
F
  0
LAYER
  5
20A
100
AcDbSymbolTableRecord
100
AcDbLayerTableRecord
  2
04___PRT_ALL_DTM_PNT
 70
0
 62
7
  6
CONTINUOUS
370
-3
390
F
  0
LAYER
  5
20B
100
AcDbSymbolTableRecord
100
AcDbLayerTableRecord
  2
05_ALL_DTM_CSYS
 70
0
 62
7
  6
CONTINUOUS
370
-3
390
F
  0
LAYER
  5
20C
100
AcDbSymbolTableRecord
100
AcDbLayerTableRecord
  2
05__ASM_ALL_DTM_CSYS
 70
0
 62
7
  6
CONTINUOUS
370
-3
390
F
  0
LAYER
  5
20D
100
AcDbSymbolTableRecord
100
AcDbLayerTableRecord
  2
05__ASM_DEF_DTM_CSYS
 70
0
 62
7
  6
CONTINUOUS
370
-3
390
F
  0
LAYER
  5
20E
100
AcDbSymbolTableRecord
100
AcDbLayerTableRecord
  2
05___PRT_ALL_DTM_CSYS
 70
0
 62
7
  6
CONTINUOUS
370
-3
390
F
  0
LAYER
  5
20F
100
AcDbSymbolTableRecord
100
AcDbLayerTableRecord
  2
05___PRT_DEF_DTM_CSYS
 70
0
 62
7
  6
CONTINUOUS
370
-3
390
F
  0
LAYER
  5
210
100
AcDbSymbolTableRecord
100
AcDbLayerTableRecord
  2
06_ALL_SURFS
 70
0
 62
7
  6
CONTINUOUS
370
-3
390
F
  0
LAYER
  5
211
100
AcDbSymbolTableRecord
100
AcDbLayerTableRecord
  2
06__ASM_ALL_SURFS
 70
0
 62
7
  6
CONTINUOUS
370
-3
390
F
  0
LAYER
  5
212
100
AcDbSymbolTableRecord
100
AcDbLayerTableRecord
  2
06___PRT_ALL_SURFS
 70
0
 62
7
  6
CONTINUOUS
370
-3
390
F
  0
LAYER
  5
213
100
AcDbSymbolTableRecord
100
AcDbLayerTableRecord
  2
07__ASM_ALL_SKELETONS
 70
0
 62
7
  6
CONTINUOUS
370
-3
390
F
  0
LAYER
  5
214
100
AcDbSymbolTableRecord
100
AcDbLayerTableRecord
  2
LAYER_DIM
 70
0
 62
7
  6
CONTINUOUS
370
-3
390
F
  0
LAYER
  5
215
100
AcDbSymbolTableRecord
100
AcDbLayerTableRecord
  2
LAYER_FEATURE
 70
0
 62
7
  6
CONTINUOUS
370
-3
390
F
  0
LAYER
  5
216
100
AcDbSymbolTableRecord
100
AcDbLayerTableRecord
  2
LAYER_GEOM_FEAT
 70
0
 62
7
  6
CONTINUOUS
370
-3
390
F
  0
LAYER
  5
217
100
AcDbSymbolTableRecord
100
AcDbLayerTableRecord
  2
LAYER_PARAMETER_DIM
 70
0
 62
7
  6
CONTINUOUS
370
-3
390
F
  0
LAYER
  5
218
100
AcDbSymbolTableRecord
100
AcDbLayerTableRecord
  2
LAYER_PROTRUSION_FEAT
 70
0
 62
7
  6
CONTINUOUS
370
-3
390
F
  0
LAYER
  5
219
100
AcDbSymbolTableRecord
100
AcDbLayerTableRecord
  2
LAYER_ROUND_FEAT
 70
0
 62
7
  6
CONTINUOUS
370
-3
390
F
  0
ENDTAB
  0
TABLE
  2
STYLE
  5
3
100
AcDbSymbolTable
 70
1
  0
STYLE
  5
11
100
AcDbSymbolTableRecord
100
AcDbTextStyleTableRecord
  2
STANDARD
 70
0
 40
0.0
 41
0.8
 50
0.0
 71
0
 42
0.2
  3
txt
  4

  0
STYLE
  5
21A
100
AcDbSymbolTableRecord
100
AcDbTextStyleTableRecord
  2
TEXTSTYLE_1
 70
0
 40
0.0
 41
0.8
 50
0.0
 71
0
 42
0.2
  3
gdt
  4

  0
ENDTAB
  0
TABLE
  2
VIEW
  5
6
100
AcDbSymbolTable
 70
0
  0
ENDTAB
  0
TABLE
  2
UCS
  5
7
100
AcDbSymbolTable
 70
0
  0
ENDTAB
  0
TABLE
  2
APPID
  5
9
100
AcDbSymbolTable
 70
1
  0
APPID
  5
21B
100
AcDbSymbolTableRecord
100
AcDbRegAppTableRecord
  2
ACAD
 70
0
  0
ENDTAB
  0
TABLE
  2
BLOCK_RECORD
  5
1
100
AcDbSymbolTable
 70
0
  0
BLOCK_RECORD
  5
21C
100
AcDbSymbolTableRecord
100
AcDbBlockTableRecord
  2
*Model_Space
  0
BLOCK_RECORD
  5
21D
100
AcDbSymbolTableRecord
100
AcDbBlockTableRecord
  2
*Paper_Space
  0
ENDTAB
  0
TABLE
  2
DIMSTYLE
  5
A
100
AcDbSymbolTable
 70
1
100
AcDbDimStyleTable
 71
0
  0
DIMSTYLE
105
21E
100
AcDbSymbolTableRecord
100
AcDbDimStyleTableRecord
  2
STANDARD
 70
0
  3

  4

 40
1.0
 41
0.1875
 42
0.0625
 43
0.38
 44
0.125
 45
0.0
 46
0.0
 47
0.0001
 48
0.0001
140
0.15625
141
0.09
142
0.0
143
25.4
144
1.0
145
0.0
146
1.0
147
0.09
 71
0.0
 72
0.0
 73
1
 74
1
 75
0
 76
0
 77
0
 78
4
170
0
171
2
172
0
173
0
174
0
175
0
176
0
177
0
178
0
270
2
271
4
272
4
273
2
274
2
275
0
280
0
281
0
282
0
283
1
284
4
285
0
286
0
287
3
288
0
340
11
278
46
  0
ENDTAB
  0
ENDSEC
  0
SECTION
  2
BLOCKS
  0
BLOCK
  5
20
100
AcDbEntity
  8
0
100
AcDbBlockBegin
  2
*Model_Space
 70
0
 10
0.0
 20
0.0
 30
0.0
  3
*Model_Space
  1

  0
ENDBLK
  5
21
100
AcDbEntity
  8
0
100
AcDbBlockEnd
  0
BLOCK
  5
1C
100
AcDbEntity
  8
0
100
AcDbBlockBegin
  2
*Paper_Space
 70
0
 10
0.0
 20
0.0
 30
0.0
  3
*Paper_Space
  1

  0
ENDBLK
  5
1D
100
AcDbEntity
  8
0
100
AcDbBlockEnd
  0
ENDSEC
  0
SECTION
  2
ENTITIES
  0
MTEXT
  5
21F
100
AcDbEntity
  8
0
100
AcDbMText
 62
7
  6
CONTINUOUS
  7
STANDARD
 71
1
 72
1
 10
15.9560215477
 20
0.9479130325
 30
0.0
 11
1.0
 21
0.0
 31
0.0
 44
0.9
  1
SCALE: 1:0.500
 40
0.3
 41
3.36
  0
LINE
  5
220
100
AcDbEntity
  8
0
100
AcDbLine
 62
7
  6
CONTINUOUS
 10
0.0
 20
0.0
 11
0.0
 21
17.0
  0
LINE
  5
221
100
AcDbEntity
  8
0
100
AcDbLine
 62
7
  6
CONTINUOUS
 10
0.0
 20
0.0
 11
22.0
 21
0.0
  0
LINE
  5
222
100
AcDbEntity
  8
0
100
AcDbLine
 62
7
  6
CONTINUOUS
 10
0.0
 20
17.0
 11
22.0
 21
17.0
  0
LINE
  5
223
100
AcDbEntity
  8
0
100
AcDbLine
 62
7
  6
CONTINUOUS
 10
22.0
 20
0.0
 11
22.0
 21
17.0
  0
LINE
  5
224
100
AcDbEntity
  8
0
100
AcDbLine
 62
7
  6
CONTINUOUS
 10
3.7393672762
 20
5.6676198968
 11
3.7393672762
 21
5.6301198968
  0
LINE
  5
225
100
AcDbEntity
  8
0
100
AcDbLine
 62
7
  6
CONTINUOUS
 10
3.7393672762
 20
5.6301198968
 11
3.7952661289
 21
5.3752692131
  0
LINE
  5
226
100
AcDbEntity
  8
0
100
AcDbLine
 62
7
  6
CONTINUOUS
 10
4.0493672762
 20
5.6301198968
 11
4.0493672762
 21
5.6526198968
  0
LINE
  5
227
100
AcDbEntity
  8
0
100
AcDbLine
 62
7
  6
CONTINUOUS
 10
3.9934684234
 20
5.3752692131
 11
4.0493672762
 21
5.6301198968
  0
LINE
  5
228
100
AcDbEntity
  8
LAYER_FEATURE
100
AcDbLine
 62
7
  6
CONTINUOUS
 10
4.0833672762
 20
5.6526198968
 11
4.0833672762
 21
5.6301198968
  0
LINE
  5
229
100
AcDbEntity
  8
LAYER_FEATURE
100
AcDbLine
 62
7
  6
CONTINUOUS
 10
4.0833672762
 20
5.6301198968
 11
4.1392661289
 21
5.3752692131
  0
LINE
  5
22A
100
AcDbEntity
  8
LAYER_FEATURE
100
AcDbLine
 62
7
  6
CONTINUOUS
 10
4.3933672762
 20
5.6301198968
 11
4.3933672762
 21
5.6526198968
  0
LINE
  5
22B
100
AcDbEntity
  8
LAYER_FEATURE
100
AcDbLine
 62
7
  6
CONTINUOUS
 10
4.4273672762
 20
5.6526198968
 11
4.4273672762
 21
5.6301198968
  0
LINE
  5
22C
100
AcDbEntity
  8
LAYER_FEATURE
100
AcDbLine
 62
7
  6
CONTINUOUS
 10
4.3374684234
 20
5.3752692131
 11
4.3933672762
 21
5.6301198968
  0
LINE
  5
22D
100
AcDbEntity
  8
LAYER_FEATURE
100
AcDbLine
 62
7
  6
CONTINUOUS
 10
4.4273672762
 20
5.6301198968
 11
4.4832661289
 21
5.3752692131
  0
LINE
  5
22E
100
AcDbEntity
  8
LAYER_FEATURE
100
AcDbLine
 62
7
  6
CONTINUOUS
 10
4.7373672762
 20
5.6301198968
 11
4.7373672762
 21
5.6526198968
  0
LINE
  5
22F
100
AcDbEntity
  8
LAYER_FEATURE
100
AcDbLine
 62
7
  6
CONTINUOUS
 10
4.7713672762
 20
5.6526198968
 11
4.7713672762
 21
5.6301198968
  0
LINE
  5
230
100
AcDbEntity
  8
LAYER_FEATURE
100
AcDbLine
 62
7
  6
CONTINUOUS
 10
4.6814684234
 20
5.3752692131
 11
4.7373672762
 21
5.6301198968
  0
LINE
  5
231
100
AcDbEntity
  8
LAYER_FEATURE
100
AcDbLine
 62
7
  6
CONTINUOUS
 10
4.7713672762
 20
5.6301198968
 11
4.8272661289
 21
5.3752692131
  0
LINE
  5
232
100
AcDbEntity
  8
LAYER_FEATURE
100
AcDbLine
 62
7
  6
CONTINUOUS
 10
5.0813672762
 20
5.6301198968
 11
5.0813672762
 21
5.6526198968
  0
LINE
  5
233
100
AcDbEntity
  8
LAYER_FEATURE
100
AcDbLine
 62
7
  6
CONTINUOUS
 10
5.1153672762
 20
5.6526198968
 11
5.1153672762
 21
5.6301198968
  0
LINE
  5
234
100
AcDbEntity
  8
LAYER_FEATURE
100
AcDbLine
 62
7
  6
CONTINUOUS
 10
5.0254684234
 20
5.3752692131
 11
5.0813672762
 21
5.6301198968
  0
LINE
  5
235
100
AcDbEntity
  8
LAYER_FEATURE
100
AcDbLine
 62
7
  6
CONTINUOUS
 10
5.1153672762
 20
5.6301198968
 11
5.1712661289
 21
5.3752692131
  0
LINE
  5
236
100
AcDbEntity
  8
LAYER_FEATURE
100
AcDbLine
 62
7
  6
CONTINUOUS
 10
5.4253672762
 20
5.6301198968
 11
5.4253672762
 21
5.6526198968
  0
LINE
  5
237
100
AcDbEntity
  8
LAYER_FEATURE
100
AcDbLine
 62
7
  6
CONTINUOUS
 10
5.4593672762
 20
5.6526198968
 11
5.4593672762
 21
5.6301198968
  0
LINE
  5
238
100
AcDbEntity
  8
LAYER_FEATURE
100
AcDbLine
 62
7
  6
CONTINUOUS
 10
5.3694684234
 20
5.3752692131
 11
5.4253672762
 21
5.6301198968
  0
LINE
  5
239
100
AcDbEntity
  8
LAYER_FEATURE
100
AcDbLine
 62
7
  6
CONTINUOUS
 10
5.4593672762
 20
5.6301198968
 11
5.5152661289
 21
5.3752692131
  0
LINE
  5
23A
100
AcDbEntity
  8
LAYER_FEATURE
100
AcDbLine
 62
7
  6
CONTINUOUS
 10
5.7693672762
 20
5.6301198968
 11
5.7693672762
 21
5.6526198968
  0
LINE
  5
23B
100
AcDbEntity
  8
LAYER_FEATURE
100
AcDbLine
 62
7
  6
CONTINUOUS
 10
5.8033672762
 20
5.6526198968
 11
5.8033672762
 21
5.6301198968
  0
LINE
  5
23C
100
AcDbEntity
  8
LAYER_FEATURE
100
AcDbLine
 62
7
  6
CONTINUOUS
 10
5.7134684234
 20
5.3752692131
 11
5.7693672762
 21
5.6301198968
  0
LINE
  5
23D
100
AcDbEntity
  8
0
100
AcDbLine
 62
7
  6
CONTINUOUS
 10
3.8078828658
 20
5.3651198968
 11
3.9808516865
 21
5.3651198968
  0
LINE
  5
23E
100
AcDbEntity
  8
LAYER_FEATURE
100
AcDbLine
 62
7
  6
CONTINUOUS
 10
4.1518828658
 20
5.3651198968
 11
4.3248516865
 21
5.3651198968
  0
LINE
  5
23F
100
AcDbEntity
  8
LAYER_FEATURE
100
AcDbLine
 62
7
  6
CONTINUOUS
 10
4.4958828658
 20
5.3651198968
 11
4.6688516865
 21
5.3651198968
  0
LINE
  5
240
100
AcDbEntity
  8
LAYER_FEATURE
100
AcDbLine
 62
7
  6
CONTINUOUS
 10
4.8398828658
 20
5.3651198968
 11
5.0128516865
 21
5.3651198968
  0
LINE
  5
241
100
AcDbEntity
  8
LAYER_FEATURE
100
AcDbLine
 62
7
  6
CONTINUOUS
 10
5.1838828658
 20
5.3651198968
 11
5.3568516865
 21
5.3651198968
  0
LINE
  5
242
100
AcDbEntity
  8
LAYER_FEATURE
100
AcDbLine
 62
7
  6
CONTINUOUS
 10
5.5278828658
 20
5.3651198968
 11
5.7008516865
 21
5.3651198968
  0
LINE
  5
243
100
AcDbEntity
  8
LAYER_FEATURE
100
AcDbLine
 62
7
  6
CONTINUOUS
 10
5.8718828658
 20
5.3651198968
 11
6.0448516865
 21
5.3651198968
  0
LINE
  5
244
100
AcDbEntity
  8
LAYER_FEATURE
100
AcDbLine
 62
7
  6
CONTINUOUS
 10
6.2158828658
 20
5.3651198968
 11
6.3888516865
 21
5.3651198968
  0
LINE
  5
245
100
AcDbEntity
  8
LAYER_FEATURE
100
AcDbLine
 62
7
  6
CONTINUOUS
 10
6.5598828658
 20
5.3651198968
 11
6.7328516865
 21
5.3651198968
  0
LINE
  5
246
100
AcDbEntity
  8
LAYER_FEATURE
100
AcDbLine
 62
7
  6
CONTINUOUS
 10
6.9038828658
 20
5.3651198968
 11
7.0768516865
 21
5.3651198968
  0
LINE
  5
247
100
AcDbEntity
  8
LAYER_FEATURE
100
AcDbLine
 62
7
  6
CONTINUOUS
 10
7.2478828658
 20
5.3651198968
 11
7.4208516865
 21
5.3651198968
  0
LINE
  5
248
100
AcDbEntity
  8
LAYER_FEATURE
100
AcDbLine
 62
7
  6
CONTINUOUS
 10
7.5918828658
 20
5.3651198968
 11
7.7648516865
 21
5.3651198968
  0
LINE
  5
249
100
AcDbEntity
  8
LAYER_FEATURE
100
AcDbLine
 62
7
  6
CONTINUOUS
 10
7.9358828658
 20
5.3651198968
 11
8.1088516865
 21
5.3651198968
  0
LINE
  5
24A
100
AcDbEntity
  8
LAYER_FEATURE
100
AcDbLine
 62
7
  6
CONTINUOUS
 10
8.2798828658
 20
5.3651198968
 11
8.4528516865
 21
5.3651198968
  0
LINE
  5
24B
100
AcDbEntity
  8
LAYER_FEATURE
100
AcDbLine
 62
7
  6
CONTINUOUS
 10
5.8033672762
 20
5.6301198968
 11
5.8592661289
 21
5.3752692131
  0
LINE
  5
24C
100
AcDbEntity
  8
LAYER_FEATURE
100
AcDbLine
 62
7
  6
CONTINUOUS
 10
6.1133672762
 20
5.6301198968
 11
6.1133672762
 21
5.6526198968
  0
LINE
  5
24D
100
AcDbEntity
  8
LAYER_FEATURE
100
AcDbLine
 62
7
  6
CONTINUOUS
 10
6.1473672762
 20
5.6526198968
 11
6.1473672762
 21
5.6301198968
  0
LINE
  5
24E
100
AcDbEntity
  8
LAYER_FEATURE
100
AcDbLine
 62
7
  6
CONTINUOUS
 10
6.0574684234
 20
5.3752692131
 11
6.1133672762
 21
5.6301198968
  0
LINE
  5
24F
100
AcDbEntity
  8
LAYER_FEATURE
100
AcDbLine
 62
7
  6
CONTINUOUS
 10
4.0493672762
 20
5.6526198968
 11
4.0833672762
 21
5.6526198968
  0
LINE
  5
250
100
AcDbEntity
  8
LAYER_FEATURE
100
AcDbLine
 62
7
  6
CONTINUOUS
 10
4.3933672762
 20
5.6526198968
 11
4.4273672762
 21
5.6526198968
  0
LINE
  5
251
100
AcDbEntity
  8
LAYER_FEATURE
100
AcDbLine
 62
7
  6
CONTINUOUS
 10
4.7373672762
 20
5.6526198968
 11
4.7713672762
 21
5.6526198968
  0
LINE
  5
252
100
AcDbEntity
  8
LAYER_FEATURE
100
AcDbLine
 62
7
  6
CONTINUOUS
 10
5.0813672762
 20
5.6526198968
 11
5.1153672762
 21
5.6526198968
  0
LINE
  5
253
100
AcDbEntity
  8
LAYER_FEATURE
100
AcDbLine
 62
7
  6
CONTINUOUS
 10
5.4253672762
 20
5.6526198968
 11
5.4593672762
 21
5.6526198968
  0
LINE
  5
254
100
AcDbEntity
  8
LAYER_FEATURE
100
AcDbLine
 62
7
  6
CONTINUOUS
 10
5.7693672762
 20
5.6526198968
 11
5.8033672762
 21
5.6526198968
  0
LINE
  5
255
100
AcDbEntity
  8
LAYER_FEATURE
100
AcDbLine
 62
7
  6
CONTINUOUS
 10
6.1133672762
 20
5.6526198968
 11
6.1473672762
 21
5.6526198968
  0
LINE
  5
256
100
AcDbEntity
  8
LAYER_FEATURE
100
AcDbLine
 62
7
  6
CONTINUOUS
 10
6.4573672762
 20
5.6526198968
 11
6.4913672762
 21
5.6526198968
  0
LINE
  5
257
100
AcDbEntity
  8
LAYER_FEATURE
100
AcDbLine
 62
7
  6
CONTINUOUS
 10
6.8013672762
 20
5.6526198968
 11
6.8353672762
 21
5.6526198968
  0
LINE
  5
258
100
AcDbEntity
  8
LAYER_FEATURE
100
AcDbLine
 62
7
  6
CONTINUOUS
 10
7.1453672762
 20
5.6526198968
 11
7.1793672762
 21
5.6526198968
  0
LINE
  5
259
100
AcDbEntity
  8
LAYER_FEATURE
100
AcDbLine
 62
7
  6
CONTINUOUS
 10
7.4893672762
 20
5.6526198968
 11
7.5233672762
 21
5.6526198968
  0
LINE
  5
25A
100
AcDbEntity
  8
LAYER_FEATURE
100
AcDbLine
 62
7
  6
CONTINUOUS
 10
7.8333672762
 20
5.6526198968
 11
7.8673672762
 21
5.6526198968
  0
LINE
  5
25B
100
AcDbEntity
  8
LAYER_FEATURE
100
AcDbLine
 62
7
  6
CONTINUOUS
 10
8.1773672762
 20
5.6526198968
 11
8.2113672762
 21
5.6526198968
  0
LINE
  5
25C
100
AcDbEntity
  8
0
100
AcDbLine
 62
7
  6
CONTINUOUS
 10
8.5138672762
 20
5.6751198968
 11
3.7468672762
 21
5.6751198968
  0
LINE
  5
25D
100
AcDbEntity
  8
LAYER_FEATURE
100
AcDbLine
 62
7
  6
CONTINUOUS
 10
6.1473672762
 20
5.6301198968
 11
6.2032661289
 21
5.3752692131
  0
LINE
  5
25E
100
AcDbEntity
  8
LAYER_FEATURE
100
AcDbLine
 62
7
  6
CONTINUOUS
 10
6.4573672762
 20
5.6301198968
 11
6.4573672762
 21
5.6526198968
  0
LINE
  5
25F
100
AcDbEntity
  8
LAYER_FEATURE
100
AcDbLine
 62
7
  6
CONTINUOUS
 10
6.4014684234
 20
5.3752692131
 11
6.4573672762
 21
5.6301198968
  0
LINE
  5
260
100
AcDbEntity
  8
LAYER_FEATURE
100
AcDbLine
 62
7
  6
CONTINUOUS
 10
6.4913672762
 20
5.6526198968
 11
6.4913672762
 21
5.6301198968
  0
LINE
  5
261
100
AcDbEntity
  8
LAYER_FEATURE
100
AcDbLine
 62
7
  6
CONTINUOUS
 10
6.4913672762
 20
5.6301198968
 11
6.5472661289
 21
5.3752692131
  0
LINE
  5
262
100
AcDbEntity
  8
LAYER_FEATURE
100
AcDbLine
 62
7
  6
CONTINUOUS
 10
6.7454684234
 20
5.3752692131
 11
6.8013672762
 21
5.6301198968
  0
LINE
  5
263
100
AcDbEntity
  8
LAYER_FEATURE
100
AcDbLine
 62
7
  6
CONTINUOUS
 10
6.8013672762
 20
5.6301198968
 11
6.8013672762
 21
5.6526198968
  0
LINE
  5
264
100
AcDbEntity
  8
LAYER_FEATURE
100
AcDbLine
 62
7
  6
CONTINUOUS
 10
6.8353672762
 20
5.6526198968
 11
6.8353672762
 21
5.6301198968
  0
LINE
  5
265
100
AcDbEntity
  8
LAYER_FEATURE
100
AcDbLine
 62
7
  6
CONTINUOUS
 10
6.8353672762
 20
5.6301198968
 11
6.8912661289
 21
5.3752692131
  0
LINE
  5
266
100
AcDbEntity
  8
LAYER_FEATURE
100
AcDbLine
 62
7
  6
CONTINUOUS
 10
7.0894684234
 20
5.3752692131
 11
7.1453672762
 21
5.6301198968
  0
LINE
  5
267
100
AcDbEntity
  8
LAYER_FEATURE
100
AcDbLine
 62
7
  6
CONTINUOUS
 10
7.1453672762
 20
5.6301198968
 11
7.1453672762
 21
5.6526198968
  0
LINE
  5
268
100
AcDbEntity
  8
LAYER_FEATURE
100
AcDbLine
 62
7
  6
CONTINUOUS
 10
7.1793672762
 20
5.6526198968
 11
7.1793672762
 21
5.6301198968
  0
LINE
  5
269
100
AcDbEntity
  8
LAYER_FEATURE
100
AcDbLine
 62
7
  6
CONTINUOUS
 10
7.1793672762
 20
5.6301198968
 11
7.2352661289
 21
5.3752692131
  0
LINE
  5
26A
100
AcDbEntity
  8
LAYER_FEATURE
100
AcDbLine
 62
7
  6
CONTINUOUS
 10
7.4893672762
 20
5.6301198968
 11
7.4893672762
 21
5.6526198968
  0
LINE
  5
26B
100
AcDbEntity
  8
LAYER_FEATURE
100
AcDbLine
 62
7
  6
CONTINUOUS
 10
7.5233672762
 20
5.6526198968
 11
7.5233672762
 21
5.6301198968
  0
LINE
  5
26C
100
AcDbEntity
  8
LAYER_FEATURE
100
AcDbLine
 62
7
  6
CONTINUOUS
 10
7.4334684234
 20
5.3752692131
 11
7.4893672762
 21
5.6301198968
  0
LINE
  5
26D
100
AcDbEntity
  8
LAYER_FEATURE
100
AcDbLine
 62
7
  6
CONTINUOUS
 10
7.5233672762
 20
5.6301198968
 11
7.5792661289
 21
5.3752692131
  0
LINE
  5
26E
100
AcDbEntity
  8
LAYER_FEATURE
100
AcDbLine
 62
7
  6
CONTINUOUS
 10
7.8333672762
 20
5.6301198968
 11
7.8333672762
 21
5.6526198968
  0
LINE
  5
26F
100
AcDbEntity
  8
LAYER_FEATURE
100
AcDbLine
 62
7
  6
CONTINUOUS
 10
7.8673672762
 20
5.6526198968
 11
7.8673672762
 21
5.6301198968
  0
LINE
  5
270
100
AcDbEntity
  8
LAYER_FEATURE
100
AcDbLine
 62
7
  6
CONTINUOUS
 10
7.7774684234
 20
5.3752692131
 11
7.8333672762
 21
5.6301198968
  0
LINE
  5
271
100
AcDbEntity
  8
LAYER_FEATURE
100
AcDbLine
 62
7
  6
CONTINUOUS
 10
7.8673672762
 20
5.6301198968
 11
7.9232661289
 21
5.3752692131
  0
LINE
  5
272
100
AcDbEntity
  8
LAYER_FEATURE
100
AcDbLine
 62
7
  6
CONTINUOUS
 10
8.1773672762
 20
5.6301198968
 11
8.1773672762
 21
5.6526198968
  0
LINE
  5
273
100
AcDbEntity
  8
LAYER_FEATURE
100
AcDbLine
 62
7
  6
CONTINUOUS
 10
8.2113672762
 20
5.6526198968
 11
8.2113672762
 21
5.6301198968
  0
LINE
  5
274
100
AcDbEntity
  8
LAYER_FEATURE
100
AcDbLine
 62
7
  6
CONTINUOUS
 10
8.1214684234
 20
5.3752692131
 11
8.1773672762
 21
5.6301198968
  0
LINE
  5
275
100
AcDbEntity
  8
LAYER_FEATURE
100
AcDbLine
 62
7
  6
CONTINUOUS
 10
8.2113672762
 20
5.6301198968
 11
8.2672661289
 21
5.3752692131
  0
LINE
  5
276
100
AcDbEntity
  8
0
100
AcDbLine
 62
7
  6
CONTINUOUS
 10
8.5213672762
 20
5.6301198968
 11
8.5213672762
 21
5.6676198968
  0
LINE
  5
277
100
AcDbEntity
  8
LAYER_FEATURE
100
AcDbLine
 62
7
  6
CONTINUOUS
 10
8.4654684234
 20
5.3752692131
 11
8.5213672762
 21
5.6301198968
  0
LINE
  5
278
100
AcDbEntity
  8
0
100
AcDbLine
 62
7
  6
CONTINUOUS
 10
3.6798720839
 20
13.6000477814
 11
3.6798720839
 21
11.6000477814
  0
LINE
  5
279
100
AcDbEntity
  8
0
100
AcDbLine
 62
7
  6
CONTINUOUS
 10
8.4618720839
 20
11.6000477814
 11
3.6798720839
 21
11.6000477814
  0
LINE
  5
27A
100
AcDbEntity
  8
0
100
AcDbLine
 62
7
  6
CONTINUOUS
 10
3.6798720839
 20
13.6000477814
 11
8.4618720839
 21
13.6000477814
  0
LINE
  5
27B
100
AcDbEntity
  8
0
100
AcDbLine
 62
7
  6
CONTINUOUS
 10
8.4618720839
 20
11.6000477814
 11
8.4618720839
 21
13.6000477814
  0
LINE
  5
27C
100
AcDbEntity
  8
LAYER_FEATURE
100
AcDbLine
 62
7
  6
CONTINUOUS
 10
14.5603552569
 20
5.3056247044
 11
14.5603552569
 21
5.5706247044
  0
LINE
  5
27D
100
AcDbEntity
  8
0
100
AcDbLine
 62
7
  6
CONTINUOUS
 10
14.5603552569
 20
5.5706247044
 11
14.5603552569
 21
5.6156247044
  0
LINE
  5
27E
100
AcDbEntity
  8
LAYER_FEATURE
100
AcDbLine
 62
7
  6
CONTINUOUS
 10
14.5603552569
 20
5.3056247044
 11
16.5603552569
 21
5.3056247044
  0
LINE
  5
27F
100
AcDbEntity
  8
LAYER_FEATURE
100
AcDbLine
 62
7
  6
CONTINUOUS
 10
16.5603552569
 20
5.5706247044
 11
14.5603552569
 21
5.5706247044
  0
LINE
  5
280
100
AcDbEntity
  8
0
100
AcDbLine
 62
7
  6
CONTINUOUS
 10
14.5603552569
 20
5.6156247044
 11
16.5603552569
 21
5.6156247044
  0
LINE
  5
281
100
AcDbEntity
  8
0
100
AcDbLine
 62
7
  6
CONTINUOUS
 10
16.5603552569
 20
5.6156247044
 11
16.5603552569
 21
5.5706247044
  0
LINE
  5
282
100
AcDbEntity
  8
LAYER_FEATURE
100
AcDbLine
 62
7
  6
CONTINUOUS
 10
16.5603552569
 20
5.3056247044
 11
16.5603552569
 21
5.5706247044
  0
LINE
  5
283
100
AcDbEntity
  8
0
100
AcDbLine
 62
7
  6
CONTINUOUS
 10
13.0080498539
 20
11.8191655536
 11
13.0194889239
 21
11.7958551798
  0
LINE
  5
284
100
AcDbEntity
  8
0
100
AcDbLine
 62
7
  6
CONTINUOUS
 10
13.0077929635
 20
11.8213796614
 11
13.0080498539
 21
11.8191655536
  0
LINE
  5
285
100
AcDbEntity
  8
0
100
AcDbLine
 62
7
  6
CONTINUOUS
 10
13.0194889239
 20
11.7958551798
 11
13.148715305
 21
11.6374374544
  0
LINE
  5
286
100
AcDbEntity
  8
0
100
AcDbLine
 62
7
  6
CONTINUOUS
 10
13.305017832
 20
11.7958551798
 11
13.29815439
 21
11.8098414041
  0
LINE
  5
287
100
AcDbEntity
  8
0
100
AcDbLine
 62
7
  6
CONTINUOUS
 10
13.3312717074
 20
11.6374374544
 11
13.305017832
 21
11.7958551798
  0
LINE
  5
288
100
AcDbEntity
  8
0
100
AcDbLine
 62
7
  6
CONTINUOUS
 10
13.331148241
 20
11.6353438625
 11
13.3312717074
 21
11.6374374544
  0
LINE
  5
289
100
AcDbEntity
  8
0
100
AcDbLine
 62
7
  6
CONTINUOUS
 10
13.4919248018
 20
13.3880337281
 11
13.007792155
 21
11.8213799089
  0
LINE
  5
28A
100
AcDbEntity
  8
LAYER_FEATURE
100
AcDbLine
 62
7
  6
CONTINUOUS
 10
13.3363339058
 20
11.7958551798
 11
13.465560287
 21
11.6374374544
  0
LINE
  5
28B
100
AcDbEntity
  8
LAYER_FEATURE
100
AcDbLine
 62
7
  6
CONTINUOUS
 10
13.3294704638
 20
11.8098414041
 11
13.3363339058
 21
11.7958551798
  0
LINE
  5
28C
100
AcDbEntity
  8
LAYER_FEATURE
100
AcDbLine
 62
7
  6
CONTINUOUS
 10
13.6218628139
 20
11.7958551798
 11
13.6149993719
 21
11.8098414041
  0
LINE
  5
28D
100
AcDbEntity
  8
LAYER_FEATURE
100
AcDbLine
 62
7
  6
CONTINUOUS
 10
13.6463154457
 20
11.8098414041
 11
13.6531788877
 21
11.7958551798
  0
LINE
  5
28E
100
AcDbEntity
  8
LAYER_FEATURE
100
AcDbLine
 62
7
  6
CONTINUOUS
 10
13.6481166893
 20
11.6374374544
 11
13.6218628139
 21
11.7958551798
  0
LINE
  5
28F
100
AcDbEntity
  8
LAYER_FEATURE
100
AcDbLine
 62
7
  6
CONTINUOUS
 10
13.647993223
 20
11.6353438625
 11
13.6481166893
 21
11.6374374544
  0
LINE
  5
290
100
AcDbEntity
  8
0
100
AcDbLine
 62
7
  6
CONTINUOUS
 10
13.3093399022
 20
11.8098414041
 11
13.305017832
 21
11.7958551798
  0
LINE
  5
291
100
AcDbEntity
  8
0
100
AcDbLine
 62
7
  6
CONTINUOUS
 10
13.3317489526
 20
11.6372899745
 11
13.3685462988
 21
11.7563662304
  0
LINE
  5
292
100
AcDbEntity
  8
LAYER_FEATURE
100
AcDbLine
 62
7
  6
CONTINUOUS
 10
13.6531788877
 20
11.7958551798
 11
13.7824052689
 21
11.6374374544
  0
LINE
  5
293
100
AcDbEntity
  8
LAYER_FEATURE
100
AcDbLine
 62
7
  6
CONTINUOUS
 10
13.6261848841
 20
11.8098414041
 11
13.6218628139
 21
11.7958551798
  0
LINE
  5
294
100
AcDbEntity
  8
LAYER_FEATURE
100
AcDbLine
 62
7
  6
CONTINUOUS
 10
13.9700238697
 20
11.7958551798
 11
14.0992502508
 21
11.6374374544
  0
LINE
  5
295
100
AcDbEntity
  8
LAYER_FEATURE
100
AcDbLine
 62
7
  6
CONTINUOUS
 10
13.9387077959
 20
11.7958551798
 11
13.9318443539
 21
11.8098414041
  0
LINE
  5
296
100
AcDbEntity
  8
LAYER_FEATURE
100
AcDbLine
 62
7
  6
CONTINUOUS
 10
13.9631604277
 20
11.8098414041
 11
13.9700238697
 21
11.7958551798
  0
LINE
  5
297
100
AcDbEntity
  8
LAYER_FEATURE
100
AcDbLine
 62
7
  6
CONTINUOUS
 10
13.9649616712
 20
11.6374374544
 11
13.9387077959
 21
11.7958551798
  0
LINE
  5
298
100
AcDbEntity
  8
LAYER_FEATURE
100
AcDbLine
 62
7
  6
CONTINUOUS
 10
13.9648382049
 20
11.6353438625
 11
13.9649616712
 21
11.6374374544
  0
LINE
  5
299
100
AcDbEntity
  8
LAYER_FEATURE
100
AcDbLine
 62
7
  6
CONTINUOUS
 10
13.6485939345
 20
11.6372899745
 11
13.6853912807
 21
11.7563662304
  0
LINE
  5
29A
100
AcDbEntity
  8
LAYER_FEATURE
100
AcDbLine
 62
7
  6
CONTINUOUS
 10
14.2555527778
 20
11.7958551798
 11
14.2486893358
 21
11.8098414041
  0
LINE
  5
29B
100
AcDbEntity
  8
LAYER_FEATURE
100
AcDbLine
 62
7
  6
CONTINUOUS
 10
14.2800054096
 20
11.8098414041
 11
14.2868688516
 21
11.7958551798
  0
LINE
  5
29C
100
AcDbEntity
  8
LAYER_FEATURE
100
AcDbLine
 62
7
  6
CONTINUOUS
 10
13.9430298661
 20
11.8098414041
 11
13.9387077959
 21
11.7958551798
  0
LINE
  5
29D
100
AcDbEntity
  8
LAYER_FEATURE
100
AcDbLine
 62
7
  6
CONTINUOUS
 10
14.2868688516
 20
11.7958551798
 11
14.4160952328
 21
11.6374374544
  0
LINE
  5
29E
100
AcDbEntity
  8
LAYER_FEATURE
100
AcDbLine
 62
7
  6
CONTINUOUS
 10
14.2818066532
 20
11.6374374544
 11
14.2555527778
 21
11.7958551798
  0
LINE
  5
29F
100
AcDbEntity
  8
LAYER_FEATURE
100
AcDbLine
 62
7
  6
CONTINUOUS
 10
14.2816831869
 20
11.6353438625
 11
14.2818066532
 21
11.6374374544
  0
LINE
  5
2A0
100
AcDbEntity
  8
LAYER_FEATURE
100
AcDbLine
 62
7
  6
CONTINUOUS
 10
13.9654389164
 20
11.6372899745
 11
14.0022362626
 21
11.7563662304
  0
LINE
  5
2A1
100
AcDbEntity
  8
LAYER_FEATURE
100
AcDbLine
 62
7
  6
CONTINUOUS
 10
14.6037138336
 20
11.7958551798
 11
14.7329402147
 21
11.6374374544
  0
LINE
  5
2A2
100
AcDbEntity
  8
LAYER_FEATURE
100
AcDbLine
 62
7
  6
CONTINUOUS
 10
14.5723977598
 20
11.7958551798
 11
14.5655343178
 21
11.8098414041
  0
LINE
  5
2A3
100
AcDbEntity
  8
LAYER_FEATURE
100
AcDbLine
 62
7
  6
CONTINUOUS
 10
14.5968503916
 20
11.8098414041
 11
14.6037138336
 21
11.7958551798
  0
LINE
  5
2A4
100
AcDbEntity
  8
LAYER_FEATURE
100
AcDbLine
 62
7
  6
CONTINUOUS
 10
14.259874848
 20
11.8098414041
 11
14.2555527778
 21
11.7958551798
  0
LINE
  5
2A5
100
AcDbEntity
  8
LAYER_FEATURE
100
AcDbLine
 62
7
  6
CONTINUOUS
 10
14.2822838984
 20
11.6372899745
 11
14.3190812446
 21
11.7563662304
  0
LINE
  5
2A6
100
AcDbEntity
  8
0
100
AcDbLine
 62
7
  6
CONTINUOUS
 10
13.1634320557
 20
11.6311285382
 11
13.3227468895
 21
11.6311285382
  0
LINE
  5
2A7
100
AcDbEntity
  8
LAYER_FEATURE
100
AcDbLine
 62
7
  6
CONTINUOUS
 10
13.4802770376
 20
11.6311285382
 11
13.6395918715
 21
11.6311285382
  0
LINE
  5
2A8
100
AcDbEntity
  8
LAYER_FEATURE
100
AcDbLine
 62
7
  6
CONTINUOUS
 10
13.7971220195
 20
11.6311285382
 11
13.9564368534
 21
11.6311285382
  0
LINE
  5
2A9
100
AcDbEntity
  8
LAYER_FEATURE
100
AcDbLine
 62
7
  6
CONTINUOUS
 10
14.1139670015
 20
11.6311285382
 11
14.2732818353
 21
11.6311285382
  0
LINE
  5
2AA
100
AcDbEntity
  8
LAYER_FEATURE
100
AcDbLine
 62
7
  6
CONTINUOUS
 10
14.4308119834
 20
11.6311285382
 11
14.5901268173
 21
11.6311285382
  0
LINE
  5
2AB
100
AcDbEntity
  8
LAYER_FEATURE
100
AcDbLine
 62
7
  6
CONTINUOUS
 10
14.7476569653
 20
11.6311285382
 11
14.9069717992
 21
11.6311285382
  0
LINE
  5
2AC
100
AcDbEntity
  8
LAYER_FEATURE
100
AcDbLine
 62
7
  6
CONTINUOUS
 10
15.0645019473
 20
11.6311285382
 11
15.2238167811
 21
11.6311285382
  0
LINE
  5
2AD
100
AcDbEntity
  8
LAYER_FEATURE
100
AcDbLine
 62
7
  6
CONTINUOUS
 10
15.3813469292
 20
11.6311285382
 11
15.5406617631
 21
11.6311285382
  0
LINE
  5
2AE
100
AcDbEntity
  8
LAYER_FEATURE
100
AcDbLine
 62
7
  6
CONTINUOUS
 10
15.6981919112
 20
11.6311285382
 11
15.857506745
 21
11.6311285382
  0
LINE
  5
2AF
100
AcDbEntity
  8
LAYER_FEATURE
100
AcDbLine
 62
7
  6
CONTINUOUS
 10
16.0150368931
 20
11.6311285382
 11
16.174351727
 21
11.6311285382
  0
LINE
  5
2B0
100
AcDbEntity
  8
LAYER_FEATURE
100
AcDbLine
 62
7
  6
CONTINUOUS
 10
16.331881875
 20
11.6311285382
 11
16.4911967089
 21
11.6311285382
  0
LINE
  5
2B1
100
AcDbEntity
  8
LAYER_FEATURE
100
AcDbLine
 62
7
  6
CONTINUOUS
 10
16.648726857
 20
11.6311285382
 11
16.8080416908
 21
11.6311285382
  0
LINE
  5
2B2
100
AcDbEntity
  8
LAYER_FEATURE
100
AcDbLine
 62
7
  6
CONTINUOUS
 10
16.9655718389
 20
11.6311285382
 11
17.1248866728
 21
11.6311285382
  0
LINE
  5
2B3
100
AcDbEntity
  8
LAYER_FEATURE
100
AcDbLine
 62
7
  6
CONTINUOUS
 10
17.2824168208
 20
11.6311285382
 11
17.4417316547
 21
11.6311285382
  0
LINE
  5
2B4
100
AcDbEntity
  8
LAYER_FEATURE
100
AcDbLine
 62
7
  6
CONTINUOUS
 10
14.9205588155
 20
11.7958551798
 11
15.0497851966
 21
11.6374374544
  0
LINE
  5
2B5
100
AcDbEntity
  8
LAYER_FEATURE
100
AcDbLine
 62
7
  6
CONTINUOUS
 10
14.5986516351
 20
11.6374374544
 11
14.5723977598
 21
11.7958551798
  0
LINE
  5
2B6
100
AcDbEntity
  8
LAYER_FEATURE
100
AcDbLine
 62
7
  6
CONTINUOUS
 10
14.5985281688
 20
11.6353438625
 11
14.5986516351
 21
11.6374374544
  0
LINE
  5
2B7
100
AcDbEntity
  8
LAYER_FEATURE
100
AcDbLine
 62
7
  6
CONTINUOUS
 10
13.29815439
 20
11.8098414041
 11
13.3294704638
 21
11.8098414041
  0
LINE
  5
2B8
100
AcDbEntity
  8
LAYER_FEATURE
100
AcDbLine
 62
7
  6
CONTINUOUS
 10
13.6149993719
 20
11.8098414041
 11
13.6463154457
 21
11.8098414041
  0
LINE
  5
2B9
100
AcDbEntity
  8
LAYER_FEATURE
100
AcDbLine
 62
7
  6
CONTINUOUS
 10
13.9318443539
 20
11.8098414041
 11
13.9631604277
 21
11.8098414041
  0
LINE
  5
2BA
100
AcDbEntity
  8
LAYER_FEATURE
100
AcDbLine
 62
7
  6
CONTINUOUS
 10
14.2486893358
 20
11.8098414041
 11
14.2800054096
 21
11.8098414041
  0
LINE
  5
2BB
100
AcDbEntity
  8
LAYER_FEATURE
100
AcDbLine
 62
7
  6
CONTINUOUS
 10
14.5655343178
 20
11.8098414041
 11
14.5968503916
 21
11.8098414041
  0
LINE
  5
2BC
100
AcDbEntity
  8
LAYER_FEATURE
100
AcDbLine
 62
7
  6
CONTINUOUS
 10
14.8823792997
 20
11.8098414041
 11
14.9136953735
 21
11.8098414041
  0
LINE
  5
2BD
100
AcDbEntity
  8
LAYER_FEATURE
100
AcDbLine
 62
7
  6
CONTINUOUS
 10
15.1992242816
 20
11.8098414041
 11
15.2305403554
 21
11.8098414041
  0
LINE
  5
2BE
100
AcDbEntity
  8
LAYER_FEATURE
100
AcDbLine
 62
7
  6
CONTINUOUS
 10
15.5160692636
 20
11.8098414041
 11
15.5473853374
 21
11.8098414041
  0
LINE
  5
2BF
100
AcDbEntity
  8
LAYER_FEATURE
100
AcDbLine
 62
7
  6
CONTINUOUS
 10
15.8329142455
 20
11.8098414041
 11
15.8642303193
 21
11.8098414041
  0
LINE
  5
2C0
100
AcDbEntity
  8
LAYER_FEATURE
100
AcDbLine
 62
7
  6
CONTINUOUS
 10
16.1497592274
 20
11.8098414041
 11
16.1810753012
 21
11.8098414041
  0
LINE
  5
2C1
100
AcDbEntity
  8
LAYER_FEATURE
100
AcDbLine
 62
7
  6
CONTINUOUS
 10
16.4666042094
 20
11.8098414041
 11
16.4979202832
 21
11.8098414041
  0
LINE
  5
2C2
100
AcDbEntity
  8
LAYER_FEATURE
100
AcDbLine
 62
7
  6
CONTINUOUS
 10
16.7834491913
 20
11.8098414041
 11
16.8147652651
 21
11.8098414041
  0
LINE
  5
2C3
100
AcDbEntity
  8
LAYER_FEATURE
100
AcDbLine
 62
7
  6
CONTINUOUS
 10
17.1002941733
 20
11.8098414041
 11
17.131610247
 21
11.8098414041
  0
LINE
  5
2C4
100
AcDbEntity
  8
0
100
AcDbLine
 62
7
  6
CONTINUOUS
 10
17.4033677557
 20
11.8238276284
 11
13.0126699973
 21
11.8238276284
  0
LINE
  5
2C5
100
AcDbEntity
  8
LAYER_FEATURE
100
AcDbLine
 62
7
  6
CONTINUOUS
 10
14.8892427417
 20
11.7958551798
 11
14.8823792997
 21
11.8098414041
  0
LINE
  5
2C6
100
AcDbEntity
  8
LAYER_FEATURE
100
AcDbLine
 62
7
  6
CONTINUOUS
 10
14.9136953735
 20
11.8098414041
 11
14.9205588155
 21
11.7958551798
  0
LINE
  5
2C7
100
AcDbEntity
  8
LAYER_FEATURE
100
AcDbLine
 62
7
  6
CONTINUOUS
 10
14.915496617
 20
11.6374374544
 11
14.8892427417
 21
11.7958551798
  0
LINE
  5
2C8
100
AcDbEntity
  8
LAYER_FEATURE
100
AcDbLine
 62
7
  6
CONTINUOUS
 10
14.9153731507
 20
11.6353438625
 11
14.915496617
 21
11.6374374544
  0
LINE
  5
2C9
100
AcDbEntity
  8
LAYER_FEATURE
100
AcDbLine
 62
7
  6
CONTINUOUS
 10
14.57671983
 20
11.8098414041
 11
14.5723977598
 21
11.7958551798
  0
LINE
  5
2CA
100
AcDbEntity
  8
LAYER_FEATURE
100
AcDbLine
 62
7
  6
CONTINUOUS
 10
14.5991288803
 20
11.6372899745
 11
14.6359262265
 21
11.7563662304
  0
LINE
  5
2CB
100
AcDbEntity
  8
LAYER_FEATURE
100
AcDbLine
 62
7
  6
CONTINUOUS
 10
15.2374037974
 20
11.7958551798
 11
15.3666301786
 21
11.6374374544
  0
LINE
  5
2CC
100
AcDbEntity
  8
LAYER_FEATURE
100
AcDbLine
 62
7
  6
CONTINUOUS
 10
15.2060877236
 20
11.7958551798
 11
15.1992242816
 21
11.8098414041
  0
LINE
  5
2CD
100
AcDbEntity
  8
LAYER_FEATURE
100
AcDbLine
 62
7
  6
CONTINUOUS
 10
15.2305403554
 20
11.8098414041
 11
15.2374037974
 21
11.7958551798
  0
LINE
  5
2CE
100
AcDbEntity
  8
LAYER_FEATURE
100
AcDbLine
 62
7
  6
CONTINUOUS
 10
14.8935648119
 20
11.8098414041
 11
14.8892427417
 21
11.7958551798
  0
LINE
  5
2CF
100
AcDbEntity
  8
LAYER_FEATURE
100
AcDbLine
 62
7
  6
CONTINUOUS
 10
15.5542487794
 20
11.7958551798
 11
15.6834751605
 21
11.6374374544
  0
LINE
  5
2D0
100
AcDbEntity
  8
LAYER_FEATURE
100
AcDbLine
 62
7
  6
CONTINUOUS
 10
15.232341599
 20
11.6374374544
 11
15.2060877236
 21
11.7958551798
  0
LINE
  5
2D1
100
AcDbEntity
  8
LAYER_FEATURE
100
AcDbLine
 62
7
  6
CONTINUOUS
 10
15.2322185428
 20
11.6353437354
 11
15.232341599
 21
11.6374374544
  0
LINE
  5
2D2
100
AcDbEntity
  8
LAYER_FEATURE
100
AcDbLine
 62
7
  6
CONTINUOUS
 10
14.9159738623
 20
11.6372899745
 11
14.9527712085
 21
11.7563662304
  0
LINE
  5
2D3
100
AcDbEntity
  8
LAYER_FEATURE
100
AcDbLine
 62
7
  6
CONTINUOUS
 10
15.5229327056
 20
11.7958551798
 11
15.5160692636
 21
11.8098414041
  0
LINE
  5
2D4
100
AcDbEntity
  8
LAYER_FEATURE
100
AcDbLine
 62
7
  6
CONTINUOUS
 10
15.5473853374
 20
11.8098414041
 11
15.5542487794
 21
11.7958551798
  0
LINE
  5
2D5
100
AcDbEntity
  8
LAYER_FEATURE
100
AcDbLine
 62
7
  6
CONTINUOUS
 10
15.2104097938
 20
11.8098414041
 11
15.2060877236
 21
11.7958551798
  0
LINE
  5
2D6
100
AcDbEntity
  8
LAYER_FEATURE
100
AcDbLine
 62
7
  6
CONTINUOUS
 10
15.8710937613
 20
11.7958551798
 11
16.0003201425
 21
11.6374374544
  0
LINE
  5
2D7
100
AcDbEntity
  8
LAYER_FEATURE
100
AcDbLine
 62
7
  6
CONTINUOUS
 10
15.8397776875
 20
11.7958551798
 11
15.8329142455
 21
11.8098414041
  0
LINE
  5
2D8
100
AcDbEntity
  8
LAYER_FEATURE
100
AcDbLine
 62
7
  6
CONTINUOUS
 10
15.5491865809
 20
11.6374374544
 11
15.5229327056
 21
11.7958551798
  0
LINE
  5
2D9
100
AcDbEntity
  8
LAYER_FEATURE
100
AcDbLine
 62
7
  6
CONTINUOUS
 10
15.5490631146
 20
11.6353438625
 11
15.5491865809
 21
11.6374374544
  0
LINE
  5
2DA
100
AcDbEntity
  8
LAYER_FEATURE
100
AcDbLine
 62
7
  6
CONTINUOUS
 10
15.2328188442
 20
11.6372899745
 11
15.2696161904
 21
11.7563662304
  0
LINE
  5
2DB
100
AcDbEntity
  8
LAYER_FEATURE
100
AcDbLine
 62
7
  6
CONTINUOUS
 10
16.1879387432
 20
11.7958551798
 11
16.3171651244
 21
11.6374374544
  0
LINE
  5
2DC
100
AcDbEntity
  8
LAYER_FEATURE
100
AcDbLine
 62
7
  6
CONTINUOUS
 10
15.8642303193
 20
11.8098414041
 11
15.8710937613
 21
11.7958551798
  0
LINE
  5
2DD
100
AcDbEntity
  8
LAYER_FEATURE
100
AcDbLine
 62
7
  6
CONTINUOUS
 10
15.5272547758
 20
11.8098414041
 11
15.5229327056
 21
11.7958551798
  0
LINE
  5
2DE
100
AcDbEntity
  8
LAYER_FEATURE
100
AcDbLine
 62
7
  6
CONTINUOUS
 10
15.5496638261
 20
11.6372899745
 11
15.5864611723
 21
11.7563662304
  0
LINE
  5
2DF
100
AcDbEntity
  8
LAYER_FEATURE
100
AcDbLine
 62
7
  6
CONTINUOUS
 10
16.5047837252
 20
11.7958551798
 11
16.6340101063
 21
11.6374374544
  0
LINE
  5
2E0
100
AcDbEntity
  8
LAYER_FEATURE
100
AcDbLine
 62
7
  6
CONTINUOUS
 10
16.1566226694
 20
11.7958551798
 11
16.1497592274
 21
11.8098414041
  0
LINE
  5
2E1
100
AcDbEntity
  8
LAYER_FEATURE
100
AcDbLine
 62
7
  6
CONTINUOUS
 10
16.1810753012
 20
11.8098414041
 11
16.1879387432
 21
11.7958551798
  0
LINE
  5
2E2
100
AcDbEntity
  8
LAYER_FEATURE
100
AcDbLine
 62
7
  6
CONTINUOUS
 10
15.8660315628
 20
11.6374374544
 11
15.8397776875
 21
11.7958551798
  0
LINE
  5
2E3
100
AcDbEntity
  8
LAYER_FEATURE
100
AcDbLine
 62
7
  6
CONTINUOUS
 10
15.8659080965
 20
11.6353438625
 11
15.8660315628
 21
11.6374374544
  0
LINE
  5
2E4
100
AcDbEntity
  8
LAYER_FEATURE
100
AcDbLine
 62
7
  6
CONTINUOUS
 10
15.8440997577
 20
11.8098414041
 11
15.8397776875
 21
11.7958551798
  0
LINE
  5
2E5
100
AcDbEntity
  8
LAYER_FEATURE
100
AcDbLine
 62
7
  6
CONTINUOUS
 10
15.8665088081
 20
11.6372899745
 11
15.9033061543
 21
11.7563662304
  0
LINE
  5
2E6
100
AcDbEntity
  8
LAYER_FEATURE
100
AcDbLine
 62
7
  6
CONTINUOUS
 10
16.8216287071
 20
11.7958551798
 11
16.9508550883
 21
11.6374374544
  0
LINE
  5
2E7
100
AcDbEntity
  8
LAYER_FEATURE
100
AcDbLine
 62
7
  6
CONTINUOUS
 10
16.4734676514
 20
11.7958551798
 11
16.4666042094
 21
11.8098414041
  0
LINE
  5
2E8
100
AcDbEntity
  8
LAYER_FEATURE
100
AcDbLine
 62
7
  6
CONTINUOUS
 10
16.4979202832
 20
11.8098414041
 11
16.5047837252
 21
11.7958551798
  0
LINE
  5
2E9
100
AcDbEntity
  8
LAYER_FEATURE
100
AcDbLine
 62
7
  6
CONTINUOUS
 10
16.1828765448
 20
11.6374374544
 11
16.1566226694
 21
11.7958551798
  0
LINE
  5
2EA
100
AcDbEntity
  8
LAYER_FEATURE
100
AcDbLine
 62
7
  6
CONTINUOUS
 10
16.1827530785
 20
11.6353438625
 11
16.1828765448
 21
11.6374374544
  0
LINE
  5
2EB
100
AcDbEntity
  8
LAYER_FEATURE
100
AcDbLine
 62
7
  6
CONTINUOUS
 10
16.1609447396
 20
11.8098414041
 11
16.1566226694
 21
11.7958551798
  0
LINE
  5
2EC
100
AcDbEntity
  8
0
100
AcDbLine
 62
7
  6
CONTINUOUS
 10
13.4968026441
 20
13.3904814476
 11
17.8875004025
 21
13.3904814476
  0
LINE
  5
2ED
100
AcDbEntity
  8
LAYER_FEATURE
100
AcDbLine
 62
7
  6
CONTINUOUS
 10
17.138473689
 20
11.7958551798
 11
17.2677000702
 21
11.6374374544
  0
LINE
  5
2EE
100
AcDbEntity
  8
LAYER_FEATURE
100
AcDbLine
 62
7
  6
CONTINUOUS
 10
16.7903126333
 20
11.7958551798
 11
16.7834491913
 21
11.8098414041
  0
LINE
  5
2EF
100
AcDbEntity
  8
LAYER_FEATURE
100
AcDbLine
 62
7
  6
CONTINUOUS
 10
16.4997215267
 20
11.6374374544
 11
16.4734676514
 21
11.7958551798
  0
LINE
  5
2F0
100
AcDbEntity
  8
LAYER_FEATURE
100
AcDbLine
 62
7
  6
CONTINUOUS
 10
16.18335379
 20
11.6372899745
 11
16.2201511362
 21
11.7563662304
  0
LINE
  5
2F1
100
AcDbEntity
  8
LAYER_FEATURE
100
AcDbLine
 62
7
  6
CONTINUOUS
 10
16.8147652651
 20
11.8098414041
 11
16.8216287071
 21
11.7958551798
  0
LINE
  5
2F2
100
AcDbEntity
  8
LAYER_FEATURE
100
AcDbLine
 62
7
  6
CONTINUOUS
 10
16.4995980604
 20
11.6353438625
 11
16.4997215267
 21
11.6374374544
  0
LINE
  5
2F3
100
AcDbEntity
  8
LAYER_FEATURE
100
AcDbLine
 62
7
  6
CONTINUOUS
 10
16.4777897216
 20
11.8098414041
 11
16.4734676514
 21
11.7958551798
  0
LINE
  5
2F4
100
AcDbEntity
  8
LAYER_FEATURE
100
AcDbLine
 62
7
  6
CONTINUOUS
 10
16.5001987719
 20
11.6372899745
 11
16.5369961181
 21
11.7563662304
  0
LINE
  5
2F5
100
AcDbEntity
  8
LAYER_FEATURE
100
AcDbLine
 62
7
  6
CONTINUOUS
 10
17.1071576153
 20
11.7958551798
 11
17.1002941733
 21
11.8098414041
  0
LINE
  5
2F6
100
AcDbEntity
  8
LAYER_FEATURE
100
AcDbLine
 62
7
  6
CONTINUOUS
 10
17.131610247
 20
11.8098414041
 11
17.138473689
 21
11.7958551798
  0
LINE
  5
2F7
100
AcDbEntity
  8
LAYER_FEATURE
100
AcDbLine
 62
7
  6
CONTINUOUS
 10
16.8165665087
 20
11.6374374544
 11
16.7903126333
 21
11.7958551798
  0
LINE
  5
2F8
100
AcDbEntity
  8
LAYER_FEATURE
100
AcDbLine
 62
7
  6
CONTINUOUS
 10
16.8164430423
 20
11.6353438625
 11
16.8165665087
 21
11.6374374544
  0
LINE
  5
2F9
100
AcDbEntity
  8
LAYER_FEATURE
100
AcDbLine
 62
7
  6
CONTINUOUS
 10
16.7946347035
 20
11.8098414041
 11
16.7903126333
 21
11.7958551798
  0
LINE
  5
2FA
100
AcDbEntity
  8
LAYER_FEATURE
100
AcDbLine
 62
7
  6
CONTINUOUS
 10
16.8170437539
 20
11.6372899745
 11
16.8538411001
 21
11.7563662304
  0
LINE
  5
2FB
100
AcDbEntity
  8
0
100
AcDbLine
 62
7
  6
CONTINUOUS
 10
17.4240025972
 20
11.7958551798
 11
17.4125635272
 21
11.8191655536
  0
LINE
  5
2FC
100
AcDbEntity
  8
LAYER_FEATURE
100
AcDbLine
 62
7
  6
CONTINUOUS
 10
17.1334114906
 20
11.6374374544
 11
17.1071576153
 21
11.7958551798
  0
LINE
  5
2FD
100
AcDbEntity
  8
LAYER_FEATURE
100
AcDbLine
 62
7
  6
CONTINUOUS
 10
17.1332880243
 20
11.6353438625
 11
17.1334114906
 21
11.6374374544
  0
LINE
  5
2FE
100
AcDbEntity
  8
LAYER_FEATURE
100
AcDbLine
 62
7
  6
CONTINUOUS
 10
17.1114796854
 20
11.8098414041
 11
17.1071576153
 21
11.7958551798
  0
LINE
  5
2FF
100
AcDbEntity
  8
LAYER_FEATURE
100
AcDbLine
 62
7
  6
CONTINUOUS
 10
17.1338887358
 20
11.6372899745
 11
17.170686082
 21
11.7563662304
  0
LINE
  5
300
100
AcDbEntity
  8
LAYER_FEATURE
100
AcDbLine
 62
7
  6
CONTINUOUS
 10
17.4502564725
 20
11.6374374544
 11
17.4240025972
 21
11.7958551798
  0
LINE
  5
301
100
AcDbEntity
  8
LAYER_FEATURE
100
AcDbLine
 62
7
  6
CONTINUOUS
 10
17.4501330062
 20
11.6353438625
 11
17.4502564725
 21
11.6374374544
  0
LINE
  5
302
100
AcDbEntity
  8
LAYER_FEATURE
100
AcDbLine
 62
7
  6
CONTINUOUS
 10
17.908135244
 20
13.362508999
 11
17.4240025972
 21
11.7958551798
  0
LINE
  5
303
100
AcDbEntity
  8
LAYER_FEATURE
100
AcDbLine
 62
7
  6
CONTINUOUS
 10
17.4507337178
 20
11.6372899745
 11
17.93426503
 21
13.2019978743
  0
LINE
  5
304
100
AcDbEntity
  8
LAYER_FEATURE
100
AcDbLine
 62
7
  6
CONTINUOUS
 10
17.9343891193
 20
13.2040912737
 11
17.934265653
 21
13.2019976818
  0
LINE
  5
305
100
AcDbEntity
  8
0
100
AcDbLine
 62
7
  6
CONTINUOUS
 10
17.896696174
 20
13.3858193729
 11
17.908135244
 21
13.362508999
  0
LINE
  5
306
100
AcDbEntity
  8
LAYER_FEATURE
100
AcDbLine
 62
7
  6
CONTINUOUS
 10
17.9343891193
 20
13.2040912737
 11
17.908135244
 21
13.362508999
  0
ARC
  5
307
100
AcDbEntity
  8
0
100
AcDbCircle
 62
7
  6
CONTINUOUS
 10
3.8078828658
 20
5.3780365634
 40
0.0129166667
100
AcDbArc
 50
192.3713234544
 51
270.0
  0
ARC
  5
308
100
AcDbEntity
  8
0
100
AcDbCircle
 62
7
  6
CONTINUOUS
 10
3.9808516865
 20
5.3780365634
 40
0.0129166667
100
AcDbArc
 50
270.0
 51
347.6286765456
  0
ARC
  5
309
100
AcDbEntity
  8
LAYER_FEATURE
100
AcDbCircle
 62
7
  6
CONTINUOUS
 10
4.1518828658
 20
5.3780365634
 40
0.0129166667
100
AcDbArc
 50
192.3713234544
 51
270.0
  0
ARC
  5
30A
100
AcDbEntity
  8
LAYER_FEATURE
100
AcDbCircle
 62
7
  6
CONTINUOUS
 10
4.3248516865
 20
5.3780365634
 40
0.0129166667
100
AcDbArc
 50
270.0
 51
347.6286765456
  0
ARC
  5
30B
100
AcDbEntity
  8
LAYER_FEATURE
100
AcDbCircle
 62
7
  6
CONTINUOUS
 10
4.4958828658
 20
5.3780365634
 40
0.0129166667
100
AcDbArc
 50
192.3713234544
 51
270.0
  0
ARC
  5
30C
100
AcDbEntity
  8
LAYER_FEATURE
100
AcDbCircle
 62
7
  6
CONTINUOUS
 10
4.6688516865
 20
5.3780365634
 40
0.0129166667
100
AcDbArc
 50
270.0
 51
347.6286765456
  0
ARC
  5
30D
100
AcDbEntity
  8
LAYER_FEATURE
100
AcDbCircle
 62
7
  6
CONTINUOUS
 10
4.8398828658
 20
5.3780365634
 40
0.0129166667
100
AcDbArc
 50
192.3713234544
 51
270.0
  0
ARC
  5
30E
100
AcDbEntity
  8
LAYER_FEATURE
100
AcDbCircle
 62
7
  6
CONTINUOUS
 10
5.0128516865
 20
5.3780365634
 40
0.0129166667
100
AcDbArc
 50
270.0
 51
347.6286765456
  0
ARC
  5
30F
100
AcDbEntity
  8
LAYER_FEATURE
100
AcDbCircle
 62
7
  6
CONTINUOUS
 10
5.1838828658
 20
5.3780365634
 40
0.0129166667
100
AcDbArc
 50
192.3713234544
 51
270.0
  0
ARC
  5
310
100
AcDbEntity
  8
LAYER_FEATURE
100
AcDbCircle
 62
7
  6
CONTINUOUS
 10
5.3568516865
 20
5.3780365634
 40
0.0129166667
100
AcDbArc
 50
270.0
 51
347.6286765456
  0
ARC
  5
311
100
AcDbEntity
  8
LAYER_FEATURE
100
AcDbCircle
 62
7
  6
CONTINUOUS
 10
5.5278828658
 20
5.3780365634
 40
0.0129166667
100
AcDbArc
 50
192.3713234544
 51
270.0
  0
ARC
  5
312
100
AcDbEntity
  8
LAYER_FEATURE
100
AcDbCircle
 62
7
  6
CONTINUOUS
 10
5.7008516865
 20
5.3780365634
 40
0.0129166667
100
AcDbArc
 50
270.0
 51
347.6286765456
  0
ARC
  5
313
100
AcDbEntity
  8
LAYER_FEATURE
100
AcDbCircle
 62
7
  6
CONTINUOUS
 10
5.8718828658
 20
5.3780365634
 40
0.0129166667
100
AcDbArc
 50
192.3713234544
 51
270.0
  0
ARC
  5
314
100
AcDbEntity
  8
LAYER_FEATURE
100
AcDbCircle
 62
7
  6
CONTINUOUS
 10
6.0448516865
 20
5.3780365634
 40
0.0129166667
100
AcDbArc
 50
270.0
 51
347.6286765456
  0
ARC
  5
315
100
AcDbEntity
  8
LAYER_FEATURE
100
AcDbCircle
 62
7
  6
CONTINUOUS
 10
6.2158828658
 20
5.3780365634
 40
0.0129166667
100
AcDbArc
 50
192.3713234544
 51
270.0
  0
ARC
  5
316
100
AcDbEntity
  8
LAYER_FEATURE
100
AcDbCircle
 62
7
  6
CONTINUOUS
 10
6.3888516865
 20
5.3780365634
 40
0.0129166667
100
AcDbArc
 50
270.0
 51
347.6286765456
  0
ARC
  5
317
100
AcDbEntity
  8
LAYER_FEATURE
100
AcDbCircle
 62
7
  6
CONTINUOUS
 10
6.5598828658
 20
5.3780365634
 40
0.0129166667
100
AcDbArc
 50
192.3713234544
 51
270.0
  0
ARC
  5
318
100
AcDbEntity
  8
LAYER_FEATURE
100
AcDbCircle
 62
7
  6
CONTINUOUS
 10
6.7328516865
 20
5.3780365634
 40
0.0129166667
100
AcDbArc
 50
270.0
 51
347.6286765456
  0
ARC
  5
319
100
AcDbEntity
  8
LAYER_FEATURE
100
AcDbCircle
 62
7
  6
CONTINUOUS
 10
6.9038828658
 20
5.3780365634
 40
0.0129166667
100
AcDbArc
 50
192.3713234544
 51
270.0
  0
ARC
  5
31A
100
AcDbEntity
  8
LAYER_FEATURE
100
AcDbCircle
 62
7
  6
CONTINUOUS
 10
7.0768516865
 20
5.3780365634
 40
0.0129166667
100
AcDbArc
 50
270.0
 51
347.6286765456
  0
ARC
  5
31B
100
AcDbEntity
  8
LAYER_FEATURE
100
AcDbCircle
 62
7
  6
CONTINUOUS
 10
7.2478828658
 20
5.3780365634
 40
0.0129166667
100
AcDbArc
 50
192.3713234544
 51
270.0
  0
ARC
  5
31C
100
AcDbEntity
  8
LAYER_FEATURE
100
AcDbCircle
 62
7
  6
CONTINUOUS
 10
7.4208516865
 20
5.3780365634
 40
0.0129166667
100
AcDbArc
 50
270.0
 51
347.6286765456
  0
ARC
  5
31D
100
AcDbEntity
  8
LAYER_FEATURE
100
AcDbCircle
 62
7
  6
CONTINUOUS
 10
7.5918828658
 20
5.3780365634
 40
0.0129166667
100
AcDbArc
 50
192.3713234544
 51
270.0
  0
ARC
  5
31E
100
AcDbEntity
  8
LAYER_FEATURE
100
AcDbCircle
 62
7
  6
CONTINUOUS
 10
7.7648516865
 20
5.3780365634
 40
0.0129166667
100
AcDbArc
 50
270.0
 51
347.6286765456
  0
ARC
  5
31F
100
AcDbEntity
  8
LAYER_FEATURE
100
AcDbCircle
 62
7
  6
CONTINUOUS
 10
8.4528516865
 20
5.3780365634
 40
0.0129166667
100
AcDbArc
 50
270.0
 51
347.6286765456
  0
ARC
  5
320
100
AcDbEntity
  8
LAYER_FEATURE
100
AcDbCircle
 62
7
  6
CONTINUOUS
 10
8.2798828658
 20
5.3780365634
 40
0.0129166667
100
AcDbArc
 50
192.3713234544
 51
270.0
  0
ARC
  5
321
100
AcDbEntity
  8
LAYER_FEATURE
100
AcDbCircle
 62
7
  6
CONTINUOUS
 10
8.1088516865
 20
5.3780365634
 40
0.0129166667
100
AcDbArc
 50
270.0
 51
347.6286765456
  0
ARC
  5
322
100
AcDbEntity
  8
LAYER_FEATURE
100
AcDbCircle
 62
7
  6
CONTINUOUS
 10
7.9358828658
 20
5.3780365634
 40
0.0129166667
100
AcDbArc
 50
192.3713234544
 51
270.0
  0
ARC
  5
323
100
AcDbEntity
  8
0
100
AcDbCircle
 62
7
  6
CONTINUOUS
 10
3.7468672762
 20
5.6676198968
 40
0.0075
100
AcDbArc
 50
90.0
 51
180.0
  0
ARC
  5
324
100
AcDbEntity
  8
0
100
AcDbCircle
 62
7
  6
CONTINUOUS
 10
8.5138672762
 20
5.6676198968
 40
0.0075
100
AcDbArc
 50
0.0
 51
90.0
  0
SPLINE
  5
325
100
AcDbEntity
  8
0
100
AcDbSpline
 62
7
  6
CONTINUOUS
 70
0
 71
3
 72
12
 73
8
 74
0
 42
0.0000001
 43
0.0000001
 44
0.0000000001
 40
0.0
 40
0.0
 40
0.0
 40
0.0
 40
0.2642051881
 40
0.53615925
 40
0.7879547432
 40
0.9000009334
 40
1.0
 40
1.0
 40
1.0
 40
1.0
 10
17.8875004025
 20
13.3904814476
 30
0.0
 10
17.8884460614
 20
13.3904814476
 30
0.0
 10
17.8903690871
 20
13.3902185423
 30
0.0
 10
17.8930360534
 20
13.3892477349
 30
0.0
 10
17.8949672593
 20
13.3879857727
 30
0.0
 10
17.8961171924
 20
13.3867800723
 30
0.0
 10
17.8965384938
 20
13.3861406913
 30
0.0
 10
17.896696174
 20
13.3858193729
 30
0.0
  0
SPLINE
  5
326
100
AcDbEntity
  8
0
100
AcDbSpline
 62
7
  6
CONTINUOUS
 70
0
 71
3
 72
11
 73
7
 74
0
 42
0.0000001
 43
0.0000001
 44
0.0000000001
 40
0.0
 40
0.0
 40
0.0
 40
0.0
 40
0.2022595964
 40
0.4301234434
 40
0.6973865799
 40
1.0
 40
1.0
 40
1.0
 40
1.0
 10
13.4919253673
 20
13.3880335553
 30
0.0
 10
13.4920389755
 20
13.3884075541
 30
0.0
 10
13.4924906421
 20
13.3891464453
 30
0.0
 10
13.4936254249
 20
13.3899232715
 30
0.0
 10
13.4951129936
 20
13.3903840607
 30
0.0
 10
13.4962178339
 20
13.3904814476
 30
0.0
 10
13.4968026441
 20
13.3904814476
 30
0.0
  0
SPLINE
  5
327
100
AcDbEntity
  8
LAYER_FEATURE
100
AcDbSpline
 62
7
  6
CONTINUOUS
 70
0
 71
3
 72
12
 73
8
 74
0
 42
0.0000001
 43
0.0000001
 44
0.0000000001
 40
0.0
 40
0.0
 40
0.0
 40
0.0
 40
0.3032465943
 40
0.5691999562
 40
0.7966404696
 40
0.9000542792
 40
1.0
 40
1.0
 40
1.0
 40
1.0
 10
17.4417316547
 20
11.6311285382
 30
0.0
 10
17.442742269
 20
11.6311285382
 30
0.0
 10
17.4446467806
 20
11.6312904424
 30
0.0
 10
17.4472046113
 20
11.6320898334
 30
0.0
 10
17.4488812073
 20
11.6332474517
 30
0.0
 10
17.4497553482
 20
11.634399878
 30
0.0
 10
17.4500340127
 20
11.6350258283
 30
0.0
 10
17.4501319967
 20
11.6353441741
 30
0.0
  0
SPLINE
  5
328
100
AcDbEntity
  8
LAYER_FEATURE
100
AcDbSpline
 62
7
  6
CONTINUOUS
 70
0
 71
3
 72
11
 73
7
 74
0
 42
0.0000001
 43
0.0000001
 44
0.0000000001
 40
0.0
 40
0.0
 40
0.0
 40
0.0
 40
0.2257773512
 40
0.4797708448
 40
0.7445211164
 40
1.0
 40
1.0
 40
1.0
 40
1.0
 10
17.2677000702
 20
11.6374374544
 30
0.0
 10
17.2684824217
 20
11.6364783752
 30
0.0
 10
17.2704844848
 20
11.634715262
 30
0.0
 10
17.27409087
 20
11.6327525662
 30
0.0
 10
17.2781595347
 20
11.6314618406
 30
0.0
 10
17.281016296
 20
11.6311285382
 30
0.0
 10
17.2824168208
 20
11.6311285382
 30
0.0
  0
SPLINE
  5
329
100
AcDbEntity
  8
LAYER_FEATURE
100
AcDbSpline
 62
7
  6
CONTINUOUS
 70
0
 71
3
 72
12
 73
8
 74
0
 42
0.0000001
 43
0.0000001
 44
0.0000000001
 40
0.0
 40
0.0
 40
0.0
 40
0.0
 40
0.3032465943
 40
0.5691999562
 40
0.7966404696
 40
0.9000542792
 40
1.0
 40
1.0
 40
1.0
 40
1.0
 10
17.1248866728
 20
11.6311285382
 30
0.0
 10
17.1258972871
 20
11.6311285382
 30
0.0
 10
17.1278017986
 20
11.6312904424
 30
0.0
 10
17.1303596294
 20
11.6320898334
 30
0.0
 10
17.1320362253
 20
11.6332474517
 30
0.0
 10
17.1329103662
 20
11.634399878
 30
0.0
 10
17.1331890308
 20
11.6350258283
 30
0.0
 10
17.1332870148
 20
11.6353441741
 30
0.0
  0
SPLINE
  5
32A
100
AcDbEntity
  8
LAYER_FEATURE
100
AcDbSpline
 62
7
  6
CONTINUOUS
 70
0
 71
3
 72
11
 73
7
 74
0
 42
0.0000001
 43
0.0000001
 44
0.0000000001
 40
0.0
 40
0.0
 40
0.0
 40
0.0
 40
0.2257773512
 40
0.4797708448
 40
0.7445211164
 40
1.0
 40
1.0
 40
1.0
 40
1.0
 10
16.9508550883
 20
11.6374374544
 30
0.0
 10
16.9516374397
 20
11.6364783752
 30
0.0
 10
16.9536395028
 20
11.634715262
 30
0.0
 10
16.9572458881
 20
11.6327525662
 30
0.0
 10
16.9613145528
 20
11.6314618406
 30
0.0
 10
16.9641713141
 20
11.6311285382
 30
0.0
 10
16.9655718389
 20
11.6311285382
 30
0.0
  0
SPLINE
  5
32B
100
AcDbEntity
  8
LAYER_FEATURE
100
AcDbSpline
 62
7
  6
CONTINUOUS
 70
0
 71
3
 72
12
 73
8
 74
0
 42
0.0000001
 43
0.0000001
 44
0.0000000001
 40
0.0
 40
0.0
 40
0.0
 40
0.0
 40
0.3032465943
 40
0.5691999562
 40
0.7966404696
 40
0.9000542792
 40
1.0
 40
1.0
 40
1.0
 40
1.0
 10
16.8080416908
 20
11.6311285382
 30
0.0
 10
16.8090523051
 20
11.6311285382
 30
0.0
 10
16.8109568167
 20
11.6312904424
 30
0.0
 10
16.8135146474
 20
11.6320898334
 30
0.0
 10
16.8151912434
 20
11.6332474517
 30
0.0
 10
16.8160653843
 20
11.634399878
 30
0.0
 10
16.8163440488
 20
11.6350258283
 30
0.0
 10
16.8164420329
 20
11.6353441741
 30
0.0
  0
SPLINE
  5
32C
100
AcDbEntity
  8
LAYER_FEATURE
100
AcDbSpline
 62
7
  6
CONTINUOUS
 70
0
 71
3
 72
11
 73
7
 74
0
 42
0.0000001
 43
0.0000001
 44
0.0000000001
 40
0.0
 40
0.0
 40
0.0
 40
0.0
 40
0.2257773512
 40
0.4797708448
 40
0.7445211164
 40
1.0
 40
1.0
 40
1.0
 40
1.0
 10
16.6340101063
 20
11.6374374544
 30
0.0
 10
16.6347924578
 20
11.6364783752
 30
0.0
 10
16.6367945209
 20
11.634715262
 30
0.0
 10
16.6404009061
 20
11.6327525662
 30
0.0
 10
16.6444695708
 20
11.6314618406
 30
0.0
 10
16.6473263322
 20
11.6311285382
 30
0.0
 10
16.648726857
 20
11.6311285382
 30
0.0
  0
SPLINE
  5
32D
100
AcDbEntity
  8
LAYER_FEATURE
100
AcDbSpline
 62
7
  6
CONTINUOUS
 70
0
 71
3
 72
12
 73
8
 74
0
 42
0.0000001
 43
0.0000001
 44
0.0000000001
 40
0.0
 40
0.0
 40
0.0
 40
0.0
 40
0.3032465943
 40
0.5691999562
 40
0.7966404696
 40
0.9000542792
 40
1.0
 40
1.0
 40
1.0
 40
1.0
 10
16.4911967089
 20
11.6311285382
 30
0.0
 10
16.4922073232
 20
11.6311285382
 30
0.0
 10
16.4941118347
 20
11.6312904424
 30
0.0
 10
16.4966696655
 20
11.6320898334
 30
0.0
 10
16.4983462615
 20
11.6332474517
 30
0.0
 10
16.4992204023
 20
11.634399878
 30
0.0
 10
16.4994990669
 20
11.6350258283
 30
0.0
 10
16.4995970509
 20
11.6353441741
 30
0.0
  0
SPLINE
  5
32E
100
AcDbEntity
  8
LAYER_FEATURE
100
AcDbSpline
 62
7
  6
CONTINUOUS
 70
0
 71
3
 72
11
 73
7
 74
0
 42
0.0000001
 43
0.0000001
 44
0.0000000001
 40
0.0
 40
0.0
 40
0.0
 40
0.0
 40
0.2257773512
 40
0.4797708448
 40
0.7445211164
 40
1.0
 40
1.0
 40
1.0
 40
1.0
 10
16.3171651244
 20
11.6374374544
 30
0.0
 10
16.3179474758
 20
11.6364783752
 30
0.0
 10
16.319949539
 20
11.634715262
 30
0.0
 10
16.3235559242
 20
11.6327525662
 30
0.0
 10
16.3276245889
 20
11.6314618406
 30
0.0
 10
16.3304813502
 20
11.6311285382
 30
0.0
 10
16.331881875
 20
11.6311285382
 30
0.0
  0
SPLINE
  5
32F
100
AcDbEntity
  8
LAYER_FEATURE
100
AcDbSpline
 62
7
  6
CONTINUOUS
 70
0
 71
3
 72
12
 73
8
 74
0
 42
0.0000001
 43
0.0000001
 44
0.0000000001
 40
0.0
 40
0.0
 40
0.0
 40
0.0
 40
0.3032465943
 40
0.5691999562
 40
0.7966404696
 40
0.9000542792
 40
1.0
 40
1.0
 40
1.0
 40
1.0
 10
16.174351727
 20
11.6311285382
 30
0.0
 10
16.1753623413
 20
11.6311285382
 30
0.0
 10
16.1772668528
 20
11.6312904424
 30
0.0
 10
16.1798246836
 20
11.6320898334
 30
0.0
 10
16.1815012795
 20
11.6332474517
 30
0.0
 10
16.1823754204
 20
11.634399878
 30
0.0
 10
16.182654085
 20
11.6350258283
 30
0.0
 10
16.182752069
 20
11.6353441741
 30
0.0
  0
SPLINE
  5
330
100
AcDbEntity
  8
LAYER_FEATURE
100
AcDbSpline
 62
7
  6
CONTINUOUS
 70
0
 71
3
 72
11
 73
7
 74
0
 42
0.0000001
 43
0.0000001
 44
0.0000000001
 40
0.0
 40
0.0
 40
0.0
 40
0.0
 40
0.2257773512
 40
0.4797708448
 40
0.7445211164
 40
1.0
 40
1.0
 40
1.0
 40
1.0
 10
16.0003201425
 20
11.6374374544
 30
0.0
 10
16.0011024939
 20
11.6364783752
 30
0.0
 10
16.003104557
 20
11.634715262
 30
0.0
 10
16.0067109423
 20
11.6327525662
 30
0.0
 10
16.010779607
 20
11.6314618406
 30
0.0
 10
16.0136363683
 20
11.6311285382
 30
0.0
 10
16.0150368931
 20
11.6311285382
 30
0.0
  0
SPLINE
  5
331
100
AcDbEntity
  8
LAYER_FEATURE
100
AcDbSpline
 62
7
  6
CONTINUOUS
 70
0
 71
3
 72
12
 73
8
 74
0
 42
0.0000001
 43
0.0000001
 44
0.0000000001
 40
0.0
 40
0.0
 40
0.0
 40
0.0
 40
0.3032465943
 40
0.5691999562
 40
0.7966404696
 40
0.9000542792
 40
1.0
 40
1.0
 40
1.0
 40
1.0
 10
15.857506745
 20
11.6311285382
 30
0.0
 10
15.8585173593
 20
11.6311285382
 30
0.0
 10
15.8604218709
 20
11.6312904424
 30
0.0
 10
15.8629797016
 20
11.6320898334
 30
0.0
 10
15.8646562976
 20
11.6332474517
 30
0.0
 10
15.8655304385
 20
11.634399878
 30
0.0
 10
15.865809103
 20
11.6350258283
 30
0.0
 10
15.8659070871
 20
11.6353441741
 30
0.0
  0
SPLINE
  5
332
100
AcDbEntity
  8
LAYER_FEATURE
100
AcDbSpline
 62
7
  6
CONTINUOUS
 70
0
 71
3
 72
11
 73
7
 74
0
 42
0.0000001
 43
0.0000001
 44
0.0000000001
 40
0.0
 40
0.0
 40
0.0
 40
0.0
 40
0.2257773512
 40
0.4797708448
 40
0.7445211164
 40
1.0
 40
1.0
 40
1.0
 40
1.0
 10
15.6834751605
 20
11.6374374544
 30
0.0
 10
15.684257512
 20
11.6364783752
 30
0.0
 10
15.6862595751
 20
11.634715262
 30
0.0
 10
15.6898659603
 20
11.6327525662
 30
0.0
 10
15.693934625
 20
11.6314618406
 30
0.0
 10
15.6967913864
 20
11.6311285382
 30
0.0
 10
15.6981919112
 20
11.6311285382
 30
0.0
  0
SPLINE
  5
333
100
AcDbEntity
  8
LAYER_FEATURE
100
AcDbSpline
 62
7
  6
CONTINUOUS
 70
0
 71
3
 72
12
 73
8
 74
0
 42
0.0000001
 43
0.0000001
 44
0.0000000001
 40
0.0
 40
0.0
 40
0.0
 40
0.0
 40
0.3032465943
 40
0.5691999562
 40
0.7966404696
 40
0.9000542792
 40
1.0
 40
1.0
 40
1.0
 40
1.0
 10
15.5406617631
 20
11.6311285382
 30
0.0
 10
15.5416723774
 20
11.6311285382
 30
0.0
 10
15.5435768889
 20
11.6312904424
 30
0.0
 10
15.5461347197
 20
11.6320898334
 30
0.0
 10
15.5478113157
 20
11.6332474517
 30
0.0
 10
15.5486854565
 20
11.634399878
 30
0.0
 10
15.5489641211
 20
11.6350258283
 30
0.0
 10
15.5490621051
 20
11.6353441741
 30
0.0
  0
SPLINE
  5
334
100
AcDbEntity
  8
LAYER_FEATURE
100
AcDbSpline
 62
7
  6
CONTINUOUS
 70
0
 71
3
 72
11
 73
7
 74
0
 42
0.0000001
 43
0.0000001
 44
0.0000000001
 40
0.0
 40
0.0
 40
0.0
 40
0.0
 40
0.2257773512
 40
0.4797708448
 40
0.7445211164
 40
1.0
 40
1.0
 40
1.0
 40
1.0
 10
15.3666301786
 20
11.6374374544
 30
0.0
 10
15.36741253
 20
11.6364783752
 30
0.0
 10
15.3694145932
 20
11.634715262
 30
0.0
 10
15.3730209784
 20
11.6327525662
 30
0.0
 10
15.3770896431
 20
11.6314618406
 30
0.0
 10
15.3799464044
 20
11.6311285382
 30
0.0
 10
15.3813469292
 20
11.6311285382
 30
0.0
  0
SPLINE
  5
335
100
AcDbEntity
  8
LAYER_FEATURE
100
AcDbSpline
 62
7
  6
CONTINUOUS
 70
0
 71
3
 72
12
 73
8
 74
0
 42
0.0000001
 43
0.0000001
 44
0.0000000001
 40
0.0
 40
0.0
 40
0.0
 40
0.0
 40
0.3032465618
 40
0.569200842
 40
0.7966420509
 40
0.900056156
 40
1.0
 40
1.0
 40
1.0
 40
1.0
 10
15.2238167811
 20
11.6311285382
 30
0.0
 10
15.224827395
 20
11.6311285382
 30
0.0
 10
15.2267319069
 20
11.6312904514
 30
0.0
 10
15.2292897476
 20
11.6320898261
 30
0.0
 10
15.230966342
 20
11.6332474655
 30
0.0
 10
15.2318404643
 20
11.6343998972
 30
0.0
 10
15.2321191492
 20
11.6350258313
 30
0.0
 10
15.232217136
 20
11.6353441696
 30
0.0
  0
SPLINE
  5
336
100
AcDbEntity
  8
LAYER_FEATURE
100
AcDbSpline
 62
7
  6
CONTINUOUS
 70
0
 71
3
 72
11
 73
7
 74
0
 42
0.0000001
 43
0.0000001
 44
0.0000000001
 40
0.0
 40
0.0
 40
0.0
 40
0.0
 40
0.2257773512
 40
0.4797708448
 40
0.7445211164
 40
1.0
 40
1.0
 40
1.0
 40
1.0
 10
15.0497851966
 20
11.6374374544
 30
0.0
 10
15.0505675481
 20
11.6364783752
 30
0.0
 10
15.0525696112
 20
11.634715262
 30
0.0
 10
15.0561759964
 20
11.6327525662
 30
0.0
 10
15.0602446611
 20
11.6314618406
 30
0.0
 10
15.0631014225
 20
11.6311285382
 30
0.0
 10
15.0645019473
 20
11.6311285382
 30
0.0
  0
SPLINE
  5
337
100
AcDbEntity
  8
LAYER_FEATURE
100
AcDbSpline
 62
7
  6
CONTINUOUS
 70
0
 71
3
 72
12
 73
8
 74
0
 42
0.0000001
 43
0.0000001
 44
0.0000000001
 40
0.0
 40
0.0
 40
0.0
 40
0.0
 40
0.3032465943
 40
0.5691999562
 40
0.7966404696
 40
0.9000542792
 40
1.0
 40
1.0
 40
1.0
 40
1.0
 10
14.9069717992
 20
11.6311285382
 30
0.0
 10
14.9079824135
 20
11.6311285382
 30
0.0
 10
14.9098869251
 20
11.6312904424
 30
0.0
 10
14.9124447558
 20
11.6320898334
 30
0.0
 10
14.9141213518
 20
11.6332474517
 30
0.0
 10
14.9149954927
 20
11.634399878
 30
0.0
 10
14.9152741572
 20
11.6350258283
 30
0.0
 10
14.9153721412
 20
11.6353441741
 30
0.0
  0
SPLINE
  5
338
100
AcDbEntity
  8
LAYER_FEATURE
100
AcDbSpline
 62
7
  6
CONTINUOUS
 70
0
 71
3
 72
11
 73
7
 74
0
 42
0.0000001
 43
0.0000001
 44
0.0000000001
 40
0.0
 40
0.0
 40
0.0
 40
0.0
 40
0.2257773512
 40
0.4797708448
 40
0.7445211164
 40
1.0
 40
1.0
 40
1.0
 40
1.0
 10
14.7329402147
 20
11.6374374544
 30
0.0
 10
14.7337225662
 20
11.6364783752
 30
0.0
 10
14.7357246293
 20
11.634715262
 30
0.0
 10
14.7393310145
 20
11.6327525662
 30
0.0
 10
14.7433996792
 20
11.6314618406
 30
0.0
 10
14.7462564406
 20
11.6311285382
 30
0.0
 10
14.7476569653
 20
11.6311285382
 30
0.0
  0
SPLINE
  5
339
100
AcDbEntity
  8
LAYER_FEATURE
100
AcDbSpline
 62
7
  6
CONTINUOUS
 70
0
 71
3
 72
12
 73
8
 74
0
 42
0.0000001
 43
0.0000001
 44
0.0000000001
 40
0.0
 40
0.0
 40
0.0
 40
0.0
 40
0.3032465943
 40
0.5691999562
 40
0.7966404696
 40
0.9000542792
 40
1.0
 40
1.0
 40
1.0
 40
1.0
 10
14.5901268173
 20
11.6311285382
 30
0.0
 10
14.5911374316
 20
11.6311285382
 30
0.0
 10
14.5930419431
 20
11.6312904424
 30
0.0
 10
14.5955997739
 20
11.6320898334
 30
0.0
 10
14.5972763698
 20
11.6332474517
 30
0.0
 10
14.5981505107
 20
11.634399878
 30
0.0
 10
14.5984291753
 20
11.6350258283
 30
0.0
 10
14.5985271593
 20
11.6353441741
 30
0.0
  0
SPLINE
  5
33A
100
AcDbEntity
  8
LAYER_FEATURE
100
AcDbSpline
 62
7
  6
CONTINUOUS
 70
0
 71
3
 72
11
 73
7
 74
0
 42
0.0000001
 43
0.0000001
 44
0.0000000001
 40
0.0
 40
0.0
 40
0.0
 40
0.0
 40
0.2257773512
 40
0.4797708448
 40
0.7445211164
 40
1.0
 40
1.0
 40
1.0
 40
1.0
 10
14.4160952328
 20
11.6374374544
 30
0.0
 10
14.4168775842
 20
11.6364783752
 30
0.0
 10
14.4188796474
 20
11.634715262
 30
0.0
 10
14.4224860326
 20
11.6327525662
 30
0.0
 10
14.4265546973
 20
11.6314618406
 30
0.0
 10
14.4294114586
 20
11.6311285382
 30
0.0
 10
14.4308119834
 20
11.6311285382
 30
0.0
  0
SPLINE
  5
33B
100
AcDbEntity
  8
LAYER_FEATURE
100
AcDbSpline
 62
7
  6
CONTINUOUS
 70
0
 71
3
 72
12
 73
8
 74
0
 42
0.0000001
 43
0.0000001
 44
0.0000000001
 40
0.0
 40
0.0
 40
0.0
 40
0.0
 40
0.3032465943
 40
0.5691999562
 40
0.7966404696
 40
0.9000542792
 40
1.0
 40
1.0
 40
1.0
 40
1.0
 10
14.2732818353
 20
11.6311285382
 30
0.0
 10
14.2742924496
 20
11.6311285382
 30
0.0
 10
14.2761969612
 20
11.6312904424
 30
0.0
 10
14.278754792
 20
11.6320898334
 30
0.0
 10
14.2804313879
 20
11.6332474517
 30
0.0
 10
14.2813055288
 20
11.634399878
 30
0.0
 10
14.2815841933
 20
11.6350258283
 30
0.0
 10
14.2816821774
 20
11.6353441741
 30
0.0
  0
SPLINE
  5
33C
100
AcDbEntity
  8
LAYER_FEATURE
100
AcDbSpline
 62
7
  6
CONTINUOUS
 70
0
 71
3
 72
11
 73
7
 74
0
 42
0.0000001
 43
0.0000001
 44
0.0000000001
 40
0.0
 40
0.0
 40
0.0
 40
0.0
 40
0.2257773512
 40
0.4797708448
 40
0.7445211164
 40
1.0
 40
1.0
 40
1.0
 40
1.0
 10
14.0992502508
 20
11.6374374544
 30
0.0
 10
14.1000326023
 20
11.6364783752
 30
0.0
 10
14.1020346654
 20
11.634715262
 30
0.0
 10
14.1056410506
 20
11.6327525662
 30
0.0
 10
14.1097097153
 20
11.6314618406
 30
0.0
 10
14.1125664767
 20
11.6311285382
 30
0.0
 10
14.1139670015
 20
11.6311285382
 30
0.0
  0
SPLINE
  5
33D
100
AcDbEntity
  8
LAYER_FEATURE
100
AcDbSpline
 62
7
  6
CONTINUOUS
 70
0
 71
3
 72
12
 73
8
 74
0
 42
0.0000001
 43
0.0000001
 44
0.0000000001
 40
0.0
 40
0.0
 40
0.0
 40
0.0
 40
0.3032465943
 40
0.5691999562
 40
0.7966404696
 40
0.9000542792
 40
1.0
 40
1.0
 40
1.0
 40
1.0
 10
13.9564368534
 20
11.6311285382
 30
0.0
 10
13.9574474677
 20
11.6311285382
 30
0.0
 10
13.9593519792
 20
11.6312904424
 30
0.0
 10
13.96190981
 20
11.6320898334
 30
0.0
 10
13.963586406
 20
11.6332474517
 30
0.0
 10
13.9644605469
 20
11.634399878
 30
0.0
 10
13.9647392114
 20
11.6350258283
 30
0.0
 10
13.9648371954
 20
11.6353441741
 30
0.0
  0
SPLINE
  5
33E
100
AcDbEntity
  8
LAYER_FEATURE
100
AcDbSpline
 62
7
  6
CONTINUOUS
 70
0
 71
3
 72
11
 73
7
 74
0
 42
0.0000001
 43
0.0000001
 44
0.0000000001
 40
0.0
 40
0.0
 40
0.0
 40
0.0
 40
0.2257773512
 40
0.4797708448
 40
0.7445211164
 40
1.0
 40
1.0
 40
1.0
 40
1.0
 10
13.7824052689
 20
11.6374374544
 30
0.0
 10
13.7831876203
 20
11.6364783752
 30
0.0
 10
13.7851896835
 20
11.634715262
 30
0.0
 10
13.7887960687
 20
11.6327525662
 30
0.0
 10
13.7928647334
 20
11.6314618406
 30
0.0
 10
13.7957214947
 20
11.6311285382
 30
0.0
 10
13.7971220195
 20
11.6311285382
 30
0.0
  0
SPLINE
  5
33F
100
AcDbEntity
  8
LAYER_FEATURE
100
AcDbSpline
 62
7
  6
CONTINUOUS
 70
0
 71
3
 72
12
 73
8
 74
0
 42
0.0000001
 43
0.0000001
 44
0.0000000001
 40
0.0
 40
0.0
 40
0.0
 40
0.0
 40
0.3032465943
 40
0.5691999562
 40
0.7966404696
 40
0.9000542792
 40
1.0
 40
1.0
 40
1.0
 40
1.0
 10
13.6395918715
 20
11.6311285382
 30
0.0
 10
13.6406024858
 20
11.6311285382
 30
0.0
 10
13.6425069973
 20
11.6312904424
 30
0.0
 10
13.6450648281
 20
11.6320898334
 30
0.0
 10
13.646741424
 20
11.6332474517
 30
0.0
 10
13.6476155649
 20
11.634399878
 30
0.0
 10
13.6478942295
 20
11.6350258283
 30
0.0
 10
13.6479922135
 20
11.6353441741
 30
0.0
  0
SPLINE
  5
340
100
AcDbEntity
  8
LAYER_FEATURE
100
AcDbSpline
 62
7
  6
CONTINUOUS
 70
0
 71
3
 72
11
 73
7
 74
0
 42
0.0000001
 43
0.0000001
 44
0.0000000001
 40
0.0
 40
0.0
 40
0.0
 40
0.0
 40
0.2257773512
 40
0.4797708448
 40
0.7445211164
 40
1.0
 40
1.0
 40
1.0
 40
1.0
 10
13.465560287
 20
11.6374374544
 30
0.0
 10
13.4663426384
 20
11.6364783752
 30
0.0
 10
13.4683447015
 20
11.634715262
 30
0.0
 10
13.4719510868
 20
11.6327525662
 30
0.0
 10
13.4760197515
 20
11.6314618406
 30
0.0
 10
13.4788765128
 20
11.6311285382
 30
0.0
 10
13.4802770376
 20
11.6311285382
 30
0.0
  0
SPLINE
  5
341
100
AcDbEntity
  8
0
100
AcDbSpline
 62
7
  6
CONTINUOUS
 70
0
 71
3
 72
12
 73
8
 74
0
 42
0.0000001
 43
0.0000001
 44
0.0000000001
 40
0.0
 40
0.0
 40
0.0
 40
0.0
 40
0.3032465943
 40
0.5691999562
 40
0.7966404696
 40
0.9000542792
 40
1.0
 40
1.0
 40
1.0
 40
1.0
 10
13.3227468895
 20
11.6311285382
 30
0.0
 10
13.3237575038
 20
11.6311285382
 30
0.0
 10
13.3256620154
 20
11.6312904424
 30
0.0
 10
13.3282198461
 20
11.6320898334
 30
0.0
 10
13.3298964421
 20
11.6332474517
 30
0.0
 10
13.330770583
 20
11.634399878
 30
0.0
 10
13.3310492475
 20
11.6350258283
 30
0.0
 10
13.3311472316
 20
11.6353441741
 30
0.0
  0
SPLINE
  5
342
100
AcDbEntity
  8
0
100
AcDbSpline
 62
7
  6
CONTINUOUS
 70
0
 71
3
 72
11
 73
7
 74
0
 42
0.0000001
 43
0.0000001
 44
0.0000000001
 40
0.0
 40
0.0
 40
0.0
 40
0.0
 40
0.2257773512
 40
0.4797708448
 40
0.7445211164
 40
1.0
 40
1.0
 40
1.0
 40
1.0
 10
13.148715305
 20
11.6374374544
 30
0.0
 10
13.1494976565
 20
11.6364783752
 30
0.0
 10
13.1514997196
 20
11.634715262
 30
0.0
 10
13.1551061048
 20
11.6327525662
 30
0.0
 10
13.1591747695
 20
11.6314618406
 30
0.0
 10
13.1620315309
 20
11.6311285382
 30
0.0
 10
13.1634320557
 20
11.6311285382
 30
0.0
  0
SPLINE
  5
343
100
AcDbEntity
  8
0
100
AcDbSpline
 62
7
  6
CONTINUOUS
 70
0
 71
3
 72
11
 73
7
 74
0
 42
0.0000001
 43
0.0000001
 44
0.0000000001
 40
0.0
 40
0.0
 40
0.0
 40
0.0
 40
0.3026134201
 40
0.5698765566
 40
0.7977404036
 40
1.0
 40
1.0
 40
1.0
 40
1.0
 10
13.0126699973
 20
11.8238276284
 30
0.0
 10
13.0120851871
 20
11.8238276284
 30
0.0
 10
13.0109803468
 20
11.8237302415
 30
0.0
 10
13.0094927781
 20
11.8232694523
 30
0.0
 10
13.0083579953
 20
11.822492626
 30
0.0
 10
13.0079063287
 20
11.8217537348
 30
0.0
 10
13.0077927204
 20
11.8213797361
 30
0.0
  0
SPLINE
  5
344
100
AcDbEntity
  8
0
100
AcDbSpline
 62
7
  6
CONTINUOUS
 70
0
 71
3
 72
12
 73
8
 74
0
 42
0.0000001
 43
0.0000001
 44
0.0000000001
 40
0.0
 40
0.0
 40
0.0
 40
0.0
 40
0.0999990666
 40
0.2120452568
 40
0.46384075
 40
0.7357948119
 40
1.0
 40
1.0
 40
1.0
 40
1.0
 10
17.4125635272
 20
11.8191655536
 30
0.0
 10
17.412405847
 20
11.819486872
 30
0.0
 10
17.4119845456
 20
11.8201262531
 30
0.0
 10
17.4108346125
 20
11.8213319534
 30
0.0
 10
17.4089034066
 20
11.8225939157
 30
0.0
 10
17.4062364402
 20
11.8235647231
 30
0.0
 10
17.4043134145
 20
11.8238276284
 30
0.0
 10
17.4033677557
 20
11.8238276284
 30
0.0
  0
ENDSEC
  0
SECTION
  2
OBJECTS
  0
DICTIONARY
  5
C
100
AcDbDictionary
280
0
281
1
  3
ACAD_GROUP
350
D
  3
ACAD_MLINESTYLE
350
17
  3
ACAD_LAYOUT
350
1A
  3
ACAD_PLOTSETTINGS
350
19
  3
ACAD_PLOTSTYLENAME
350
E
  0
DICTIONARY
  5
D
102
{ACAD_REACTORS
330
C
102
}
100
AcDbDictionary
280
0
281
1
  0
ACDBDICTIONARYWDFLT
  5
E
102
{ACAD_REACTORS
330
C
102
}
100
AcDbDictionary
281
1
  3
Normal
350
F
100
AcDbDictionaryWithDefault
340
F
  0
DICTIONARY
  5
17
102
{ACAD_REACTORS
330
C
102
}
100
AcDbDictionary
280
0
281
1
  3
Standard
350
18
  0
DICTIONARY
  5
19
102
{ACAD_REACTORS
330
C
102
}
100
AcDbDictionary
281
1
  0
DICTIONARY
  5
1A
102
{ACAD_REACTORS
330
C
102
}
100
AcDbDictionary
281
1
  3
Model
350
345
  3
Layout1
350
346
  0
ACDBPLACEHOLDER
  5
F
102
{ACAD_REACTORS
330
E
102
}
  0
MLINESTYLE
  5
18
102
{ACAD_REACTORS
330
17
102
}
100
AcDbMlineStyle
  2
STANDARD
 70
0
  3

 62
256
 51
90.0
 52
90.0
 71
2
 49
0.5
 62
256
  6
BYLAYER
 49
-0.5
 62
256
  6
BYLAYER
  0
LAYOUT
  5
345
102
{ACAD_REACTORS
330
1A
102
}
100
AcDbPlotSettings
  1

  2
none_device
  4
ANSI_C_(22.00_x_17.00_Inches)
  6

 40
0.0
 41
0.0
 42
0.0
 43
0.0
 44
558.8
 45
431.8
 46
0.0
 47
0.0
 48
0.0
 49
0.0
140
0.0
141
0.0
142
1.0
143
1.0
 70
1024
 72
0
 73
0
 74
0
  7

 75
0
147
1.0
148
0.0
149
0.0
100
AcDbLayout
  1
Model
 70
0
 71
0
 10
0.0
 20
0.0
 11
22.0
 21
17.0
 12
0.0
 22
0.0
 32
0.0
 14
0.0
 24
0.0
 34
0.0
 15
0.0
 25
0.0
 35
0.0
146
0.0
 13
0.0
 23
0.0
 33
0.0
 16
1.0
 26
0.0
 36
0.0
 17
0.0
 27
1.0
 37
0.0
 76
0
330
21C
345
0
346
0
  0
LAYOUT
  5
346
102
{ACAD_REACTORS
330
1A
102
}
100
AcDbPlotSettings
  1

  2
none_device
  4
ANSI_C_(22.00_x_17.00_Inches)
  6

 40
0.0
 41
0.0
 42
0.0
 43
0.0
 44
558.8
 45
431.8
 46
0.0
 47
0.0
 48
0.0
 49
0.0
140
0.0
141
0.0
142
1.0
143
1.0
 70
0
 72
0
 73
0
 74
0
  7

 75
0
147
1.0
148
0.0
149
0.0
100
AcDbLayout
  1
Layout1
 70
0
 71
1
 10
0.0
 20
0.0
 11
22.0
 21
17.0
 12
0.0
 22
0.0
 32
0.0
 14
0.0
 24
0.0
 34
0.0
 15
0.0
 25
0.0
 35
0.0
146
0.0
 13
0.0
 23
0.0
 33
0.0
 16
1.0
 26
0.0
 36
0.0
 17
0.0
 27
1.0
 37
0.0
 76
0
330
21D
345
0
346
0
  0
ENDSEC
  0
EOF