999
DXF file: _cgs_temp_output.dxf
999
Pro/ENGINEER 2016360 by Parametric Technology Corporation
  0
SECTION
  2
HEADER
  9
$ACADVER
  1
AC1021
  9
$DWGCODEPAGE
  3
ANSI_1252
  9
$EXTMAX
 10
22.0
 20
17.0
 30
0.0
  9
$EXTMIN
 10
0.0
 20
0.0
 30
0.0
  9
$LIMMIN
 10
0.0
 20
0.0
  9
$LIMMAX
 10
22.0
 20
17.0
  9
$VIEWCTR
 10
11.0
 20
8.5
  9
$VIEWSIZE
 40
17.0
  9
$CLAYER
  8
0
  9
$LTSCALE
 40
1.21
  9
$CELTYPE
  6
BYLAYER
  9
$DIMSCALE
 40
1.0
  9
$DIMASZ
 40
0.1875
  9
$DIMEXO
 40
0.0625
  9
$DIMDLI
 40
0.836
  9
$DIMEXE
 40
0.125
  9
$DIMCEN
 40
0.198
  9
$DIMLFAC
 40
1.0
  9
$DIMBLK
  1
_CLOSED
  9
$DIMALT
 70
0
  9
$DIMALTF
 40
25.4
  9
$DIMTXT
 40
0.15625
  9
$DIMTOL
 70
0
  9
$DIMLIM
 70
0
  9
$DIMTFAC
 40
1.0
  9
$DIMGAP
 40
0.09
  9
$DIMDSEP
 70
46
  9
$AUNITS
 70
0
  9
$PDMODE
 70
3
  9
$PDSIZE
 40
0.3125
  9
$HANDSEED
  5
348
  9
$TILEMODE
 70
1
  9
$MEASUREMENT
 70
0
  9
$INSUNITS
 70
1
  0
ENDSEC
  0
SECTION
  2
CLASSES
  0
CLASS
  1
ACDBDICTIONARYWDFLT
  2
AcDbDictionaryWithDefault
  3
AutoCAD 2000
 90
0
 91
1
280
0
281
0
  0
CLASS
  1
ACDBPLACEHOLDER
  2
AcDbPlaceHolder
  3
AutoCAD 2000
 90
0
 91
1
280
0
281
0
  0
CLASS
  1
LAYOUT
  2
AcDbLayout
  3
AutoCAD 2000
 90
0
 91
0
280
0
281
0
  0
ENDSEC
  0
SECTION
  2
TABLES
  0
TABLE
  2
VPORT
  5
8
100
AcDbSymbolTable
 70
2
  0
VPORT
  5
1F4
100
AcDbSymbolTableRecord
100
AcDbViewportTableRecord
  2
*ACTIVE
 70
0
 10
0.0
 20
0.0
 11
1.0
 21
1.0
 12
11.0
 22
8.5
 13
0.0
 23
0.0
 14
1.0
 24
1.0
 15
0.0
 25
0.0
 16
0.0
 26
0.0
 36
1.0
 17
0.0
 27
0.0
 37
0.0
 40
17.0
 41
1.2941176471
 42
50.0
 43
0.0
 44
0.0
 50
0.0
 51
0.0
 71
0
 72
100
 73
1
 74
1
 75
0
 76
0
 77
0
 78
0
  0
ENDTAB
  0
TABLE
  2
LTYPE
  5
5
100
AcDbSymbolTable
 70
6
  0
LTYPE
  5
14
100
AcDbSymbolTableRecord
100
AcDbLinetypeTableRecord
  2
BYBLOCK
 70
0
  3

 72
65
 73
0
 40
0.0
  0
LTYPE
  5
15
100
AcDbSymbolTableRecord
100
AcDbLinetypeTableRecord
  2
BYLAYER
 70
0
  3

 72
65
 73
0
 40
0.0
  0
LTYPE
  5
16
100
AcDbSymbolTableRecord
100
AcDbLinetypeTableRecord
  2
CONTINUOUS
 70
64
  3
Solid line
 72
65
 73
0
 40
0.0
  0
LTYPE
  5
1F5
100
AcDbSymbolTableRecord
100
AcDbLinetypeTableRecord
  2
CENTER
 70
64
  3
____ _ ____ _ ____ _ ____ _ ____ _ ____ _ ____
 72
65
 73
4
 40
0.6
 49
0.375
 74
0
 49
-0.075
 74
0
 49
0.075
 74
0
 49
-0.075
 74
0
  0
LTYPE
  5
1F6
100
AcDbSymbolTableRecord
100
AcDbLinetypeTableRecord
  2
HIDDEN
 70
64
  3
- - - - - - - - - - - - - - - - - - - -
 72
65
 73
2
 40
0.2
 49
0.1
 74
0
 49
-0.1
 74
0
  0
LTYPE
  5
1F7
100
AcDbSymbolTableRecord
100
AcDbLinetypeTableRecord
  2
PHANTOM
 70
64
  3
_____ _ _ _____ _ _ _____ _ _ _____
 72
65
 73
6
 40
0.8
 49
0.45
 74
0
 49
-0.05
 74
0
 49
0.1
 74
0
 49
-0.05
 74
0
 49
0.1
 74
0
 49
-0.05
 74
0
  0
LTYPE
  5
1F8
100
AcDbSymbolTableRecord
100
AcDbLinetypeTableRecord
  2
DOT
 70
64
  3
. . . . . . . . . . . . . . . . . . . .
 72
65
 73
2
 40
0.2
 49
0.1
 74
0
 49
-0.1
 74
0
  0
LTYPE
  5
1F9
100
AcDbSymbolTableRecord
100
AcDbLinetypeTableRecord
  2
DASHED
 70
64
  3
- - - - - - - - - - - - - - - - - - - -
 72
65
 73
2
 40
0.2
 49
0.1
 74
0
 49
-0.1
 74
0
  0
ENDTAB
  0
TABLE
  2
LAYER
  5
2
100
AcDbSymbolTable
 70
36
  0
LAYER
  5
10
100
AcDbSymbolTableRecord
100
AcDbLayerTableRecord
  2
0
 70
0
 62
7
  6
CONTINUOUS
370
-3
390
F
  0
LAYER
  5
1FA
100
AcDbSymbolTableRecord
100
AcDbLayerTableRecord
  2
DEFAULT_1
 70
0
 62
7
  6
CENTER
370
-3
390
F
  0
LAYER
  5
1FB
100
AcDbSymbolTableRecord
100
AcDbLayerTableRecord
  2
DEFAULT_2
 70
0
 62
8
  6
HIDDEN
370
-3
390
F
  0
LAYER
  5
1FC
100
AcDbSymbolTableRecord
100
AcDbLayerTableRecord
  2
DEFAULT_3
 70
0
 62
7
  6
PHANTOM
370
-3
390
F
  0
LAYER
  5
1FD
100
AcDbSymbolTableRecord
100
AcDbLayerTableRecord
  2
01_ALL_DTM_PLN
 70
0
 62
7
  6
CONTINUOUS
370
-3
390
F
  0
LAYER
  5
1FE
100
AcDbSymbolTableRecord
100
AcDbLayerTableRecord
  2
01__ASM_ALL_DTM_PLN
 70
0
 62
7
  6
CONTINUOUS
370
-3
390
F
  0
LAYER
  5
1FF
100
AcDbSymbolTableRecord
100
AcDbLayerTableRecord
  2
01__ASM_DEF_DTM_PLN
 70
0
 62
7
  6
CONTINUOUS
370
-3
390
F
  0
LAYER
  5
200
100
AcDbSymbolTableRecord
100
AcDbLayerTableRecord
  2
01___PRT_ALL_DTM_PLN
 70
0
 62
7
  6
CONTINUOUS
370
-3
390
F
  0
LAYER
  5
201
100
AcDbSymbolTableRecord
100
AcDbLayerTableRecord
  2
01___PRT_DEF_DTM_PLN
 70
0
 62
7
  6
CONTINUOUS
370
-3
390
F
  0
LAYER
  5
202
100
AcDbSymbolTableRecord
100
AcDbLayerTableRecord
  2
02_ALL_AXES
 70
0
 62
7
  6
CONTINUOUS
370
-3
390
F
  0
LAYER
  5
203
100
AcDbSymbolTableRecord
100
AcDbLayerTableRecord
  2
02__ASM_ALL_AXES
 70
0
 62
7
  6
CONTINUOUS
370
-3
390
F
  0
LAYER
  5
204
100
AcDbSymbolTableRecord
100
AcDbLayerTableRecord
  2
02___PRT_ALL_AXES
 70
0
 62
7
  6
CONTINUOUS
370
-3
390
F
  0
LAYER
  5
205
100
AcDbSymbolTableRecord
100
AcDbLayerTableRecord
  2
03_ALL_CURVES
 70
0
 62
7
  6
CONTINUOUS
370
-3
390
F
  0
LAYER
  5
206
100
AcDbSymbolTableRecord
100
AcDbLayerTableRecord
  2
03__ASM_ALL_CURVES
 70
0
 62
7
  6
CONTINUOUS
370
-3
390
F
  0
LAYER
  5
207
100
AcDbSymbolTableRecord
100
AcDbLayerTableRecord
  2
03___PRT_ALL_CURVES
 70
0
 62
7
  6
CONTINUOUS
370
-3
390
F
  0
LAYER
  5
208
100
AcDbSymbolTableRecord
100
AcDbLayerTableRecord
  2
04_ALL_DTM_PNT
 70
0
 62
7
  6
CONTINUOUS
370
-3
390
F
  0
LAYER
  5
209
100
AcDbSymbolTableRecord
100
AcDbLayerTableRecord
  2
04__ASM_ALL_DTM_PNT
 70
0
 62
7
  6
CONTINUOUS
370
-3
390
F
  0
LAYER
  5
20A
100
AcDbSymbolTableRecord
100
AcDbLayerTableRecord
  2
04___PRT_ALL_DTM_PNT
 70
0
 62
7
  6
CONTINUOUS
370
-3
390
F
  0
LAYER
  5
20B
100
AcDbSymbolTableRecord
100
AcDbLayerTableRecord
  2
05_ALL_DTM_CSYS
 70
0
 62
7
  6
CONTINUOUS
370
-3
390
F
  0
LAYER
  5
20C
100
AcDbSymbolTableRecord
100
AcDbLayerTableRecord
  2
05__ASM_ALL_DTM_CSYS
 70
0
 62
7
  6
CONTINUOUS
370
-3
390
F
  0
LAYER
  5
20D
100
AcDbSymbolTableRecord
100
AcDbLayerTableRecord
  2
05__ASM_DEF_DTM_CSYS
 70
0
 62
7
  6
CONTINUOUS
370
-3
390
F
  0
LAYER
  5
20E
100
AcDbSymbolTableRecord
100
AcDbLayerTableRecord
  2
05___PRT_ALL_DTM_CSYS
 70
0
 62
7
  6
CONTINUOUS
370
-3
390
F
  0
LAYER
  5
20F
100
AcDbSymbolTableRecord
100
AcDbLayerTableRecord
  2
05___PRT_DEF_DTM_CSYS
 70
0
 62
7
  6
CONTINUOUS
370
-3
390
F
  0
LAYER
  5
210
100
AcDbSymbolTableRecord
100
AcDbLayerTableRecord
  2
06_ALL_SURFS
 70
0
 62
7
  6
CONTINUOUS
370
-3
390
F
  0
LAYER
  5
211
100
AcDbSymbolTableRecord
100
AcDbLayerTableRecord
  2
06__ASM_ALL_SURFS
 70
0
 62
7
  6
CONTINUOUS
370
-3
390
F
  0
LAYER
  5
212
100
AcDbSymbolTableRecord
100
AcDbLayerTableRecord
  2
06___PRT_ALL_SURFS
 70
0
 62
7
  6
CONTINUOUS
370
-3
390
F
  0
LAYER
  5
213
100
AcDbSymbolTableRecord
100
AcDbLayerTableRecord
  2
07__ASM_ALL_SKELETONS
 70
0
 62
7
  6
CONTINUOUS
370
-3
390
F
  0
LAYER
  5
214
100
AcDbSymbolTableRecord
100
AcDbLayerTableRecord
  2
LAYER_DIM
 70
0
 62
7
  6
CONTINUOUS
370
-3
390
F
  0
LAYER
  5
215
100
AcDbSymbolTableRecord
100
AcDbLayerTableRecord
  2
LAYER_FEATURE
 70
0
 62
7
  6
CONTINUOUS
370
-3
390
F
  0
LAYER
  5
216
100
AcDbSymbolTableRecord
100
AcDbLayerTableRecord
  2
LAYER_GEOM_FEAT
 70
0
 62
7
  6
CONTINUOUS
370
-3
390
F
  0
LAYER
  5
217
100
AcDbSymbolTableRecord
100
AcDbLayerTableRecord
  2
LAYER_PARAMETER_DIM
 70
0
 62
7
  6
CONTINUOUS
370
-3
390
F
  0
LAYER
  5
218
100
AcDbSymbolTableRecord
100
AcDbLayerTableRecord
  2
LAYER_PROTRUSION_FEAT
 70
0
 62
7
  6
CONTINUOUS
370
-3
390
F
  0
LAYER
  5
219
100
AcDbSymbolTableRecord
100
AcDbLayerTableRecord
  2
LAYER_ROUND_FEAT
 70
0
 62
7
  6
CONTINUOUS
370
-3
390
F
  0
ENDTAB
  0
TABLE
  2
STYLE
  5
3
100
AcDbSymbolTable
 70
1
  0
STYLE
  5
11
100
AcDbSymbolTableRecord
100
AcDbTextStyleTableRecord
  2
STANDARD
 70
0
 40
0.0
 41
0.8
 50
0.0
 71
0
 42
0.2
  3
txt
  4

  0
STYLE
  5
21A
100
AcDbSymbolTableRecord
100
AcDbTextStyleTableRecord
  2
TEXTSTYLE_1
 70
0
 40
0.0
 41
0.8
 50
0.0
 71
0
 42
0.2
  3
gdt
  4

  0
ENDTAB
  0
TABLE
  2
VIEW
  5
6
100
AcDbSymbolTable
 70
0
  0
ENDTAB
  0
TABLE
  2
UCS
  5
7
100
AcDbSymbolTable
 70
0
  0
ENDTAB
  0
TABLE
  2
APPID
  5
9
100
AcDbSymbolTable
 70
1
  0
APPID
  5
21B
100
AcDbSymbolTableRecord
100
AcDbRegAppTableRecord
  2
ACAD
 70
0
  0
ENDTAB
  0
TABLE
  2
BLOCK_RECORD
  5
1
100
AcDbSymbolTable
 70
0
  0
BLOCK_RECORD
  5
21C
100
AcDbSymbolTableRecord
100
AcDbBlockTableRecord
  2
*Model_Space
  0
BLOCK_RECORD
  5
21D
100
AcDbSymbolTableRecord
100
AcDbBlockTableRecord
  2
*Paper_Space
  0
ENDTAB
  0
TABLE
  2
DIMSTYLE
  5
A
100
AcDbSymbolTable
 70
1
100
AcDbDimStyleTable
 71
0
  0
DIMSTYLE
105
21E
100
AcDbSymbolTableRecord
100
AcDbDimStyleTableRecord
  2
STANDARD
 70
0
  3

  4

 40
1.0
 41
0.1875
 42
0.0625
 43
0.38
 44
0.125
 45
0.0
 46
0.0
 47
0.0001
 48
0.0001
140
0.15625
141
0.09
142
0.0
143
25.4
144
1.0
145
0.0
146
1.0
147
0.09
 71
0.0
 72
0.0
 73
1
 74
1
 75
0
 76
0
 77
0
 78
4
 79
1
170
0
171
3
172
0
173
0
174
0
175
0
176
0
177
0
178
0
270
2
179
4
271
4
272
4
273
2
274
2
275
0
280
0
281
0
282
0
283
1
284
4
285
0
286
0
287
3
288
0
340
11
278
46
  0
ENDTAB
  0
ENDSEC
  0
SECTION
  2
BLOCKS
  0
BLOCK
  5
20
100
AcDbEntity
  8
0
100
AcDbBlockBegin
  2
*Model_Space
 70
0
 10
0.0
 20
0.0
 30
0.0
  3
*Model_Space
  1

  0
ENDBLK
  5
21
100
AcDbEntity
  8
0
100
AcDbBlockEnd
  0
BLOCK
  5
1C
100
AcDbEntity
  8
0
100
AcDbBlockBegin
  2
*Paper_Space
 70
0
 10
0.0
 20
0.0
 30
0.0
  3
*Paper_Space
  1

  0
ENDBLK
  5
1D
100
AcDbEntity
  8
0
100
AcDbBlockEnd
  0
ENDSEC
  0
SECTION
  2
ENTITIES
  0
MTEXT
  5
21F
100
AcDbEntity
  8
0
100
AcDbMText
 62
7
  6
CONTINUOUS
  7
STANDARD
 71
1
 72
1
 10
15.9560215477
 20
0.9479130325
 30
0.0
 11
1.0
 21
0.0
 31
0.0
 44
0.9
  1
SCALE: 1:0.500
 40
0.3
 41
3.36
  0
LINE
  5
220
100
AcDbEntity
  8
0
100
AcDbLine
 62
7
  6
CONTINUOUS
 10
0.0
 20
0.0
 11
0.0
 21
17.0
  0
LINE
  5
221
100
AcDbEntity
  8
0
100
AcDbLine
 62
7
  6
CONTINUOUS
 10
0.0
 20
0.0
 11
22.0
 21
0.0
  0
LINE
  5
222
100
AcDbEntity
  8
0
100
AcDbLine
 62
7
  6
CONTINUOUS
 10
0.0
 20
17.0
 11
22.0
 21
17.0
  0
LINE
  5
223
100
AcDbEntity
  8
0
100
AcDbLine
 62
7
  6
CONTINUOUS
 10
22.0
 20
0.0
 11
22.0
 21
17.0
  0
LINE
  5
224
100
AcDbEntity
  8
0
100
AcDbLine
 62
7
  6
CONTINUOUS
 10
3.9741172762
 20
5.6151198968
 11
3.9741172762
 21
5.5726198968
  0
LINE
  5
225
100
AcDbEntity
  8
0
100
AcDbLine
 62
7
  6
CONTINUOUS
 10
3.9741172762
 20
5.5726198968
 11
4.0187539689
 21
5.4250212328
  0
LINE
  5
226
100
AcDbEntity
  8
0
100
AcDbLine
 62
7
  6
CONTINUOUS
 10
4.2241172762
 20
5.5726198968
 11
4.2241172762
 21
5.5976198968
  0
LINE
  5
227
100
AcDbEntity
  8
LAYER_FEATURE
100
AcDbLine
 62
7
  6
CONTINUOUS
 10
4.2866172762
 20
5.5976198968
 11
4.2866172762
 21
5.5726198968
  0
LINE
  5
228
100
AcDbEntity
  8
0
100
AcDbLine
 62
7
  6
CONTINUOUS
 10
4.1794805834
 20
5.4250212328
 11
4.2241172762
 21
5.5726198968
  0
LINE
  5
229
100
AcDbEntity
  8
LAYER_FEATURE
100
AcDbLine
 62
7
  6
CONTINUOUS
 10
4.2866172762
 20
5.5726198968
 11
4.3312539689
 21
5.4250212328
  0
LINE
  5
22A
100
AcDbEntity
  8
LAYER_FEATURE
100
AcDbLine
 62
7
  6
CONTINUOUS
 10
4.5366172762
 20
5.5726198968
 11
4.5366172762
 21
5.5976198968
  0
LINE
  5
22B
100
AcDbEntity
  8
LAYER_FEATURE
100
AcDbLine
 62
7
  6
CONTINUOUS
 10
4.5991172762
 20
5.5976198968
 11
4.5991172762
 21
5.5726198968
  0
LINE
  5
22C
100
AcDbEntity
  8
LAYER_FEATURE
100
AcDbLine
 62
7
  6
CONTINUOUS
 10
4.4919805834
 20
5.4250212328
 11
4.5366172762
 21
5.5726198968
  0
LINE
  5
22D
100
AcDbEntity
  8
LAYER_FEATURE
100
AcDbLine
 62
7
  6
CONTINUOUS
 10
4.5991172762
 20
5.5726198968
 11
4.6437539689
 21
5.4250212328
  0
LINE
  5
22E
100
AcDbEntity
  8
LAYER_FEATURE
100
AcDbLine
 62
7
  6
CONTINUOUS
 10
4.8491172762
 20
5.5726198968
 11
4.8491172762
 21
5.5976198968
  0
LINE
  5
22F
100
AcDbEntity
  8
LAYER_FEATURE
100
AcDbLine
 62
7
  6
CONTINUOUS
 10
4.9116172762
 20
5.5976198968
 11
4.9116172762
 21
5.5726198968
  0
LINE
  5
230
100
AcDbEntity
  8
LAYER_FEATURE
100
AcDbLine
 62
7
  6
CONTINUOUS
 10
4.8044805834
 20
5.4250212328
 11
4.8491172762
 21
5.5726198968
  0
LINE
  5
231
100
AcDbEntity
  8
LAYER_FEATURE
100
AcDbLine
 62
7
  6
CONTINUOUS
 10
4.9116172762
 20
5.5726198968
 11
4.9562539689
 21
5.4250212328
  0
LINE
  5
232
100
AcDbEntity
  8
LAYER_FEATURE
100
AcDbLine
 62
7
  6
CONTINUOUS
 10
5.1616172762
 20
5.5726198968
 11
5.1616172762
 21
5.5976198968
  0
LINE
  5
233
100
AcDbEntity
  8
LAYER_FEATURE
100
AcDbLine
 62
7
  6
CONTINUOUS
 10
5.2241172762
 20
5.5976198968
 11
5.2241172762
 21
5.5726198968
  0
LINE
  5
234
100
AcDbEntity
  8
LAYER_FEATURE
100
AcDbLine
 62
7
  6
CONTINUOUS
 10
5.1169805834
 20
5.4250212328
 11
5.1616172762
 21
5.5726198968
  0
LINE
  5
235
100
AcDbEntity
  8
LAYER_FEATURE
100
AcDbLine
 62
7
  6
CONTINUOUS
 10
5.2241172762
 20
5.5726198968
 11
5.2687539689
 21
5.4250212328
  0
LINE
  5
236
100
AcDbEntity
  8
LAYER_FEATURE
100
AcDbLine
 62
7
  6
CONTINUOUS
 10
5.4741172762
 20
5.5726198968
 11
5.4741172762
 21
5.5976198968
  0
LINE
  5
237
100
AcDbEntity
  8
LAYER_FEATURE
100
AcDbLine
 62
7
  6
CONTINUOUS
 10
5.5366172762
 20
5.5976198968
 11
5.5366172762
 21
5.5726198968
  0
LINE
  5
238
100
AcDbEntity
  8
LAYER_FEATURE
100
AcDbLine
 62
7
  6
CONTINUOUS
 10
5.4294805834
 20
5.4250212328
 11
5.4741172762
 21
5.5726198968
  0
LINE
  5
239
100
AcDbEntity
  8
LAYER_FEATURE
100
AcDbLine
 62
7
  6
CONTINUOUS
 10
5.5366172762
 20
5.5726198968
 11
5.5812539689
 21
5.4250212328
  0
LINE
  5
23A
100
AcDbEntity
  8
LAYER_FEATURE
100
AcDbLine
 62
7
  6
CONTINUOUS
 10
5.7866172762
 20
5.5726198968
 11
5.7866172762
 21
5.5976198968
  0
LINE
  5
23B
100
AcDbEntity
  8
LAYER_FEATURE
100
AcDbLine
 62
7
  6
CONTINUOUS
 10
5.8491172762
 20
5.5976198968
 11
5.8491172762
 21
5.5726198968
  0
LINE
  5
23C
100
AcDbEntity
  8
LAYER_FEATURE
100
AcDbLine
 62
7
  6
CONTINUOUS
 10
5.7419805834
 20
5.4250212328
 11
5.7866172762
 21
5.5726198968
  0
LINE
  5
23D
100
AcDbEntity
  8
LAYER_FEATURE
100
AcDbLine
 62
7
  6
CONTINUOUS
 10
5.8491172762
 20
5.5726198968
 11
5.8937539689
 21
5.4250212328
  0
LINE
  5
23E
100
AcDbEntity
  8
LAYER_FEATURE
100
AcDbLine
 62
7
  6
CONTINUOUS
 10
6.0991172762
 20
5.5726198968
 11
6.0991172762
 21
5.5976198968
  0
LINE
  5
23F
100
AcDbEntity
  8
LAYER_FEATURE
100
AcDbLine
 62
7
  6
CONTINUOUS
 10
6.0544805834
 20
5.4250212328
 11
6.0991172762
 21
5.5726198968
  0
LINE
  5
240
100
AcDbEntity
  8
0
100
AcDbLine
 62
7
  6
CONTINUOUS
 10
4.0287246622
 20
5.4176198968
 11
4.1695098901
 21
5.4176198968
  0
LINE
  5
241
100
AcDbEntity
  8
LAYER_FEATURE
100
AcDbLine
 62
7
  6
CONTINUOUS
 10
4.3412246622
 20
5.4176198968
 11
4.4820098901
 21
5.4176198968
  0
LINE
  5
242
100
AcDbEntity
  8
LAYER_FEATURE
100
AcDbLine
 62
7
  6
CONTINUOUS
 10
4.6537246622
 20
5.4176198968
 11
4.7945098901
 21
5.4176198968
  0
LINE
  5
243
100
AcDbEntity
  8
LAYER_FEATURE
100
AcDbLine
 62
7
  6
CONTINUOUS
 10
4.9662246622
 20
5.4176198968
 11
5.1070098901
 21
5.4176198968
  0
LINE
  5
244
100
AcDbEntity
  8
LAYER_FEATURE
100
AcDbLine
 62
7
  6
CONTINUOUS
 10
5.2787246622
 20
5.4176198968
 11
5.4195098901
 21
5.4176198968
  0
LINE
  5
245
100
AcDbEntity
  8
LAYER_FEATURE
100
AcDbLine
 62
7
  6
CONTINUOUS
 10
5.5912246622
 20
5.4176198968
 11
5.7320098901
 21
5.4176198968
  0
LINE
  5
246
100
AcDbEntity
  8
LAYER_FEATURE
100
AcDbLine
 62
7
  6
CONTINUOUS
 10
5.9037246622
 20
5.4176198968
 11
6.0445098901
 21
5.4176198968
  0
LINE
  5
247
100
AcDbEntity
  8
LAYER_FEATURE
100
AcDbLine
 62
7
  6
CONTINUOUS
 10
6.2162246622
 20
5.4176198968
 11
6.3570098901
 21
5.4176198968
  0
LINE
  5
248
100
AcDbEntity
  8
LAYER_FEATURE
100
AcDbLine
 62
7
  6
CONTINUOUS
 10
6.5287246622
 20
5.4176198968
 11
6.6695098901
 21
5.4176198968
  0
LINE
  5
249
100
AcDbEntity
  8
LAYER_FEATURE
100
AcDbLine
 62
7
  6
CONTINUOUS
 10
6.8412246622
 20
5.4176198968
 11
6.9820098901
 21
5.4176198968
  0
LINE
  5
24A
100
AcDbEntity
  8
LAYER_FEATURE
100
AcDbLine
 62
7
  6
CONTINUOUS
 10
7.1537246622
 20
5.4176198968
 11
7.2945098901
 21
5.4176198968
  0
LINE
  5
24B
100
AcDbEntity
  8
LAYER_FEATURE
100
AcDbLine
 62
7
  6
CONTINUOUS
 10
7.4662246622
 20
5.4176198968
 11
7.6070098901
 21
5.4176198968
  0
LINE
  5
24C
100
AcDbEntity
  8
LAYER_FEATURE
100
AcDbLine
 62
7
  6
CONTINUOUS
 10
7.7787246622
 20
5.4176198968
 11
7.9195098901
 21
5.4176198968
  0
LINE
  5
24D
100
AcDbEntity
  8
LAYER_FEATURE
100
AcDbLine
 62
7
  6
CONTINUOUS
 10
8.0912246622
 20
5.4176198968
 11
8.2320098901
 21
5.4176198968
  0
LINE
  5
24E
100
AcDbEntity
  8
LAYER_FEATURE
100
AcDbLine
 62
7
  6
CONTINUOUS
 10
6.1616172762
 20
5.5976198968
 11
6.1616172762
 21
5.5726198968
  0
LINE
  5
24F
100
AcDbEntity
  8
LAYER_FEATURE
100
AcDbLine
 62
7
  6
CONTINUOUS
 10
4.2241172762
 20
5.5976198968
 11
4.2866172762
 21
5.5976198968
  0
LINE
  5
250
100
AcDbEntity
  8
LAYER_FEATURE
100
AcDbLine
 62
7
  6
CONTINUOUS
 10
4.5366172762
 20
5.5976198968
 11
4.5991172762
 21
5.5976198968
  0
LINE
  5
251
100
AcDbEntity
  8
LAYER_FEATURE
100
AcDbLine
 62
7
  6
CONTINUOUS
 10
4.8491172762
 20
5.5976198968
 11
4.9116172762
 21
5.5976198968
  0
LINE
  5
252
100
AcDbEntity
  8
LAYER_FEATURE
100
AcDbLine
 62
7
  6
CONTINUOUS
 10
5.1616172762
 20
5.5976198968
 11
5.2241172762
 21
5.5976198968
  0
LINE
  5
253
100
AcDbEntity
  8
LAYER_FEATURE
100
AcDbLine
 62
7
  6
CONTINUOUS
 10
5.4741172762
 20
5.5976198968
 11
5.5366172762
 21
5.5976198968
  0
LINE
  5
254
100
AcDbEntity
  8
LAYER_FEATURE
100
AcDbLine
 62
7
  6
CONTINUOUS
 10
5.7866172762
 20
5.5976198968
 11
5.8491172762
 21
5.5976198968
  0
LINE
  5
255
100
AcDbEntity
  8
LAYER_FEATURE
100
AcDbLine
 62
7
  6
CONTINUOUS
 10
6.0991172762
 20
5.5976198968
 11
6.1616172762
 21
5.5976198968
  0
LINE
  5
256
100
AcDbEntity
  8
LAYER_FEATURE
100
AcDbLine
 62
7
  6
CONTINUOUS
 10
6.4116172762
 20
5.5976198968
 11
6.4741172762
 21
5.5976198968
  0
LINE
  5
257
100
AcDbEntity
  8
LAYER_FEATURE
100
AcDbLine
 62
7
  6
CONTINUOUS
 10
6.7241172762
 20
5.5976198968
 11
6.7866172762
 21
5.5976198968
  0
LINE
  5
258
100
AcDbEntity
  8
LAYER_FEATURE
100
AcDbLine
 62
7
  6
CONTINUOUS
 10
7.0366172762
 20
5.5976198968
 11
7.0991172762
 21
5.5976198968
  0
LINE
  5
259
100
AcDbEntity
  8
LAYER_FEATURE
100
AcDbLine
 62
7
  6
CONTINUOUS
 10
7.3491172762
 20
5.5976198968
 11
7.4116172762
 21
5.5976198968
  0
LINE
  5
25A
100
AcDbEntity
  8
LAYER_FEATURE
100
AcDbLine
 62
7
  6
CONTINUOUS
 10
7.6616172762
 20
5.5976198968
 11
7.7241172762
 21
5.5976198968
  0
LINE
  5
25B
100
AcDbEntity
  8
LAYER_FEATURE
100
AcDbLine
 62
7
  6
CONTINUOUS
 10
7.9741172762
 20
5.5976198968
 11
8.0366172762
 21
5.5976198968
  0
LINE
  5
25C
100
AcDbEntity
  8
0
100
AcDbLine
 62
7
  6
CONTINUOUS
 10
8.2791172762
 20
5.6226198968
 11
3.9816172762
 21
5.6226198968
  0
LINE
  5
25D
100
AcDbEntity
  8
LAYER_FEATURE
100
AcDbLine
 62
7
  6
CONTINUOUS
 10
6.1616172762
 20
5.5726198968
 11
6.2062539689
 21
5.4250212328
  0
LINE
  5
25E
100
AcDbEntity
  8
LAYER_FEATURE
100
AcDbLine
 62
7
  6
CONTINUOUS
 10
6.4116172762
 20
5.5726198968
 11
6.4116172762
 21
5.5976198968
  0
LINE
  5
25F
100
AcDbEntity
  8
LAYER_FEATURE
100
AcDbLine
 62
7
  6
CONTINUOUS
 10
6.3669805834
 20
5.4250212328
 11
6.4116172762
 21
5.5726198968
  0
LINE
  5
260
100
AcDbEntity
  8
LAYER_FEATURE
100
AcDbLine
 62
7
  6
CONTINUOUS
 10
6.4741172762
 20
5.5976198968
 11
6.4741172762
 21
5.5726198968
  0
LINE
  5
261
100
AcDbEntity
  8
LAYER_FEATURE
100
AcDbLine
 62
7
  6
CONTINUOUS
 10
6.4741172762
 20
5.5726198968
 11
6.5187539689
 21
5.4250212328
  0
LINE
  5
262
100
AcDbEntity
  8
LAYER_FEATURE
100
AcDbLine
 62
7
  6
CONTINUOUS
 10
6.7241172762
 20
5.5726198968
 11
6.7241172762
 21
5.5976198968
  0
LINE
  5
263
100
AcDbEntity
  8
LAYER_FEATURE
100
AcDbLine
 62
7
  6
CONTINUOUS
 10
6.6794805834
 20
5.4250212328
 11
6.7241172762
 21
5.5726198968
  0
LINE
  5
264
100
AcDbEntity
  8
LAYER_FEATURE
100
AcDbLine
 62
7
  6
CONTINUOUS
 10
6.7866172762
 20
5.5976198968
 11
6.7866172762
 21
5.5726198968
  0
LINE
  5
265
100
AcDbEntity
  8
LAYER_FEATURE
100
AcDbLine
 62
7
  6
CONTINUOUS
 10
6.7866172762
 20
5.5726198968
 11
6.8312539689
 21
5.4250212328
  0
LINE
  5
266
100
AcDbEntity
  8
LAYER_FEATURE
100
AcDbLine
 62
7
  6
CONTINUOUS
 10
6.9919805834
 20
5.4250212328
 11
7.0366172762
 21
5.5726198968
  0
LINE
  5
267
100
AcDbEntity
  8
LAYER_FEATURE
100
AcDbLine
 62
7
  6
CONTINUOUS
 10
7.0366172762
 20
5.5726198968
 11
7.0366172762
 21
5.5976198968
  0
LINE
  5
268
100
AcDbEntity
  8
LAYER_FEATURE
100
AcDbLine
 62
7
  6
CONTINUOUS
 10
7.0991172762
 20
5.5976198968
 11
7.0991172762
 21
5.5726198968
  0
LINE
  5
269
100
AcDbEntity
  8
LAYER_FEATURE
100
AcDbLine
 62
7
  6
CONTINUOUS
 10
7.0991172762
 20
5.5726198968
 11
7.1437539689
 21
5.4250212328
  0
LINE
  5
26A
100
AcDbEntity
  8
LAYER_FEATURE
100
AcDbLine
 62
7
  6
CONTINUOUS
 10
7.3044805834
 20
5.4250212328
 11
7.3491172762
 21
5.5726198968
  0
LINE
  5
26B
100
AcDbEntity
  8
LAYER_FEATURE
100
AcDbLine
 62
7
  6
CONTINUOUS
 10
7.3491172762
 20
5.5726198968
 11
7.3491172762
 21
5.5976198968
  0
LINE
  5
26C
100
AcDbEntity
  8
LAYER_FEATURE
100
AcDbLine
 62
7
  6
CONTINUOUS
 10
7.4116172762
 20
5.5976198968
 11
7.4116172762
 21
5.5726198968
  0
LINE
  5
26D
100
AcDbEntity
  8
LAYER_FEATURE
100
AcDbLine
 62
7
  6
CONTINUOUS
 10
7.4116172762
 20
5.5726198968
 11
7.4562539689
 21
5.4250212328
  0
LINE
  5
26E
100
AcDbEntity
  8
LAYER_FEATURE
100
AcDbLine
 62
7
  6
CONTINUOUS
 10
7.6169805834
 20
5.4250212328
 11
7.6616172762
 21
5.5726198968
  0
LINE
  5
26F
100
AcDbEntity
  8
LAYER_FEATURE
100
AcDbLine
 62
7
  6
CONTINUOUS
 10
7.6616172762
 20
5.5726198968
 11
7.6616172762
 21
5.5976198968
  0
LINE
  5
270
100
AcDbEntity
  8
LAYER_FEATURE
100
AcDbLine
 62
7
  6
CONTINUOUS
 10
7.7241172762
 20
5.5976198968
 11
7.7241172762
 21
5.5726198968
  0
LINE
  5
271
100
AcDbEntity
  8
LAYER_FEATURE
100
AcDbLine
 62
7
  6
CONTINUOUS
 10
7.7241172762
 20
5.5726198968
 11
7.7687539689
 21
5.4250212328
  0
LINE
  5
272
100
AcDbEntity
  8
LAYER_FEATURE
100
AcDbLine
 62
7
  6
CONTINUOUS
 10
7.9741172762
 20
5.5726198968
 11
7.9741172762
 21
5.5976198968
  0
LINE
  5
273
100
AcDbEntity
  8
LAYER_FEATURE
100
AcDbLine
 62
7
  6
CONTINUOUS
 10
7.9294805834
 20
5.4250212328
 11
7.9741172762
 21
5.5726198968
  0
LINE
  5
274
100
AcDbEntity
  8
LAYER_FEATURE
100
AcDbLine
 62
7
  6
CONTINUOUS
 10
8.0366172762
 20
5.5726198968
 11
8.0812539689
 21
5.4250212328
  0
LINE
  5
275
100
AcDbEntity
  8
LAYER_FEATURE
100
AcDbLine
 62
7
  6
CONTINUOUS
 10
8.0366172762
 20
5.5976198968
 11
8.0366172762
 21
5.5726198968
  0
LINE
  5
276
100
AcDbEntity
  8
0
100
AcDbLine
 62
7
  6
CONTINUOUS
 10
8.2866172762
 20
5.5726198968
 11
8.2866172762
 21
5.6151198968
  0
LINE
  5
277
100
AcDbEntity
  8
LAYER_FEATURE
100
AcDbLine
 62
7
  6
CONTINUOUS
 10
8.2419805834
 20
5.4250212328
 11
8.2866172762
 21
5.5726198968
  0
LINE
  5
278
100
AcDbEntity
  8
0
100
AcDbLine
 62
7
  6
CONTINUOUS
 10
3.9146220839
 20
13.6000477814
 11
3.9146220839
 21
11.6000477814
  0
LINE
  5
279
100
AcDbEntity
  8
0
100
AcDbLine
 62
7
  6
CONTINUOUS
 10
8.2271220839
 20
11.6000477814
 11
3.9146220839
 21
11.6000477814
  0
LINE
  5
27A
100
AcDbEntity
  8
0
100
AcDbLine
 62
7
  6
CONTINUOUS
 10
3.9146220839
 20
13.6000477814
 11
8.2271220839
 21
13.6000477814
  0
LINE
  5
27B
100
AcDbEntity
  8
0
100
AcDbLine
 62
7
  6
CONTINUOUS
 10
8.2271220839
 20
11.6000477814
 11
8.2271220839
 21
13.6000477814
  0
LINE
  5
27C
100
AcDbEntity
  8
LAYER_FEATURE
100
AcDbLine
 62
7
  6
CONTINUOUS
 10
14.5603552569
 20
5.3581247044
 11
14.5603552569
 21
5.5131247044
  0
LINE
  5
27D
100
AcDbEntity
  8
0
100
AcDbLine
 62
7
  6
CONTINUOUS
 10
14.5603552569
 20
5.5131247044
 11
14.5603552569
 21
5.5631247044
  0
LINE
  5
27E
100
AcDbEntity
  8
LAYER_FEATURE
100
AcDbLine
 62
7
  6
CONTINUOUS
 10
14.5603552569
 20
5.3581247044
 11
16.5603552569
 21
5.3581247044
  0
LINE
  5
27F
100
AcDbEntity
  8
LAYER_FEATURE
100
AcDbLine
 62
7
  6
CONTINUOUS
 10
16.5603552569
 20
5.5131247044
 11
14.5603552569
 21
5.5131247044
  0
LINE
  5
280
100
AcDbEntity
  8
0
100
AcDbLine
 62
7
  6
CONTINUOUS
 10
14.5603552569
 20
5.5631247044
 11
16.5603552569
 21
5.5631247044
  0
LINE
  5
281
100
AcDbEntity
  8
0
100
AcDbLine
 62
7
  6
CONTINUOUS
 10
16.5603552569
 20
5.5631247044
 11
16.5603552569
 21
5.5131247044
  0
LINE
  5
282
100
AcDbEntity
  8
LAYER_FEATURE
100
AcDbLine
 62
7
  6
CONTINUOUS
 10
16.5603552569
 20
5.3581247044
 11
16.5603552569
 21
5.5131247044
  0
LINE
  5
283
100
AcDbEntity
  8
0
100
AcDbLine
 62
7
  6
CONTINUOUS
 10
13.2347461105
 20
11.7865310303
 11
13.2477103899
 21
11.7601126066
  0
LINE
  5
284
100
AcDbEntity
  8
0
100
AcDbLine
 62
7
  6
CONTINUOUS
 10
13.2477103899
 20
11.7601126066
 11
13.3338472784
 21
11.6683638058
  0
LINE
  5
285
100
AcDbEntity
  8
0
100
AcDbLine
 62
7
  6
CONTINUOUS
 10
13.4779756384
 20
11.7601126066
 11
13.4703495917
 21
11.7756528558
  0
LINE
  5
286
100
AcDbEntity
  8
LAYER_FEATURE
100
AcDbLine
 62
7
  6
CONTINUOUS
 10
13.5279159038
 20
11.7756528558
 11
13.5355419505
 21
11.7601126066
  0
LINE
  5
287
100
AcDbEntity
  8
0
100
AcDbLine
 62
7
  6
CONTINUOUS
 10
13.4818862938
 20
11.6683638058
 11
13.4779756384
 21
11.7601126066
  0
LINE
  5
288
100
AcDbEntity
  8
0
100
AcDbLine
 62
7
  6
CONTINUOUS
 10
13.7186210585
 20
13.3553992048
 11
13.2344884117
 21
11.7887453856
  0
LINE
  5
289
100
AcDbEntity
  8
LAYER_FEATURE
100
AcDbLine
 62
7
  6
CONTINUOUS
 10
13.5355419505
 20
11.7601126066
 11
13.621678839
 21
11.6683638058
  0
LINE
  5
28A
100
AcDbEntity
  8
LAYER_FEATURE
100
AcDbLine
 62
7
  6
CONTINUOUS
 10
13.7697178544
 20
11.6683638058
 11
13.765807199
 21
11.7601126066
  0
LINE
  5
28B
100
AcDbEntity
  8
0
100
AcDbLine
 62
7
  6
CONTINUOUS
 10
13.4817286667
 20
11.6671646664
 11
13.4818862938
 21
11.6683638058
  0
LINE
  5
28C
100
AcDbEntity
  8
LAYER_FEATURE
100
AcDbLine
 62
7
  6
CONTINUOUS
 10
13.765807199
 20
11.7601126066
 11
13.7581811523
 21
11.7756528558
  0
LINE
  5
28D
100
AcDbEntity
  8
LAYER_FEATURE
100
AcDbLine
 62
7
  6
CONTINUOUS
 10
13.8157474645
 20
11.7756528558
 11
13.8233735111
 21
11.7601126066
  0
LINE
  5
28E
100
AcDbEntity
  8
LAYER_FEATURE
100
AcDbLine
 62
7
  6
CONTINUOUS
 10
13.7695602273
 20
11.6671646664
 11
13.7697178544
 21
11.6683638058
  0
LINE
  5
28F
100
AcDbEntity
  8
0
100
AcDbLine
 62
7
  6
CONTINUOUS
 10
13.4827779386
 20
11.7756528558
 11
13.4779756384
 21
11.7601126066
  0
LINE
  5
290
100
AcDbEntity
  8
0
100
AcDbLine
 62
7
  6
CONTINUOUS
 10
13.4817351754
 20
11.6671626719
 11
13.5152611779
 21
11.7756528558
  0
LINE
  5
291
100
AcDbEntity
  8
LAYER_FEATURE
100
AcDbLine
 62
7
  6
CONTINUOUS
 10
13.8233735111
 20
11.7601126066
 11
13.9095103997
 21
11.6683638058
  0
LINE
  5
292
100
AcDbEntity
  8
LAYER_FEATURE
100
AcDbLine
 62
7
  6
CONTINUOUS
 10
14.0536387596
 20
11.7601126066
 11
14.046012713
 21
11.7756528558
  0
LINE
  5
293
100
AcDbEntity
  8
LAYER_FEATURE
100
AcDbLine
 62
7
  6
CONTINUOUS
 10
14.057549415
 20
11.6683638058
 11
14.0536387596
 21
11.7601126066
  0
LINE
  5
294
100
AcDbEntity
  8
LAYER_FEATURE
100
AcDbLine
 62
7
  6
CONTINUOUS
 10
14.1112050717
 20
11.7601126066
 11
14.1973419603
 21
11.6683638058
  0
LINE
  5
295
100
AcDbEntity
  8
LAYER_FEATURE
100
AcDbLine
 62
7
  6
CONTINUOUS
 10
14.1035790251
 20
11.7756528558
 11
14.1112050717
 21
11.7601126066
  0
LINE
  5
296
100
AcDbEntity
  8
LAYER_FEATURE
100
AcDbLine
 62
7
  6
CONTINUOUS
 10
14.057391788
 20
11.6671646664
 11
14.057549415
 21
11.6683638058
  0
LINE
  5
297
100
AcDbEntity
  8
LAYER_FEATURE
100
AcDbLine
 62
7
  6
CONTINUOUS
 10
13.7706094992
 20
11.7756528558
 11
13.765807199
 21
11.7601126066
  0
LINE
  5
298
100
AcDbEntity
  8
LAYER_FEATURE
100
AcDbLine
 62
7
  6
CONTINUOUS
 10
13.769566736
 20
11.6671626719
 11
13.8030927386
 21
11.7756528558
  0
LINE
  5
299
100
AcDbEntity
  8
LAYER_FEATURE
100
AcDbLine
 62
7
  6
CONTINUOUS
 10
14.3990366324
 20
11.7601126066
 11
14.4851735209
 21
11.6683638058
  0
LINE
  5
29A
100
AcDbEntity
  8
LAYER_FEATURE
100
AcDbLine
 62
7
  6
CONTINUOUS
 10
14.3414703202
 20
11.7601126066
 11
14.3338442736
 21
11.7756528558
  0
LINE
  5
29B
100
AcDbEntity
  8
LAYER_FEATURE
100
AcDbLine
 62
7
  6
CONTINUOUS
 10
14.3914105857
 20
11.7756528558
 11
14.3990366324
 21
11.7601126066
  0
LINE
  5
29C
100
AcDbEntity
  8
LAYER_FEATURE
100
AcDbLine
 62
7
  6
CONTINUOUS
 10
14.3453809756
 20
11.6683638058
 11
14.3414703202
 21
11.7601126066
  0
LINE
  5
29D
100
AcDbEntity
  8
LAYER_FEATURE
100
AcDbLine
 62
7
  6
CONTINUOUS
 10
14.0584410598
 20
11.7756528558
 11
14.0536387596
 21
11.7601126066
  0
LINE
  5
29E
100
AcDbEntity
  8
LAYER_FEATURE
100
AcDbLine
 62
7
  6
CONTINUOUS
 10
14.0573982967
 20
11.6671626719
 11
14.0909242992
 21
11.7756528558
  0
LINE
  5
29F
100
AcDbEntity
  8
LAYER_FEATURE
100
AcDbLine
 62
7
  6
CONTINUOUS
 10
14.3452233486
 20
11.6671646664
 11
14.3453809756
 21
11.6683638058
  0
LINE
  5
2A0
100
AcDbEntity
  8
LAYER_FEATURE
100
AcDbLine
 62
7
  6
CONTINUOUS
 10
14.686868193
 20
11.7601126066
 11
14.7730050815
 21
11.6683638058
  0
LINE
  5
2A1
100
AcDbEntity
  8
LAYER_FEATURE
100
AcDbLine
 62
7
  6
CONTINUOUS
 10
14.6293018809
 20
11.7601126066
 11
14.6216758342
 21
11.7756528558
  0
LINE
  5
2A2
100
AcDbEntity
  8
LAYER_FEATURE
100
AcDbLine
 62
7
  6
CONTINUOUS
 10
14.6792421463
 20
11.7756528558
 11
14.686868193
 21
11.7601126066
  0
LINE
  5
2A3
100
AcDbEntity
  8
LAYER_FEATURE
100
AcDbLine
 62
7
  6
CONTINUOUS
 10
14.6332125363
 20
11.6683638058
 11
14.6293018809
 21
11.7601126066
  0
LINE
  5
2A4
100
AcDbEntity
  8
LAYER_FEATURE
100
AcDbLine
 62
7
  6
CONTINUOUS
 10
14.3462726205
 20
11.7756528558
 11
14.3414703202
 21
11.7601126066
  0
LINE
  5
2A5
100
AcDbEntity
  8
LAYER_FEATURE
100
AcDbLine
 62
7
  6
CONTINUOUS
 10
14.3452298573
 20
11.6671626719
 11
14.3787558598
 21
11.7756528558
  0
LINE
  5
2A6
100
AcDbEntity
  8
0
100
AcDbLine
 62
7
  6
CONTINUOUS
 10
13.3452886125
 20
11.6637630615
 11
13.4749603944
 21
11.6637630615
  0
LINE
  5
2A7
100
AcDbEntity
  8
LAYER_FEATURE
100
AcDbLine
 62
7
  6
CONTINUOUS
 10
13.6331201731
 20
11.6637630615
 11
13.762791955
 21
11.6637630615
  0
LINE
  5
2A8
100
AcDbEntity
  8
LAYER_FEATURE
100
AcDbLine
 62
7
  6
CONTINUOUS
 10
13.9209517337
 20
11.6637630615
 11
14.0506235157
 21
11.6637630615
  0
LINE
  5
2A9
100
AcDbEntity
  8
LAYER_FEATURE
100
AcDbLine
 62
7
  6
CONTINUOUS
 10
14.2087832944
 20
11.6637630615
 11
14.3384550763
 21
11.6637630615
  0
LINE
  5
2AA
100
AcDbEntity
  8
LAYER_FEATURE
100
AcDbLine
 62
7
  6
CONTINUOUS
 10
14.496614855
 20
11.6637630615
 11
14.6262866369
 21
11.6637630615
  0
LINE
  5
2AB
100
AcDbEntity
  8
LAYER_FEATURE
100
AcDbLine
 62
7
  6
CONTINUOUS
 10
14.7844464156
 20
11.6637630615
 11
14.9141181975
 21
11.6637630615
  0
LINE
  5
2AC
100
AcDbEntity
  8
LAYER_FEATURE
100
AcDbLine
 62
7
  6
CONTINUOUS
 10
15.0722779762
 20
11.6637630615
 11
15.2019497582
 21
11.6637630615
  0
LINE
  5
2AD
100
AcDbEntity
  8
LAYER_FEATURE
100
AcDbLine
 62
7
  6
CONTINUOUS
 10
15.3601095369
 20
11.6637630615
 11
15.4897813188
 21
11.6637630615
  0
LINE
  5
2AE
100
AcDbEntity
  8
LAYER_FEATURE
100
AcDbLine
 62
7
  6
CONTINUOUS
 10
15.6479410975
 20
11.6637630615
 11
15.7776128794
 21
11.6637630615
  0
LINE
  5
2AF
100
AcDbEntity
  8
LAYER_FEATURE
100
AcDbLine
 62
7
  6
CONTINUOUS
 10
15.9357726581
 20
11.6637630615
 11
16.06544444
 21
11.6637630615
  0
LINE
  5
2B0
100
AcDbEntity
  8
LAYER_FEATURE
100
AcDbLine
 62
7
  6
CONTINUOUS
 10
16.2236042187
 20
11.6637630615
 11
16.3532760007
 21
11.6637630615
  0
LINE
  5
2B1
100
AcDbEntity
  8
LAYER_FEATURE
100
AcDbLine
 62
7
  6
CONTINUOUS
 10
16.5114357794
 20
11.6637630615
 11
16.6411075613
 21
11.6637630615
  0
LINE
  5
2B2
100
AcDbEntity
  8
LAYER_FEATURE
100
AcDbLine
 62
7
  6
CONTINUOUS
 10
16.79926734
 20
11.6637630615
 11
16.9289391219
 21
11.6637630615
  0
LINE
  5
2B3
100
AcDbEntity
  8
LAYER_FEATURE
100
AcDbLine
 62
7
  6
CONTINUOUS
 10
17.0870989006
 20
11.6637630615
 11
17.2167706825
 21
11.6637630615
  0
LINE
  5
2B4
100
AcDbEntity
  8
LAYER_FEATURE
100
AcDbLine
 62
7
  6
CONTINUOUS
 10
14.9746997536
 20
11.7601126066
 11
15.0608366422
 21
11.6683638058
  0
LINE
  5
2B5
100
AcDbEntity
  8
LAYER_FEATURE
100
AcDbLine
 62
7
  6
CONTINUOUS
 10
14.9171334415
 20
11.7601126066
 11
14.9095073948
 21
11.7756528558
  0
LINE
  5
2B6
100
AcDbEntity
  8
LAYER_FEATURE
100
AcDbLine
 62
7
  6
CONTINUOUS
 10
14.967073707
 20
11.7756528558
 11
14.9746997536
 21
11.7601126066
  0
LINE
  5
2B7
100
AcDbEntity
  8
LAYER_FEATURE
100
AcDbLine
 62
7
  6
CONTINUOUS
 10
14.6330549092
 20
11.6671646664
 11
14.6332125363
 21
11.6683638058
  0
LINE
  5
2B8
100
AcDbEntity
  8
LAYER_FEATURE
100
AcDbLine
 62
7
  6
CONTINUOUS
 10
13.4703495917
 20
11.7756528558
 11
13.5279159038
 21
11.7756528558
  0
LINE
  5
2B9
100
AcDbEntity
  8
LAYER_FEATURE
100
AcDbLine
 62
7
  6
CONTINUOUS
 10
13.7581811523
 20
11.7756528558
 11
13.8157474645
 21
11.7756528558
  0
LINE
  5
2BA
100
AcDbEntity
  8
LAYER_FEATURE
100
AcDbLine
 62
7
  6
CONTINUOUS
 10
14.046012713
 20
11.7756528558
 11
14.1035790251
 21
11.7756528558
  0
LINE
  5
2BB
100
AcDbEntity
  8
LAYER_FEATURE
100
AcDbLine
 62
7
  6
CONTINUOUS
 10
14.3338442736
 20
11.7756528558
 11
14.3914105857
 21
11.7756528558
  0
LINE
  5
2BC
100
AcDbEntity
  8
LAYER_FEATURE
100
AcDbLine
 62
7
  6
CONTINUOUS
 10
14.6216758342
 20
11.7756528558
 11
14.6792421463
 21
11.7756528558
  0
LINE
  5
2BD
100
AcDbEntity
  8
LAYER_FEATURE
100
AcDbLine
 62
7
  6
CONTINUOUS
 10
14.9095073948
 20
11.7756528558
 11
14.967073707
 21
11.7756528558
  0
LINE
  5
2BE
100
AcDbEntity
  8
LAYER_FEATURE
100
AcDbLine
 62
7
  6
CONTINUOUS
 10
15.1973389555
 20
11.7756528558
 11
15.2549052676
 21
11.7756528558
  0
LINE
  5
2BF
100
AcDbEntity
  8
LAYER_FEATURE
100
AcDbLine
 62
7
  6
CONTINUOUS
 10
15.4851705161
 20
11.7756528558
 11
15.5427368282
 21
11.7756528558
  0
LINE
  5
2C0
100
AcDbEntity
  8
LAYER_FEATURE
100
AcDbLine
 62
7
  6
CONTINUOUS
 10
15.7730020767
 20
11.7756528558
 11
15.8305683888
 21
11.7756528558
  0
LINE
  5
2C1
100
AcDbEntity
  8
LAYER_FEATURE
100
AcDbLine
 62
7
  6
CONTINUOUS
 10
16.0608336373
 20
11.7756528558
 11
16.1183999495
 21
11.7756528558
  0
LINE
  5
2C2
100
AcDbEntity
  8
LAYER_FEATURE
100
AcDbLine
 62
7
  6
CONTINUOUS
 10
16.348665198
 20
11.7756528558
 11
16.4062315101
 21
11.7756528558
  0
LINE
  5
2C3
100
AcDbEntity
  8
LAYER_FEATURE
100
AcDbLine
 62
7
  6
CONTINUOUS
 10
16.6364967586
 20
11.7756528558
 11
16.6940630707
 21
11.7756528558
  0
LINE
  5
2C4
100
AcDbEntity
  8
LAYER_FEATURE
100
AcDbLine
 62
7
  6
CONTINUOUS
 10
16.9243283192
 20
11.7756528558
 11
16.9818946313
 21
11.7756528558
  0
LINE
  5
2C5
100
AcDbEntity
  8
0
100
AcDbLine
 62
7
  6
CONTINUOUS
 10
17.1976258757
 20
11.791193105
 11
13.239366254
 21
11.791193105
  0
LINE
  5
2C6
100
AcDbEntity
  8
LAYER_FEATURE
100
AcDbLine
 62
7
  6
CONTINUOUS
 10
15.2625313142
 20
11.7601126066
 11
15.3486682028
 21
11.6683638058
  0
LINE
  5
2C7
100
AcDbEntity
  8
LAYER_FEATURE
100
AcDbLine
 62
7
  6
CONTINUOUS
 10
14.9210440969
 20
11.6683638058
 11
14.9171334415
 21
11.7601126066
  0
LINE
  5
2C8
100
AcDbEntity
  8
LAYER_FEATURE
100
AcDbLine
 62
7
  6
CONTINUOUS
 10
14.6341041811
 20
11.7756528558
 11
14.6293018809
 21
11.7601126066
  0
LINE
  5
2C9
100
AcDbEntity
  8
LAYER_FEATURE
100
AcDbLine
 62
7
  6
CONTINUOUS
 10
14.6330614179
 20
11.6671626719
 11
14.6665874204
 21
11.7756528558
  0
LINE
  5
2CA
100
AcDbEntity
  8
LAYER_FEATURE
100
AcDbLine
 62
7
  6
CONTINUOUS
 10
15.2049650021
 20
11.7601126066
 11
15.1973389555
 21
11.7756528558
  0
LINE
  5
2CB
100
AcDbEntity
  8
LAYER_FEATURE
100
AcDbLine
 62
7
  6
CONTINUOUS
 10
15.2549052676
 20
11.7756528558
 11
15.2625313142
 21
11.7601126066
  0
LINE
  5
2CC
100
AcDbEntity
  8
LAYER_FEATURE
100
AcDbLine
 62
7
  6
CONTINUOUS
 10
15.2088756575
 20
11.6683638058
 11
15.2049650021
 21
11.7601126066
  0
LINE
  5
2CD
100
AcDbEntity
  8
LAYER_FEATURE
100
AcDbLine
 62
7
  6
CONTINUOUS
 10
14.9208864699
 20
11.6671646664
 11
14.9210440969
 21
11.6683638058
  0
LINE
  5
2CE
100
AcDbEntity
  8
LAYER_FEATURE
100
AcDbLine
 62
7
  6
CONTINUOUS
 10
14.9219357417
 20
11.7756528558
 11
14.9171334415
 21
11.7601126066
  0
LINE
  5
2CF
100
AcDbEntity
  8
LAYER_FEATURE
100
AcDbLine
 62
7
  6
CONTINUOUS
 10
15.5503628749
 20
11.7601126066
 11
15.6364997634
 21
11.6683638058
  0
LINE
  5
2D0
100
AcDbEntity
  8
LAYER_FEATURE
100
AcDbLine
 62
7
  6
CONTINUOUS
 10
15.4927965627
 20
11.7601126066
 11
15.4851705161
 21
11.7756528558
  0
LINE
  5
2D1
100
AcDbEntity
  8
LAYER_FEATURE
100
AcDbLine
 62
7
  6
CONTINUOUS
 10
15.2087251361
 20
11.6671624878
 11
15.2088756575
 21
11.6683638058
  0
LINE
  5
2D2
100
AcDbEntity
  8
LAYER_FEATURE
100
AcDbLine
 62
7
  6
CONTINUOUS
 10
14.9208929785
 20
11.6671626719
 11
14.9544189811
 21
11.7756528558
  0
LINE
  5
2D3
100
AcDbEntity
  8
LAYER_FEATURE
100
AcDbLine
 62
7
  6
CONTINUOUS
 10
15.8381944355
 20
11.7601126066
 11
15.9243313241
 21
11.6683638058
  0
LINE
  5
2D4
100
AcDbEntity
  8
LAYER_FEATURE
100
AcDbLine
 62
7
  6
CONTINUOUS
 10
15.5427368282
 20
11.7756528558
 11
15.5503628749
 21
11.7601126066
  0
LINE
  5
2D5
100
AcDbEntity
  8
LAYER_FEATURE
100
AcDbLine
 62
7
  6
CONTINUOUS
 10
15.4967072181
 20
11.6683638058
 11
15.4927965627
 21
11.7601126066
  0
LINE
  5
2D6
100
AcDbEntity
  8
LAYER_FEATURE
100
AcDbLine
 62
7
  6
CONTINUOUS
 10
15.2097673023
 20
11.7756528558
 11
15.2049650021
 21
11.7601126066
  0
LINE
  5
2D7
100
AcDbEntity
  8
LAYER_FEATURE
100
AcDbLine
 62
7
  6
CONTINUOUS
 10
15.2087245392
 20
11.6671626719
 11
15.2422505417
 21
11.7756528558
  0
LINE
  5
2D8
100
AcDbEntity
  8
LAYER_FEATURE
100
AcDbLine
 62
7
  6
CONTINUOUS
 10
16.1260259961
 20
11.7601126066
 11
16.2121628847
 21
11.6683638058
  0
LINE
  5
2D9
100
AcDbEntity
  8
LAYER_FEATURE
100
AcDbLine
 62
7
  6
CONTINUOUS
 10
15.7806281234
 20
11.7601126066
 11
15.7730020767
 21
11.7756528558
  0
LINE
  5
2DA
100
AcDbEntity
  8
LAYER_FEATURE
100
AcDbLine
 62
7
  6
CONTINUOUS
 10
15.8305683888
 20
11.7756528558
 11
15.8381944355
 21
11.7601126066
  0
LINE
  5
2DB
100
AcDbEntity
  8
LAYER_FEATURE
100
AcDbLine
 62
7
  6
CONTINUOUS
 10
15.4965495911
 20
11.6671646664
 11
15.4967072181
 21
11.6683638058
  0
LINE
  5
2DC
100
AcDbEntity
  8
LAYER_FEATURE
100
AcDbLine
 62
7
  6
CONTINUOUS
 10
16.4138575568
 20
11.7601126066
 11
16.4999944453
 21
11.6683638058
  0
LINE
  5
2DD
100
AcDbEntity
  8
LAYER_FEATURE
100
AcDbLine
 62
7
  6
CONTINUOUS
 10
15.7845387788
 20
11.6683638058
 11
15.7806281234
 21
11.7601126066
  0
LINE
  5
2DE
100
AcDbEntity
  8
LAYER_FEATURE
100
AcDbLine
 62
7
  6
CONTINUOUS
 10
15.497598863
 20
11.7756528558
 11
15.4927965627
 21
11.7601126066
  0
LINE
  5
2DF
100
AcDbEntity
  8
LAYER_FEATURE
100
AcDbLine
 62
7
  6
CONTINUOUS
 10
15.4965560998
 20
11.6671626719
 11
15.5300821023
 21
11.7756528558
  0
LINE
  5
2E0
100
AcDbEntity
  8
LAYER_FEATURE
100
AcDbLine
 62
7
  6
CONTINUOUS
 10
16.068459684
 20
11.7601126066
 11
16.0608336373
 21
11.7756528558
  0
LINE
  5
2E1
100
AcDbEntity
  8
LAYER_FEATURE
100
AcDbLine
 62
7
  6
CONTINUOUS
 10
16.1183999495
 20
11.7756528558
 11
16.1260259961
 21
11.7601126066
  0
LINE
  5
2E2
100
AcDbEntity
  8
LAYER_FEATURE
100
AcDbLine
 62
7
  6
CONTINUOUS
 10
15.7843811517
 20
11.6671646664
 11
15.7845387788
 21
11.6683638058
  0
LINE
  5
2E3
100
AcDbEntity
  8
LAYER_FEATURE
100
AcDbLine
 62
7
  6
CONTINUOUS
 10
16.7016891174
 20
11.7601126066
 11
16.7878260059
 21
11.6683638058
  0
LINE
  5
2E4
100
AcDbEntity
  8
LAYER_FEATURE
100
AcDbLine
 62
7
  6
CONTINUOUS
 10
16.3562912446
 20
11.7601126066
 11
16.348665198
 21
11.7756528558
  0
LINE
  5
2E5
100
AcDbEntity
  8
LAYER_FEATURE
100
AcDbLine
 62
7
  6
CONTINUOUS
 10
16.0723703394
 20
11.6683638058
 11
16.068459684
 21
11.7601126066
  0
LINE
  5
2E6
100
AcDbEntity
  8
LAYER_FEATURE
100
AcDbLine
 62
7
  6
CONTINUOUS
 10
15.7854304236
 20
11.7756528558
 11
15.7806281234
 21
11.7601126066
  0
LINE
  5
2E7
100
AcDbEntity
  8
LAYER_FEATURE
100
AcDbLine
 62
7
  6
CONTINUOUS
 10
15.7843876604
 20
11.6671626719
 11
15.8179136629
 21
11.7756528558
  0
LINE
  5
2E8
100
AcDbEntity
  8
LAYER_FEATURE
100
AcDbLine
 62
7
  6
CONTINUOUS
 10
16.989520678
 20
11.7601126066
 11
17.0756575666
 21
11.6683638058
  0
LINE
  5
2E9
100
AcDbEntity
  8
LAYER_FEATURE
100
AcDbLine
 62
7
  6
CONTINUOUS
 10
16.4062315101
 20
11.7756528558
 11
16.4138575568
 21
11.7601126066
  0
LINE
  5
2EA
100
AcDbEntity
  8
LAYER_FEATURE
100
AcDbLine
 62
7
  6
CONTINUOUS
 10
16.0722127124
 20
11.6671646664
 11
16.0723703394
 21
11.6683638058
  0
LINE
  5
2EB
100
AcDbEntity
  8
LAYER_FEATURE
100
AcDbLine
 62
7
  6
CONTINUOUS
 10
16.0732619842
 20
11.7756528558
 11
16.068459684
 21
11.7601126066
  0
LINE
  5
2EC
100
AcDbEntity
  8
LAYER_FEATURE
100
AcDbLine
 62
7
  6
CONTINUOUS
 10
16.6441228053
 20
11.7601126066
 11
16.6364967586
 21
11.7756528558
  0
LINE
  5
2ED
100
AcDbEntity
  8
LAYER_FEATURE
100
AcDbLine
 62
7
  6
CONTINUOUS
 10
16.6940630707
 20
11.7756528558
 11
16.7016891174
 21
11.7601126066
  0
LINE
  5
2EE
100
AcDbEntity
  8
LAYER_FEATURE
100
AcDbLine
 62
7
  6
CONTINUOUS
 10
16.3602019
 20
11.6683638058
 11
16.3562912446
 21
11.7601126066
  0
LINE
  5
2EF
100
AcDbEntity
  8
LAYER_FEATURE
100
AcDbLine
 62
7
  6
CONTINUOUS
 10
16.0722192211
 20
11.6671626719
 11
16.1057452236
 21
11.7756528558
  0
LINE
  5
2F0
100
AcDbEntity
  8
0
100
AcDbLine
 62
7
  6
CONTINUOUS
 10
13.7234989008
 20
13.3578469243
 11
17.6817585225
 21
13.3578469243
  0
LINE
  5
2F1
100
AcDbEntity
  8
LAYER_FEATURE
100
AcDbLine
 62
7
  6
CONTINUOUS
 10
16.360044273
 20
11.6671646664
 11
16.3602019
 21
11.6683638058
  0
LINE
  5
2F2
100
AcDbEntity
  8
LAYER_FEATURE
100
AcDbLine
 62
7
  6
CONTINUOUS
 10
16.3610935448
 20
11.7756528558
 11
16.3562912446
 21
11.7601126066
  0
LINE
  5
2F3
100
AcDbEntity
  8
LAYER_FEATURE
100
AcDbLine
 62
7
  6
CONTINUOUS
 10
16.3600507817
 20
11.6671626719
 11
16.3935767842
 21
11.7756528558
  0
LINE
  5
2F4
100
AcDbEntity
  8
LAYER_FEATURE
100
AcDbLine
 62
7
  6
CONTINUOUS
 10
16.9319543659
 20
11.7601126066
 11
16.9243283192
 21
11.7756528558
  0
LINE
  5
2F5
100
AcDbEntity
  8
LAYER_FEATURE
100
AcDbLine
 62
7
  6
CONTINUOUS
 10
16.9818946313
 20
11.7756528558
 11
16.989520678
 21
11.7601126066
  0
LINE
  5
2F6
100
AcDbEntity
  8
LAYER_FEATURE
100
AcDbLine
 62
7
  6
CONTINUOUS
 10
16.6480334606
 20
11.6683638058
 11
16.6441228053
 21
11.7601126066
  0
LINE
  5
2F7
100
AcDbEntity
  8
LAYER_FEATURE
100
AcDbLine
 62
7
  6
CONTINUOUS
 10
16.6478758336
 20
11.6671646664
 11
16.6480334606
 21
11.6683638058
  0
LINE
  5
2F8
100
AcDbEntity
  8
0
100
AcDbLine
 62
7
  6
CONTINUOUS
 10
17.2197859265
 20
11.7601126066
 11
17.2068216472
 21
11.7865310303
  0
LINE
  5
2F9
100
AcDbEntity
  8
LAYER_FEATURE
100
AcDbLine
 62
7
  6
CONTINUOUS
 10
16.9358650213
 20
11.6683638058
 11
16.9319543659
 21
11.7601126066
  0
LINE
  5
2FA
100
AcDbEntity
  8
LAYER_FEATURE
100
AcDbLine
 62
7
  6
CONTINUOUS
 10
16.6489251055
 20
11.7756528558
 11
16.6441228053
 21
11.7601126066
  0
LINE
  5
2FB
100
AcDbEntity
  8
LAYER_FEATURE
100
AcDbLine
 62
7
  6
CONTINUOUS
 10
16.6478823423
 20
11.6671626719
 11
16.6814083448
 21
11.7756528558
  0
LINE
  5
2FC
100
AcDbEntity
  8
LAYER_FEATURE
100
AcDbLine
 62
7
  6
CONTINUOUS
 10
16.9357073942
 20
11.6671646664
 11
16.9358650213
 21
11.6683638058
  0
LINE
  5
2FD
100
AcDbEntity
  8
LAYER_FEATURE
100
AcDbLine
 62
7
  6
CONTINUOUS
 10
17.2236965819
 20
11.6683638058
 11
17.2197859265
 21
11.7601126066
  0
LINE
  5
2FE
100
AcDbEntity
  8
LAYER_FEATURE
100
AcDbLine
 62
7
  6
CONTINUOUS
 10
16.9367566661
 20
11.7756528558
 11
16.9319543659
 21
11.7601126066
  0
LINE
  5
2FF
100
AcDbEntity
  8
LAYER_FEATURE
100
AcDbLine
 62
7
  6
CONTINUOUS
 10
16.9357139029
 20
11.6671626719
 11
16.9692399054
 21
11.7756528558
  0
LINE
  5
300
100
AcDbEntity
  8
LAYER_FEATURE
100
AcDbLine
 62
7
  6
CONTINUOUS
 10
17.2235389549
 20
11.6671646664
 11
17.2236965819
 21
11.6683638058
  0
LINE
  5
301
100
AcDbEntity
  8
LAYER_FEATURE
100
AcDbLine
 62
7
  6
CONTINUOUS
 10
17.7039185733
 20
13.3267664259
 11
17.2197859265
 21
11.7601126066
  0
LINE
  5
302
100
AcDbEntity
  8
LAYER_FEATURE
100
AcDbLine
 62
7
  6
CONTINUOUS
 10
17.2235454636
 20
11.6671626719
 11
17.7076781104
 21
13.2338164912
  0
LINE
  5
303
100
AcDbEntity
  8
LAYER_FEATURE
100
AcDbLine
 62
7
  6
CONTINUOUS
 10
17.7078292287
 20
13.235017625
 11
17.7039185733
 21
13.3267664259
  0
LINE
  5
304
100
AcDbEntity
  8
LAYER_FEATURE
100
AcDbLine
 62
7
  6
CONTINUOUS
 10
17.7078292287
 20
13.235017625
 11
17.7076716017
 21
13.2338184856
  0
LINE
  5
305
100
AcDbEntity
  8
0
100
AcDbLine
 62
7
  6
CONTINUOUS
 10
17.690954294
 20
13.3531848495
 11
17.7039185733
 21
13.3267664259
  0
ARC
  5
306
100
AcDbEntity
  8
0
100
AcDbCircle
 62
7
  6
CONTINUOUS
 10
4.0287246622
 20
5.4280365634
 40
0.0104166667
100
AcDbArc
 50
196.8263326308
 51
270.0
  0
ARC
  5
307
100
AcDbEntity
  8
0
100
AcDbCircle
 62
7
  6
CONTINUOUS
 10
4.1695098901
 20
5.4280365634
 40
0.0104166667
100
AcDbArc
 50
270.0
 51
343.1736673692
  0
ARC
  5
308
100
AcDbEntity
  8
LAYER_FEATURE
100
AcDbCircle
 62
7
  6
CONTINUOUS
 10
4.3412246622
 20
5.4280365634
 40
0.0104166667
100
AcDbArc
 50
196.8263326308
 51
270.0
  0
ARC
  5
309
100
AcDbEntity
  8
LAYER_FEATURE
100
AcDbCircle
 62
7
  6
CONTINUOUS
 10
4.4820098901
 20
5.4280365634
 40
0.0104166667
100
AcDbArc
 50
270.0
 51
343.1736673692
  0
ARC
  5
30A
100
AcDbEntity
  8
LAYER_FEATURE
100
AcDbCircle
 62
7
  6
CONTINUOUS
 10
4.6537246622
 20
5.4280365634
 40
0.0104166667
100
AcDbArc
 50
196.8263326308
 51
270.0
  0
ARC
  5
30B
100
AcDbEntity
  8
LAYER_FEATURE
100
AcDbCircle
 62
7
  6
CONTINUOUS
 10
4.7945098901
 20
5.4280365634
 40
0.0104166667
100
AcDbArc
 50
270.0
 51
343.1736673692
  0
ARC
  5
30C
100
AcDbEntity
  8
LAYER_FEATURE
100
AcDbCircle
 62
7
  6
CONTINUOUS
 10
4.9662246622
 20
5.4280365634
 40
0.0104166667
100
AcDbArc
 50
196.8263326308
 51
270.0
  0
ARC
  5
30D
100
AcDbEntity
  8
LAYER_FEATURE
100
AcDbCircle
 62
7
  6
CONTINUOUS
 10
5.1070098901
 20
5.4280365634
 40
0.0104166667
100
AcDbArc
 50
270.0
 51
343.1736673692
  0
ARC
  5
30E
100
AcDbEntity
  8
LAYER_FEATURE
100
AcDbCircle
 62
7
  6
CONTINUOUS
 10
5.2787246622
 20
5.4280365634
 40
0.0104166667
100
AcDbArc
 50
196.8263326308
 51
270.0
  0
ARC
  5
30F
100
AcDbEntity
  8
LAYER_FEATURE
100
AcDbCircle
 62
7
  6
CONTINUOUS
 10
5.4195098901
 20
5.4280365634
 40
0.0104166667
100
AcDbArc
 50
270.0
 51
343.1736673692
  0
ARC
  5
310
100
AcDbEntity
  8
LAYER_FEATURE
100
AcDbCircle
 62
7
  6
CONTINUOUS
 10
5.5912246622
 20
5.4280365634
 40
0.0104166667
100
AcDbArc
 50
196.8263326308
 51
270.0
  0
ARC
  5
311
100
AcDbEntity
  8
LAYER_FEATURE
100
AcDbCircle
 62
7
  6
CONTINUOUS
 10
5.7320098901
 20
5.4280365634
 40
0.0104166667
100
AcDbArc
 50
270.0
 51
343.1736673692
  0
ARC
  5
312
100
AcDbEntity
  8
LAYER_FEATURE
100
AcDbCircle
 62
7
  6
CONTINUOUS
 10
5.9037246622
 20
5.4280365634
 40
0.0104166667
100
AcDbArc
 50
196.8263326308
 51
270.0
  0
ARC
  5
313
100
AcDbEntity
  8
LAYER_FEATURE
100
AcDbCircle
 62
7
  6
CONTINUOUS
 10
6.0445098901
 20
5.4280365634
 40
0.0104166667
100
AcDbArc
 50
270.0
 51
343.1736673692
  0
ARC
  5
314
100
AcDbEntity
  8
LAYER_FEATURE
100
AcDbCircle
 62
7
  6
CONTINUOUS
 10
6.2162246622
 20
5.4280365634
 40
0.0104166667
100
AcDbArc
 50
196.8263326308
 51
270.0
  0
ARC
  5
315
100
AcDbEntity
  8
LAYER_FEATURE
100
AcDbCircle
 62
7
  6
CONTINUOUS
 10
6.3570098901
 20
5.4280365634
 40
0.0104166667
100
AcDbArc
 50
270.0
 51
343.1736673692
  0
ARC
  5
316
100
AcDbEntity
  8
LAYER_FEATURE
100
AcDbCircle
 62
7
  6
CONTINUOUS
 10
6.5287246622
 20
5.4280365634
 40
0.0104166667
100
AcDbArc
 50
196.8263326308
 51
270.0
  0
ARC
  5
317
100
AcDbEntity
  8
LAYER_FEATURE
100
AcDbCircle
 62
7
  6
CONTINUOUS
 10
6.6695098901
 20
5.4280365634
 40
0.0104166667
100
AcDbArc
 50
270.0
 51
343.1736673692
  0
ARC
  5
318
100
AcDbEntity
  8
LAYER_FEATURE
100
AcDbCircle
 62
7
  6
CONTINUOUS
 10
6.8412246622
 20
5.4280365634
 40
0.0104166667
100
AcDbArc
 50
196.8263326308
 51
270.0
  0
ARC
  5
319
100
AcDbEntity
  8
LAYER_FEATURE
100
AcDbCircle
 62
7
  6
CONTINUOUS
 10
6.9820098901
 20
5.4280365634
 40
0.0104166667
100
AcDbArc
 50
270.0
 51
343.1736673692
  0
ARC
  5
31A
100
AcDbEntity
  8
LAYER_FEATURE
100
AcDbCircle
 62
7
  6
CONTINUOUS
 10
7.1537246622
 20
5.4280365634
 40
0.0104166667
100
AcDbArc
 50
196.8263326308
 51
270.0
  0
ARC
  5
31B
100
AcDbEntity
  8
LAYER_FEATURE
100
AcDbCircle
 62
7
  6
CONTINUOUS
 10
7.2945098901
 20
5.4280365634
 40
0.0104166667
100
AcDbArc
 50
270.0
 51
343.1736673692
  0
ARC
  5
31C
100
AcDbEntity
  8
LAYER_FEATURE
100
AcDbCircle
 62
7
  6
CONTINUOUS
 10
7.4662246622
 20
5.4280365634
 40
0.0104166667
100
AcDbArc
 50
196.8263326308
 51
270.0
  0
ARC
  5
31D
100
AcDbEntity
  8
LAYER_FEATURE
100
AcDbCircle
 62
7
  6
CONTINUOUS
 10
7.6070098901
 20
5.4280365634
 40
0.0104166667
100
AcDbArc
 50
270.0
 51
343.1736673692
  0
ARC
  5
31E
100
AcDbEntity
  8
LAYER_FEATURE
100
AcDbCircle
 62
7
  6
CONTINUOUS
 10
8.2320098901
 20
5.4280365634
 40
0.0104166667
100
AcDbArc
 50
270.0
 51
343.1736673692
  0
ARC
  5
31F
100
AcDbEntity
  8
LAYER_FEATURE
100
AcDbCircle
 62
7
  6
CONTINUOUS
 10
8.0912246622
 20
5.4280365634
 40
0.0104166667
100
AcDbArc
 50
196.8263326308
 51
270.0
  0
ARC
  5
320
100
AcDbEntity
  8
LAYER_FEATURE
100
AcDbCircle
 62
7
  6
CONTINUOUS
 10
7.9195098901
 20
5.4280365634
 40
0.0104166667
100
AcDbArc
 50
270.0
 51
343.1736673692
  0
ARC
  5
321
100
AcDbEntity
  8
LAYER_FEATURE
100
AcDbCircle
 62
7
  6
CONTINUOUS
 10
7.7787246622
 20
5.4280365634
 40
0.0104166667
100
AcDbArc
 50
196.8263326308
 51
270.0
  0
ARC
  5
322
100
AcDbEntity
  8
0
100
AcDbCircle
 62
7
  6
CONTINUOUS
 10
3.9816172762
 20
5.6151198968
 40
0.0075
100
AcDbArc
 50
90.0
 51
180.0
  0
ARC
  5
323
100
AcDbEntity
  8
0
100
AcDbCircle
 62
7
  6
CONTINUOUS
 10
8.2791172762
 20
5.6151198968
 40
0.0075
100
AcDbArc
 50
0.0
 51
90.0
  0
ARC
  5
324
100
AcDbEntity
  8
0
100
AcDbCircle
 62
7
  6
CONTINUOUS
 10
13.2368483407
 20
11.7880156508
 40
0.0024701287
100
AcDbArc
 50
162.8176811644
 51
173.1764857034
  0
SPLINE
  5
325
100
AcDbEntity
  8
0
100
AcDbSpline
 62
7
  6
CONTINUOUS
 70
0
 71
3
 72
11
 73
7
 74
0
 42
0.0000001
 43
0.0000001
 44
0.0000000001
 40
0.0
 40
0.0
 40
0.0
 40
0.0
 40
0.2646775377
 40
0.5366308069
 40
0.7885558833
 40
1.0
 40
1.0
 40
1.0
 40
1.0
 10
17.6817585225
 20
13.3578469243
 30
0.0
 10
17.6827050825
 20
13.3578469243
 30
0.0
 10
17.6846281208
 20
13.3575875971
 30
0.0
 10
17.6872962968
 20
13.3566085684
 30
0.0
 10
17.6895188175
 20
13.35516345
 30
0.0
 10
17.6906211633
 20
13.3538636985
 30
0.0
 10
17.690954294
 20
13.3531848495
 30
0.0
  0
SPLINE
  5
326
100
AcDbEntity
  8
0
100
AcDbSpline
 62
7
  6
CONTINUOUS
 70
0
 71
3
 72
9
 73
5
 74
0
 42
0.0000001
 43
0.0000001
 44
0.0000000001
 40
0.0
 40
0.0
 40
0.0
 40
0.0
 40
0.4775626153
 40
1.0
 40
1.0
 40
1.0
 40
1.0
 10
13.2343957082
 20
11.7883091305
 30
0.0
 10
13.2343610517
 20
11.7880197011
 30
0.0
 10
13.2343963244
 20
11.7873984941
 30
0.0
 10
13.2346056268
 20
11.7868173059
 30
0.0
 10
13.2347461105
 20
11.7865310303
 30
0.0
  0
SPLINE
  5
327
100
AcDbEntity
  8
0
100
AcDbSpline
 62
7
  6
CONTINUOUS
 70
0
 71
3
 72
11
 73
7
 74
0
 42
0.0000001
 43
0.0000001
 44
0.0000000001
 40
0.0
 40
0.0
 40
0.0
 40
0.0
 40
0.2022219841
 40
0.4299972305
 40
0.6965191172
 40
1.0
 40
1.0
 40
1.0
 40
1.0
 10
13.7186211016
 20
13.3553991788
 30
0.0
 10
13.7187367201
 20
13.3557724925
 30
0.0
 10
13.7191871902
 20
13.3565109996
 30
0.0
 10
13.7203206239
 20
13.3572869705
 30
0.0
 10
13.7218066477
 20
13.3577529983
 30
0.0
 10
13.7229124033
 20
13.3578469243
 30
0.0
 10
13.7234989008
 20
13.3578469243
 30
0.0
  0
SPLINE
  5
328
100
AcDbEntity
  8
LAYER_FEATURE
100
AcDbSpline
 62
7
  6
CONTINUOUS
 70
0
 71
3
 72
12
 73
8
 74
0
 42
0.0000001
 43
0.0000001
 44
0.0000000001
 40
0.0
 40
0.0
 40
0.0
 40
0.0
 40
0.3028079855
 40
0.5690717829
 40
0.7964938272
 40
0.8999822519
 40
1.0
 40
1.0
 40
1.0
 40
1.0
 10
17.2167706825
 20
11.6637630615
 30
0.0
 10
17.2175844714
 20
11.6637630615
 30
0.0
 10
17.2191195814
 20
11.6638958696
 30
0.0
 10
17.2211827292
 20
11.6645363742
 30
0.0
 10
17.2225368133
 20
11.6654698332
 30
0.0
 10
17.2232397757
 20
11.666401264
 30
0.0
 10
17.2234638117
 20
11.6669065492
 30
0.0
 10
17.2235433781
 20
11.6671632982
 30
0.0
  0
SPLINE
  5
329
100
AcDbEntity
  8
LAYER_FEATURE
100
AcDbSpline
 62
7
  6
CONTINUOUS
 70
0
 71
3
 72
11
 73
7
 74
0
 42
0.0000001
 43
0.0000001
 44
0.0000000001
 40
0.0
 40
0.0
 40
0.0
 40
0.0
 40
0.2303535243
 40
0.4849227465
 40
0.7474881959
 40
1.0
 40
1.0
 40
1.0
 40
1.0
 10
17.0756575666
 20
11.6683638058
 30
0.0
 10
17.0763208076
 20
11.6676573539
 30
0.0
 10
17.0779328999
 20
11.6663705846
 30
0.0
 10
17.0807485042
 20
11.6649337251
 30
0.0
 10
17.0838669009
 20
11.6640037208
 30
0.0
 10
17.086036689
 20
11.6637630615
 30
0.0
 10
17.0870989006
 20
11.6637630615
 30
0.0
  0
SPLINE
  5
32A
100
AcDbEntity
  8
LAYER_FEATURE
100
AcDbSpline
 62
7
  6
CONTINUOUS
 70
0
 71
3
 72
12
 73
8
 74
0
 42
0.0000001
 43
0.0000001
 44
0.0000000001
 40
0.0
 40
0.0
 40
0.0
 40
0.0
 40
0.3028079855
 40
0.5690717829
 40
0.7964938272
 40
0.8999822519
 40
1.0
 40
1.0
 40
1.0
 40
1.0
 10
16.9289391219
 20
11.6637630615
 30
0.0
 10
16.9297529108
 20
11.6637630615
 30
0.0
 10
16.9312880208
 20
11.6638958696
 30
0.0
 10
16.9333511686
 20
11.6645363742
 30
0.0
 10
16.9347052527
 20
11.6654698332
 30
0.0
 10
16.9354082151
 20
11.666401264
 30
0.0
 10
16.9356322511
 20
11.6669065492
 30
0.0
 10
16.9357118175
 20
11.6671632982
 30
0.0
  0
SPLINE
  5
32B
100
AcDbEntity
  8
LAYER_FEATURE
100
AcDbSpline
 62
7
  6
CONTINUOUS
 70
0
 71
3
 72
11
 73
7
 74
0
 42
0.0000001
 43
0.0000001
 44
0.0000000001
 40
0.0
 40
0.0
 40
0.0
 40
0.0
 40
0.2303535243
 40
0.4849227465
 40
0.7474881959
 40
1.0
 40
1.0
 40
1.0
 40
1.0
 10
16.7878260059
 20
11.6683638058
 30
0.0
 10
16.7884892469
 20
11.6676573539
 30
0.0
 10
16.7901013392
 20
11.6663705846
 30
0.0
 10
16.7929169436
 20
11.6649337251
 30
0.0
 10
16.7960353403
 20
11.6640037208
 30
0.0
 10
16.7982051284
 20
11.6637630615
 30
0.0
 10
16.79926734
 20
11.6637630615
 30
0.0
  0
SPLINE
  5
32C
100
AcDbEntity
  8
LAYER_FEATURE
100
AcDbSpline
 62
7
  6
CONTINUOUS
 70
0
 71
3
 72
12
 73
8
 74
0
 42
0.0000001
 43
0.0000001
 44
0.0000000001
 40
0.0
 40
0.0
 40
0.0
 40
0.0
 40
0.3028079855
 40
0.5690717829
 40
0.7964938272
 40
0.8999822519
 40
1.0
 40
1.0
 40
1.0
 40
1.0
 10
16.6411075613
 20
11.6637630615
 30
0.0
 10
16.6419213502
 20
11.6637630615
 30
0.0
 10
16.6434564601
 20
11.6638958696
 30
0.0
 10
16.645519608
 20
11.6645363742
 30
0.0
 10
16.6468736921
 20
11.6654698332
 30
0.0
 10
16.6475766545
 20
11.666401264
 30
0.0
 10
16.6478006904
 20
11.6669065492
 30
0.0
 10
16.6478802568
 20
11.6671632982
 30
0.0
  0
SPLINE
  5
32D
100
AcDbEntity
  8
LAYER_FEATURE
100
AcDbSpline
 62
7
  6
CONTINUOUS
 70
0
 71
3
 72
11
 73
7
 74
0
 42
0.0000001
 43
0.0000001
 44
0.0000000001
 40
0.0
 40
0.0
 40
0.0
 40
0.0
 40
0.2303535243
 40
0.4849227465
 40
0.7474881959
 40
1.0
 40
1.0
 40
1.0
 40
1.0
 10
16.4999944453
 20
11.6683638058
 30
0.0
 10
16.5006576863
 20
11.6676573539
 30
0.0
 10
16.5022697786
 20
11.6663705846
 30
0.0
 10
16.505085383
 20
11.6649337251
 30
0.0
 10
16.5082037796
 20
11.6640037208
 30
0.0
 10
16.5103735677
 20
11.6637630615
 30
0.0
 10
16.5114357794
 20
11.6637630615
 30
0.0
  0
SPLINE
  5
32E
100
AcDbEntity
  8
LAYER_FEATURE
100
AcDbSpline
 62
7
  6
CONTINUOUS
 70
0
 71
3
 72
12
 73
8
 74
0
 42
0.0000001
 43
0.0000001
 44
0.0000000001
 40
0.0
 40
0.0
 40
0.0
 40
0.0
 40
0.3028079855
 40
0.5690717829
 40
0.7964938272
 40
0.8999822519
 40
1.0
 40
1.0
 40
1.0
 40
1.0
 10
16.3532760007
 20
11.6637630615
 30
0.0
 10
16.3540897896
 20
11.6637630615
 30
0.0
 10
16.3556248995
 20
11.6638958696
 30
0.0
 10
16.3576880474
 20
11.6645363742
 30
0.0
 10
16.3590421315
 20
11.6654698332
 30
0.0
 10
16.3597450939
 20
11.666401264
 30
0.0
 10
16.3599691298
 20
11.6669065492
 30
0.0
 10
16.3600486962
 20
11.6671632982
 30
0.0
  0
SPLINE
  5
32F
100
AcDbEntity
  8
LAYER_FEATURE
100
AcDbSpline
 62
7
  6
CONTINUOUS
 70
0
 71
3
 72
11
 73
7
 74
0
 42
0.0000001
 43
0.0000001
 44
0.0000000001
 40
0.0
 40
0.0
 40
0.0
 40
0.0
 40
0.2303535243
 40
0.4849227465
 40
0.7474881959
 40
1.0
 40
1.0
 40
1.0
 40
1.0
 10
16.2121628847
 20
11.6683638058
 30
0.0
 10
16.2128261257
 20
11.6676573539
 30
0.0
 10
16.214438218
 20
11.6663705846
 30
0.0
 10
16.2172538224
 20
11.6649337251
 30
0.0
 10
16.220372219
 20
11.6640037208
 30
0.0
 10
16.2225420071
 20
11.6637630615
 30
0.0
 10
16.2236042187
 20
11.6637630615
 30
0.0
  0
SPLINE
  5
330
100
AcDbEntity
  8
LAYER_FEATURE
100
AcDbSpline
 62
7
  6
CONTINUOUS
 70
0
 71
3
 72
12
 73
8
 74
0
 42
0.0000001
 43
0.0000001
 44
0.0000000001
 40
0.0
 40
0.0
 40
0.0
 40
0.0
 40
0.3028079855
 40
0.5690717829
 40
0.7964938272
 40
0.8999822519
 40
1.0
 40
1.0
 40
1.0
 40
1.0
 10
16.06544444
 20
11.6637630615
 30
0.0
 10
16.0662582289
 20
11.6637630615
 30
0.0
 10
16.0677933389
 20
11.6638958696
 30
0.0
 10
16.0698564867
 20
11.6645363742
 30
0.0
 10
16.0712105708
 20
11.6654698332
 30
0.0
 10
16.0719135332
 20
11.666401264
 30
0.0
 10
16.0721375692
 20
11.6669065492
 30
0.0
 10
16.0722171356
 20
11.6671632982
 30
0.0
  0
SPLINE
  5
331
100
AcDbEntity
  8
LAYER_FEATURE
100
AcDbSpline
 62
7
  6
CONTINUOUS
 70
0
 71
3
 72
11
 73
7
 74
0
 42
0.0000001
 43
0.0000001
 44
0.0000000001
 40
0.0
 40
0.0
 40
0.0
 40
0.0
 40
0.2303535243
 40
0.4849227465
 40
0.7474881959
 40
1.0
 40
1.0
 40
1.0
 40
1.0
 10
15.9243313241
 20
11.6683638058
 30
0.0
 10
15.9249945651
 20
11.6676573539
 30
0.0
 10
15.9266066574
 20
11.6663705846
 30
0.0
 10
15.9294222617
 20
11.6649337251
 30
0.0
 10
15.9325406584
 20
11.6640037208
 30
0.0
 10
15.9347104465
 20
11.6637630615
 30
0.0
 10
15.9357726581
 20
11.6637630615
 30
0.0
  0
SPLINE
  5
332
100
AcDbEntity
  8
LAYER_FEATURE
100
AcDbSpline
 62
7
  6
CONTINUOUS
 70
0
 71
3
 72
12
 73
8
 74
0
 42
0.0000001
 43
0.0000001
 44
0.0000000001
 40
0.0
 40
0.0
 40
0.0
 40
0.0
 40
0.3028079855
 40
0.5690717829
 40
0.7964938272
 40
0.8999822519
 40
1.0
 40
1.0
 40
1.0
 40
1.0
 10
15.7776128794
 20
11.6637630615
 30
0.0
 10
15.7784266683
 20
11.6637630615
 30
0.0
 10
15.7799617783
 20
11.6638958696
 30
0.0
 10
15.7820249261
 20
11.6645363742
 30
0.0
 10
15.7833790102
 20
11.6654698332
 30
0.0
 10
15.7840819726
 20
11.666401264
 30
0.0
 10
15.7843060085
 20
11.6669065492
 30
0.0
 10
15.784385575
 20
11.6671632982
 30
0.0
  0
SPLINE
  5
333
100
AcDbEntity
  8
LAYER_FEATURE
100
AcDbSpline
 62
7
  6
CONTINUOUS
 70
0
 71
3
 72
11
 73
7
 74
0
 42
0.0000001
 43
0.0000001
 44
0.0000000001
 40
0.0
 40
0.0
 40
0.0
 40
0.0
 40
0.2303535243
 40
0.4849227465
 40
0.7474881959
 40
1.0
 40
1.0
 40
1.0
 40
1.0
 10
15.6364997634
 20
11.6683638058
 30
0.0
 10
15.6371630044
 20
11.6676573539
 30
0.0
 10
15.6387750967
 20
11.6663705846
 30
0.0
 10
15.6415907011
 20
11.6649337251
 30
0.0
 10
15.6447090978
 20
11.6640037208
 30
0.0
 10
15.6468788859
 20
11.6637630615
 30
0.0
 10
15.6479410975
 20
11.6637630615
 30
0.0
  0
SPLINE
  5
334
100
AcDbEntity
  8
LAYER_FEATURE
100
AcDbSpline
 62
7
  6
CONTINUOUS
 70
0
 71
3
 72
12
 73
8
 74
0
 42
0.0000001
 43
0.0000001
 44
0.0000000001
 40
0.0
 40
0.0
 40
0.0
 40
0.0
 40
0.3028079855
 40
0.5690717829
 40
0.7964938272
 40
0.8999822519
 40
1.0
 40
1.0
 40
1.0
 40
1.0
 10
15.4897813188
 20
11.6637630615
 30
0.0
 10
15.4905951077
 20
11.6637630615
 30
0.0
 10
15.4921302176
 20
11.6638958696
 30
0.0
 10
15.4941933655
 20
11.6645363742
 30
0.0
 10
15.4955474496
 20
11.6654698332
 30
0.0
 10
15.496250412
 20
11.666401264
 30
0.0
 10
15.4964744479
 20
11.6669065492
 30
0.0
 10
15.4965540143
 20
11.6671632982
 30
0.0
  0
SPLINE
  5
335
100
AcDbEntity
  8
LAYER_FEATURE
100
AcDbSpline
 62
7
  6
CONTINUOUS
 70
0
 71
3
 72
11
 73
7
 74
0
 42
0.0000001
 43
0.0000001
 44
0.0000000001
 40
0.0
 40
0.0
 40
0.0
 40
0.0
 40
0.2303535243
 40
0.4849227465
 40
0.7474881959
 40
1.0
 40
1.0
 40
1.0
 40
1.0
 10
15.3486682028
 20
11.6683638058
 30
0.0
 10
15.3493314438
 20
11.6676573539
 30
0.0
 10
15.3509435361
 20
11.6663705846
 30
0.0
 10
15.3537591405
 20
11.6649337251
 30
0.0
 10
15.3568775371
 20
11.6640037208
 30
0.0
 10
15.3590473252
 20
11.6637630615
 30
0.0
 10
15.3601095369
 20
11.6637630615
 30
0.0
  0
SPLINE
  5
336
100
AcDbEntity
  8
LAYER_FEATURE
100
AcDbSpline
 62
7
  6
CONTINUOUS
 70
0
 71
3
 72
12
 73
8
 74
0
 42
0.0000001
 43
0.0000001
 44
0.0000000001
 40
0.0
 40
0.0
 40
0.0
 40
0.0
 40
0.3032793497
 40
0.5691604655
 40
0.7966045014
 40
0.9000407391
 40
1.0
 40
1.0
 40
1.0
 40
1.0
 10
15.2019497582
 20
11.6637630615
 30
0.0
 10
15.2027648619
 20
11.6637630615
 30
0.0
 10
15.2043006718
 20
11.6638934535
 30
0.0
 10
15.2063633654
 20
11.6645382321
 30
0.0
 10
15.2077152475
 20
11.6654716911
 30
0.0
 10
15.2084206119
 20
11.6664010122
 30
0.0
 10
15.2086448335
 20
11.666906114
 30
0.0
 10
15.20872403
 20
11.6671628294
 30
0.0
  0
SPLINE
  5
337
100
AcDbEntity
  8
LAYER_FEATURE
100
AcDbSpline
 62
7
  6
CONTINUOUS
 70
0
 71
3
 72
11
 73
7
 74
0
 42
0.0000001
 43
0.0000001
 44
0.0000000001
 40
0.0
 40
0.0
 40
0.0
 40
0.0
 40
0.2303535243
 40
0.4849227465
 40
0.7474881959
 40
1.0
 40
1.0
 40
1.0
 40
1.0
 10
15.0608366422
 20
11.6683638058
 30
0.0
 10
15.0614998832
 20
11.6676573539
 30
0.0
 10
15.0631119755
 20
11.6663705846
 30
0.0
 10
15.0659275799
 20
11.6649337251
 30
0.0
 10
15.0690459765
 20
11.6640037208
 30
0.0
 10
15.0712157646
 20
11.6637630615
 30
0.0
 10
15.0722779762
 20
11.6637630615
 30
0.0
  0
SPLINE
  5
338
100
AcDbEntity
  8
LAYER_FEATURE
100
AcDbSpline
 62
7
  6
CONTINUOUS
 70
0
 71
3
 72
12
 73
8
 74
0
 42
0.0000001
 43
0.0000001
 44
0.0000000001
 40
0.0
 40
0.0
 40
0.0
 40
0.0
 40
0.3028079855
 40
0.5690717829
 40
0.7964938272
 40
0.8999822519
 40
1.0
 40
1.0
 40
1.0
 40
1.0
 10
14.9141181975
 20
11.6637630615
 30
0.0
 10
14.9149319864
 20
11.6637630615
 30
0.0
 10
14.9164670964
 20
11.6638958696
 30
0.0
 10
14.9185302442
 20
11.6645363742
 30
0.0
 10
14.9198843283
 20
11.6654698332
 30
0.0
 10
14.9205872907
 20
11.666401264
 30
0.0
 10
14.9208113267
 20
11.6669065492
 30
0.0
 10
14.9208908931
 20
11.6671632982
 30
0.0
  0
SPLINE
  5
339
100
AcDbEntity
  8
LAYER_FEATURE
100
AcDbSpline
 62
7
  6
CONTINUOUS
 70
0
 71
3
 72
11
 73
7
 74
0
 42
0.0000001
 43
0.0000001
 44
0.0000000001
 40
0.0
 40
0.0
 40
0.0
 40
0.0
 40
0.2303535243
 40
0.4849227465
 40
0.7474881959
 40
1.0
 40
1.0
 40
1.0
 40
1.0
 10
14.7730050815
 20
11.6683638058
 30
0.0
 10
14.7736683226
 20
11.6676573539
 30
0.0
 10
14.7752804149
 20
11.6663705846
 30
0.0
 10
14.7780960192
 20
11.6649337251
 30
0.0
 10
14.7812144159
 20
11.6640037208
 30
0.0
 10
14.783384204
 20
11.6637630615
 30
0.0
 10
14.7844464156
 20
11.6637630615
 30
0.0
  0
SPLINE
  5
33A
100
AcDbEntity
  8
LAYER_FEATURE
100
AcDbSpline
 62
7
  6
CONTINUOUS
 70
0
 71
3
 72
12
 73
8
 74
0
 42
0.0000001
 43
0.0000001
 44
0.0000000001
 40
0.0
 40
0.0
 40
0.0
 40
0.0
 40
0.3028079855
 40
0.5690717829
 40
0.7964938272
 40
0.8999822519
 40
1.0
 40
1.0
 40
1.0
 40
1.0
 10
14.6262866369
 20
11.6637630615
 30
0.0
 10
14.6271004258
 20
11.6637630615
 30
0.0
 10
14.6286355358
 20
11.6638958696
 30
0.0
 10
14.6306986836
 20
11.6645363742
 30
0.0
 10
14.6320527677
 20
11.6654698332
 30
0.0
 10
14.6327557301
 20
11.666401264
 30
0.0
 10
14.632979766
 20
11.6669065492
 30
0.0
 10
14.6330593325
 20
11.6671632982
 30
0.0
  0
SPLINE
  5
33B
100
AcDbEntity
  8
LAYER_FEATURE
100
AcDbSpline
 62
7
  6
CONTINUOUS
 70
0
 71
3
 72
11
 73
7
 74
0
 42
0.0000001
 43
0.0000001
 44
0.0000000001
 40
0.0
 40
0.0
 40
0.0
 40
0.0
 40
0.2303535243
 40
0.4849227465
 40
0.7474881959
 40
1.0
 40
1.0
 40
1.0
 40
1.0
 10
14.4851735209
 20
11.6683638058
 30
0.0
 10
14.4858367619
 20
11.6676573539
 30
0.0
 10
14.4874488542
 20
11.6663705846
 30
0.0
 10
14.4902644586
 20
11.6649337251
 30
0.0
 10
14.4933828553
 20
11.6640037208
 30
0.0
 10
14.4955526434
 20
11.6637630615
 30
0.0
 10
14.496614855
 20
11.6637630615
 30
0.0
  0
SPLINE
  5
33C
100
AcDbEntity
  8
LAYER_FEATURE
100
AcDbSpline
 62
7
  6
CONTINUOUS
 70
0
 71
3
 72
12
 73
8
 74
0
 42
0.0000001
 43
0.0000001
 44
0.0000000001
 40
0.0
 40
0.0
 40
0.0
 40
0.0
 40
0.3028079855
 40
0.5690717829
 40
0.7964938272
 40
0.8999822519
 40
1.0
 40
1.0
 40
1.0
 40
1.0
 10
14.3384550763
 20
11.6637630615
 30
0.0
 10
14.3392688652
 20
11.6637630615
 30
0.0
 10
14.3408039751
 20
11.6638958696
 30
0.0
 10
14.342867123
 20
11.6645363742
 30
0.0
 10
14.3442212071
 20
11.6654698332
 30
0.0
 10
14.3449241695
 20
11.666401264
 30
0.0
 10
14.3451482054
 20
11.6669065492
 30
0.0
 10
14.3452277718
 20
11.6671632982
 30
0.0
  0
SPLINE
  5
33D
100
AcDbEntity
  8
LAYER_FEATURE
100
AcDbSpline
 62
7
  6
CONTINUOUS
 70
0
 71
3
 72
11
 73
7
 74
0
 42
0.0000001
 43
0.0000001
 44
0.0000000001
 40
0.0
 40
0.0
 40
0.0
 40
0.0
 40
0.2303535243
 40
0.4849227465
 40
0.7474881959
 40
1.0
 40
1.0
 40
1.0
 40
1.0
 10
14.1973419603
 20
11.6683638058
 30
0.0
 10
14.1980052013
 20
11.6676573539
 30
0.0
 10
14.1996172936
 20
11.6663705846
 30
0.0
 10
14.202432898
 20
11.6649337251
 30
0.0
 10
14.2055512946
 20
11.6640037208
 30
0.0
 10
14.2077210827
 20
11.6637630615
 30
0.0
 10
14.2087832944
 20
11.6637630615
 30
0.0
  0
SPLINE
  5
33E
100
AcDbEntity
  8
LAYER_FEATURE
100
AcDbSpline
 62
7
  6
CONTINUOUS
 70
0
 71
3
 72
12
 73
8
 74
0
 42
0.0000001
 43
0.0000001
 44
0.0000000001
 40
0.0
 40
0.0
 40
0.0
 40
0.0
 40
0.3028079855
 40
0.5690717829
 40
0.7964938272
 40
0.8999822519
 40
1.0
 40
1.0
 40
1.0
 40
1.0
 10
14.0506235157
 20
11.6637630615
 30
0.0
 10
14.0514373045
 20
11.6637630615
 30
0.0
 10
14.0529724145
 20
11.6638958696
 30
0.0
 10
14.0550355624
 20
11.6645363742
 30
0.0
 10
14.0563896465
 20
11.6654698332
 30
0.0
 10
14.0570926089
 20
11.666401264
 30
0.0
 10
14.0573166448
 20
11.6669065492
 30
0.0
 10
14.0573962112
 20
11.6671632982
 30
0.0
  0
SPLINE
  5
33F
100
AcDbEntity
  8
LAYER_FEATURE
100
AcDbSpline
 62
7
  6
CONTINUOUS
 70
0
 71
3
 72
11
 73
7
 74
0
 42
0.0000001
 43
0.0000001
 44
0.0000000001
 40
0.0
 40
0.0
 40
0.0
 40
0.0
 40
0.2303535243
 40
0.4849227465
 40
0.7474881959
 40
1.0
 40
1.0
 40
1.0
 40
1.0
 10
13.9095103997
 20
11.6683638058
 30
0.0
 10
13.9101736407
 20
11.6676573539
 30
0.0
 10
13.911785733
 20
11.6663705846
 30
0.0
 10
13.9146013373
 20
11.6649337251
 30
0.0
 10
13.917719734
 20
11.6640037208
 30
0.0
 10
13.9198895221
 20
11.6637630615
 30
0.0
 10
13.9209517337
 20
11.6637630615
 30
0.0
  0
SPLINE
  5
340
100
AcDbEntity
  8
LAYER_FEATURE
100
AcDbSpline
 62
7
  6
CONTINUOUS
 70
0
 71
3
 72
12
 73
8
 74
0
 42
0.0000001
 43
0.0000001
 44
0.0000000001
 40
0.0
 40
0.0
 40
0.0
 40
0.0
 40
0.3028079855
 40
0.5690717829
 40
0.7964938272
 40
0.8999822519
 40
1.0
 40
1.0
 40
1.0
 40
1.0
 10
13.762791955
 20
11.6637630615
 30
0.0
 10
13.7636057439
 20
11.6637630615
 30
0.0
 10
13.7651408539
 20
11.6638958696
 30
0.0
 10
13.7672040017
 20
11.6645363742
 30
0.0
 10
13.7685580858
 20
11.6654698332
 30
0.0
 10
13.7692610482
 20
11.666401264
 30
0.0
 10
13.7694850842
 20
11.6669065492
 30
0.0
 10
13.7695646506
 20
11.6671632982
 30
0.0
  0
SPLINE
  5
341
100
AcDbEntity
  8
LAYER_FEATURE
100
AcDbSpline
 62
7
  6
CONTINUOUS
 70
0
 71
3
 72
11
 73
7
 74
0
 42
0.0000001
 43
0.0000001
 44
0.0000000001
 40
0.0
 40
0.0
 40
0.0
 40
0.0
 40
0.2303535243
 40
0.4849227465
 40
0.7474881959
 40
1.0
 40
1.0
 40
1.0
 40
1.0
 10
13.621678839
 20
11.6683638058
 30
0.0
 10
13.6223420801
 20
11.6676573539
 30
0.0
 10
13.6239541724
 20
11.6663705846
 30
0.0
 10
13.6267697767
 20
11.6649337251
 30
0.0
 10
13.6298881734
 20
11.6640037208
 30
0.0
 10
13.6320579615
 20
11.6637630615
 30
0.0
 10
13.6331201731
 20
11.6637630615
 30
0.0
  0
SPLINE
  5
342
100
AcDbEntity
  8
0
100
AcDbSpline
 62
7
  6
CONTINUOUS
 70
0
 71
3
 72
12
 73
8
 74
0
 42
0.0000001
 43
0.0000001
 44
0.0000000001
 40
0.0
 40
0.0
 40
0.0
 40
0.0
 40
0.3028079855
 40
0.5690717829
 40
0.7964938272
 40
0.8999822519
 40
1.0
 40
1.0
 40
1.0
 40
1.0
 10
13.4749603944
 20
11.6637630615
 30
0.0
 10
13.4757741833
 20
11.6637630615
 30
0.0
 10
13.4773092933
 20
11.6638958696
 30
0.0
 10
13.4793724411
 20
11.6645363742
 30
0.0
 10
13.4807265252
 20
11.6654698332
 30
0.0
 10
13.4814294876
 20
11.666401264
 30
0.0
 10
13.4816535235
 20
11.6669065492
 30
0.0
 10
13.48173309
 20
11.6671632982
 30
0.0
  0
SPLINE
  5
343
100
AcDbEntity
  8
0
100
AcDbSpline
 62
7
  6
CONTINUOUS
 70
0
 71
3
 72
11
 73
7
 74
0
 42
0.0000001
 43
0.0000001
 44
0.0000000001
 40
0.0
 40
0.0
 40
0.0
 40
0.0
 40
0.2303535243
 40
0.4849227465
 40
0.7474881959
 40
1.0
 40
1.0
 40
1.0
 40
1.0
 10
13.3338472784
 20
11.6683638058
 30
0.0
 10
13.3345105194
 20
11.6676573539
 30
0.0
 10
13.3361226117
 20
11.6663705846
 30
0.0
 10
13.3389382161
 20
11.6649337251
 30
0.0
 10
13.3420566128
 20
11.6640037208
 30
0.0
 10
13.3442264009
 20
11.6637630615
 30
0.0
 10
13.3452886125
 20
11.6637630615
 30
0.0
  0
SPLINE
  5
344
100
AcDbEntity
  8
0
100
AcDbSpline
 62
7
  6
CONTINUOUS
 70
0
 71
3
 72
11
 73
7
 74
0
 42
0.0000001
 43
0.0000001
 44
0.0000000001
 40
0.0
 40
0.0
 40
0.0
 40
0.0
 40
0.3034808828
 40
0.5700027695
 40
0.7977780159
 40
1.0
 40
1.0
 40
1.0
 40
1.0
 10
13.239366254
 20
11.791193105
 30
0.0
 10
13.2387797565
 20
11.791193105
 30
0.0
 10
13.2376740009
 20
11.7910991791
 30
0.0
 10
13.2361879771
 20
11.7906331512
 30
0.0
 10
13.2350545434
 20
11.7898571804
 30
0.0
 10
13.2346040732
 20
11.7891186733
 30
0.0
 10
13.2344884548
 20
11.7887453596
 30
0.0
  0
SPLINE
  5
345
100
AcDbEntity
  8
0
100
AcDbSpline
 62
7
  6
CONTINUOUS
 70
0
 71
3
 72
11
 73
7
 74
0
 42
0.0000001
 43
0.0000001
 44
0.0000000001
 40
0.0
 40
0.0
 40
0.0
 40
0.0
 40
0.2114441167
 40
0.4633691931
 40
0.7353224623
 40
1.0
 40
1.0
 40
1.0
 40
1.0
 10
17.2068216472
 20
11.7865310303
 30
0.0
 10
17.2064885165
 20
11.7872098792
 30
0.0
 10
17.2053861707
 20
11.7885096307
 30
0.0
 10
17.20316365
 20
11.7899547492
 30
0.0
 10
17.200495474
 20
11.7909337778
 30
0.0
 10
17.1985724356
 20
11.791193105
 30
0.0
 10
17.1976258757
 20
11.791193105
 30
0.0
  0
ENDSEC
  0
SECTION
  2
OBJECTS
  0
DICTIONARY
  5
C
100
AcDbDictionary
280
0
281
1
  3
ACAD_GROUP
350
D
  3
ACAD_MLINESTYLE
350
17
  3
ACAD_LAYOUT
350
1A
  3
ACAD_PLOTSETTINGS
350
19
  3
ACAD_PLOTSTYLENAME
350
E
  0
DICTIONARY
  5
D
102
{ACAD_REACTORS
330
C
102
}
100
AcDbDictionary
280
0
281
1
  0
ACDBDICTIONARYWDFLT
  5
E
102
{ACAD_REACTORS
330
C
102
}
100
AcDbDictionary
281
1
  3
Normal
350
F
100
AcDbDictionaryWithDefault
340
F
  0
DICTIONARY
  5
17
102
{ACAD_REACTORS
330
C
102
}
100
AcDbDictionary
280
0
281
1
  3
Standard
350
18
  0
DICTIONARY
  5
19
102
{ACAD_REACTORS
330
C
102
}
100
AcDbDictionary
281
1
  0
DICTIONARY
  5
1A
102
{ACAD_REACTORS
330
C
102
}
100
AcDbDictionary
281
1
  3
Model
350
346
  3
Layout1
350
347
  0
ACDBPLACEHOLDER
  5
F
102
{ACAD_REACTORS
330
E
102
}
  0
MLINESTYLE
  5
18
102
{ACAD_REACTORS
330
17
102
}
100
AcDbMlineStyle
  2
STANDARD
 70
0
  3

 62
256
 51
90.0
 52
90.0
 71
2
 49
0.5
 62
256
  6
BYLAYER
 49
-0.5
 62
256
  6
BYLAYER
  0
LAYOUT
  5
346
102
{ACAD_REACTORS
330
1A
102
}
100
AcDbPlotSettings
  1

  2
none_device
  4
ANSI_C_(22.00_x_17.00_Inches)
  6

 40
0.0
 41
0.0
 42
0.0
 43
0.0
 44
558.8
 45
431.8
 46
0.0
 47
0.0
 48
0.0
 49
0.0
140
0.0
141
0.0
142
1.0
143
1.0
 70
1024
 72
0
 73
0
 74
0
  7

 75
0
147
1.0
148
0.0
149
0.0
100
AcDbLayout
  1
Model
 70
0
 71
0
 10
0.0
 20
0.0
 11
22.0
 21
17.0
 12
0.0
 22
0.0
 32
0.0
 14
0.0
 24
0.0
 34
0.0
 15
0.0
 25
0.0
 35
0.0
146
0.0
 13
0.0
 23
0.0
 33
0.0
 16
1.0
 26
0.0
 36
0.0
 17
0.0
 27
1.0
 37
0.0
 76
0
330
21C
345
0
346
0
  0
LAYOUT
  5
347
102
{ACAD_REACTORS
330
1A
102
}
100
AcDbPlotSettings
  1

  2
none_device
  4
ANSI_C_(22.00_x_17.00_Inches)
  6

 40
0.0
 41
0.0
 42
0.0
 43
0.0
 44
558.8
 45
431.8
 46
0.0
 47
0.0
 48
0.0
 49
0.0
140
0.0
141
0.0
142
1.0
143
1.0
 70
0
 72
0
 73
0
 74
0
  7

 75
0
147
1.0
148
0.0
149
0.0
100
AcDbLayout
  1
Layout1
 70
0
 71
1
 10
0.0
 20
0.0
 11
22.0
 21
17.0
 12
0.0
 22
0.0
 32
0.0
 14
0.0
 24
0.0
 34
0.0
 15
0.0
 25
0.0
 35
0.0
146
0.0
 13
0.0
 23
0.0
 33
0.0
 16
1.0
 26
0.0
 36
0.0
 17
0.0
 27
1.0
 37
0.0
 76
0
330
21D
345
0
346
0
  0
ENDSEC
  0
EOF