999
DXF file: _cgs_temp_output.dxf
999
Pro/ENGINEER 2016360 by Parametric Technology Corporation
  0
SECTION
  2
HEADER
  9
$ACADVER
  1
AC1021
  9
$DWGCODEPAGE
  3
ANSI_1252
  9
$EXTMAX
 10
22.0
 20
17.0
 30
0.0
  9
$EXTMIN
 10
0.0
 20
0.0
 30
0.0
  9
$LIMMIN
 10
0.0
 20
0.0
  9
$LIMMAX
 10
22.0
 20
17.0
  9
$VIEWCTR
 10
11.0
 20
8.5
  9
$VIEWSIZE
 40
17.0
  9
$CLAYER
  8
0
  9
$LTSCALE
 40
1.21
  9
$CELTYPE
  6
BYLAYER
  9
$DIMSCALE
 40
1.0
  9
$DIMASZ
 40
0.1875
  9
$DIMEXO
 40
0.0625
  9
$DIMDLI
 40
0.836
  9
$DIMEXE
 40
0.125
  9
$DIMCEN
 40
0.198
  9
$DIMLFAC
 40
1.0
  9
$DIMBLK
  1
_CLOSED
  9
$DIMALT
 70
0
  9
$DIMALTF
 40
25.4
  9
$DIMTXT
 40
0.15625
  9
$DIMTOL
 70
0
  9
$DIMLIM
 70
0
  9
$DIMTFAC
 40
1.0
  9
$DIMGAP
 40
0.09
  9
$DIMDSEP
 70
46
  9
$AUNITS
 70
0
  9
$PDMODE
 70
3
  9
$PDSIZE
 40
0.3125
  9
$HANDSEED
  5
2DE
  9
$TILEMODE
 70
1
  9
$MEASUREMENT
 70
0
  9
$INSUNITS
 70
1
  0
ENDSEC
  0
SECTION
  2
CLASSES
  0
CLASS
  1
ACDBDICTIONARYWDFLT
  2
AcDbDictionaryWithDefault
  3
AutoCAD 2000
 90
0
 91
1
280
0
281
0
  0
CLASS
  1
ACDBPLACEHOLDER
  2
AcDbPlaceHolder
  3
AutoCAD 2000
 90
0
 91
1
280
0
281
0
  0
CLASS
  1
LAYOUT
  2
AcDbLayout
  3
AutoCAD 2000
 90
0
 91
0
280
0
281
0
  0
ENDSEC
  0
SECTION
  2
TABLES
  0
TABLE
  2
VPORT
  5
8
100
AcDbSymbolTable
 70
2
  0
VPORT
  5
1F4
100
AcDbSymbolTableRecord
100
AcDbViewportTableRecord
  2
*ACTIVE
 70
0
 10
0.0
 20
0.0
 11
1.0
 21
1.0
 12
11.0
 22
8.5
 13
0.0
 23
0.0
 14
1.0
 24
1.0
 15
0.0
 25
0.0
 16
0.0
 26
0.0
 36
1.0
 17
0.0
 27
0.0
 37
0.0
 40
17.0
 41
1.2941176471
 42
50.0
 43
0.0
 44
0.0
 50
0.0
 51
0.0
 71
0
 72
100
 73
1
 74
1
 75
0
 76
0
 77
0
 78
0
  0
ENDTAB
  0
TABLE
  2
LTYPE
  5
5
100
AcDbSymbolTable
 70
6
  0
LTYPE
  5
14
100
AcDbSymbolTableRecord
100
AcDbLinetypeTableRecord
  2
BYBLOCK
 70
0
  3

 72
65
 73
0
 40
0.0
  0
LTYPE
  5
15
100
AcDbSymbolTableRecord
100
AcDbLinetypeTableRecord
  2
BYLAYER
 70
0
  3

 72
65
 73
0
 40
0.0
  0
LTYPE
  5
16
100
AcDbSymbolTableRecord
100
AcDbLinetypeTableRecord
  2
CONTINUOUS
 70
64
  3
Solid line
 72
65
 73
0
 40
0.0
  0
LTYPE
  5
1F5
100
AcDbSymbolTableRecord
100
AcDbLinetypeTableRecord
  2
CENTER
 70
64
  3
____ _ ____ _ ____ _ ____ _ ____ _ ____ _ ____
 72
65
 73
4
 40
0.6
 49
0.375
 74
0
 49
-0.075
 74
0
 49
0.075
 74
0
 49
-0.075
 74
0
  0
LTYPE
  5
1F6
100
AcDbSymbolTableRecord
100
AcDbLinetypeTableRecord
  2
HIDDEN
 70
64
  3
- - - - - - - - - - - - - - - - - - - -
 72
65
 73
2
 40
0.2
 49
0.1
 74
0
 49
-0.1
 74
0
  0
LTYPE
  5
1F7
100
AcDbSymbolTableRecord
100
AcDbLinetypeTableRecord
  2
PHANTOM
 70
64
  3
_____ _ _ _____ _ _ _____ _ _ _____
 72
65
 73
6
 40
0.8
 49
0.45
 74
0
 49
-0.05
 74
0
 49
0.1
 74
0
 49
-0.05
 74
0
 49
0.1
 74
0
 49
-0.05
 74
0
  0
LTYPE
  5
1F8
100
AcDbSymbolTableRecord
100
AcDbLinetypeTableRecord
  2
DOT
 70
64
  3
. . . . . . . . . . . . . . . . . . . .
 72
65
 73
2
 40
0.2
 49
0.1
 74
0
 49
-0.1
 74
0
  0
LTYPE
  5
1F9
100
AcDbSymbolTableRecord
100
AcDbLinetypeTableRecord
  2
DASHED
 70
64
  3
- - - - - - - - - - - - - - - - - - - -
 72
65
 73
2
 40
0.2
 49
0.1
 74
0
 49
-0.1
 74
0
  0
ENDTAB
  0
TABLE
  2
LAYER
  5
2
100
AcDbSymbolTable
 70
36
  0
LAYER
  5
10
100
AcDbSymbolTableRecord
100
AcDbLayerTableRecord
  2
0
 70
0
 62
7
  6
CONTINUOUS
370
-3
390
F
  0
LAYER
  5
1FA
100
AcDbSymbolTableRecord
100
AcDbLayerTableRecord
  2
DEFAULT_1
 70
0
 62
7
  6
CENTER
370
-3
390
F
  0
LAYER
  5
1FB
100
AcDbSymbolTableRecord
100
AcDbLayerTableRecord
  2
DEFAULT_2
 70
0
 62
8
  6
HIDDEN
370
-3
390
F
  0
LAYER
  5
1FC
100
AcDbSymbolTableRecord
100
AcDbLayerTableRecord
  2
DEFAULT_3
 70
0
 62
7
  6
PHANTOM
370
-3
390
F
  0
LAYER
  5
1FD
100
AcDbSymbolTableRecord
100
AcDbLayerTableRecord
  2
01_ALL_DTM_PLN
 70
0
 62
7
  6
CONTINUOUS
370
-3
390
F
  0
LAYER
  5
1FE
100
AcDbSymbolTableRecord
100
AcDbLayerTableRecord
  2
01__ASM_ALL_DTM_PLN
 70
0
 62
7
  6
CONTINUOUS
370
-3
390
F
  0
LAYER
  5
1FF
100
AcDbSymbolTableRecord
100
AcDbLayerTableRecord
  2
01__ASM_DEF_DTM_PLN
 70
0
 62
7
  6
CONTINUOUS
370
-3
390
F
  0
LAYER
  5
200
100
AcDbSymbolTableRecord
100
AcDbLayerTableRecord
  2
01___PRT_ALL_DTM_PLN
 70
0
 62
7
  6
CONTINUOUS
370
-3
390
F
  0
LAYER
  5
201
100
AcDbSymbolTableRecord
100
AcDbLayerTableRecord
  2
01___PRT_DEF_DTM_PLN
 70
0
 62
7
  6
CONTINUOUS
370
-3
390
F
  0
LAYER
  5
202
100
AcDbSymbolTableRecord
100
AcDbLayerTableRecord
  2
02_ALL_AXES
 70
0
 62
7
  6
CONTINUOUS
370
-3
390
F
  0
LAYER
  5
203
100
AcDbSymbolTableRecord
100
AcDbLayerTableRecord
  2
02__ASM_ALL_AXES
 70
0
 62
7
  6
CONTINUOUS
370
-3
390
F
  0
LAYER
  5
204
100
AcDbSymbolTableRecord
100
AcDbLayerTableRecord
  2
02___PRT_ALL_AXES
 70
0
 62
7
  6
CONTINUOUS
370
-3
390
F
  0
LAYER
  5
205
100
AcDbSymbolTableRecord
100
AcDbLayerTableRecord
  2
03_ALL_CURVES
 70
0
 62
7
  6
CONTINUOUS
370
-3
390
F
  0
LAYER
  5
206
100
AcDbSymbolTableRecord
100
AcDbLayerTableRecord
  2
03__ASM_ALL_CURVES
 70
0
 62
7
  6
CONTINUOUS
370
-3
390
F
  0
LAYER
  5
207
100
AcDbSymbolTableRecord
100
AcDbLayerTableRecord
  2
03___PRT_ALL_CURVES
 70
0
 62
7
  6
CONTINUOUS
370
-3
390
F
  0
LAYER
  5
208
100
AcDbSymbolTableRecord
100
AcDbLayerTableRecord
  2
04_ALL_DTM_PNT
 70
0
 62
7
  6
CONTINUOUS
370
-3
390
F
  0
LAYER
  5
209
100
AcDbSymbolTableRecord
100
AcDbLayerTableRecord
  2
04__ASM_ALL_DTM_PNT
 70
0
 62
7
  6
CONTINUOUS
370
-3
390
F
  0
LAYER
  5
20A
100
AcDbSymbolTableRecord
100
AcDbLayerTableRecord
  2
04___PRT_ALL_DTM_PNT
 70
0
 62
7
  6
CONTINUOUS
370
-3
390
F
  0
LAYER
  5
20B
100
AcDbSymbolTableRecord
100
AcDbLayerTableRecord
  2
05_ALL_DTM_CSYS
 70
0
 62
7
  6
CONTINUOUS
370
-3
390
F
  0
LAYER
  5
20C
100
AcDbSymbolTableRecord
100
AcDbLayerTableRecord
  2
05__ASM_ALL_DTM_CSYS
 70
0
 62
7
  6
CONTINUOUS
370
-3
390
F
  0
LAYER
  5
20D
100
AcDbSymbolTableRecord
100
AcDbLayerTableRecord
  2
05__ASM_DEF_DTM_CSYS
 70
0
 62
7
  6
CONTINUOUS
370
-3
390
F
  0
LAYER
  5
20E
100
AcDbSymbolTableRecord
100
AcDbLayerTableRecord
  2
05___PRT_ALL_DTM_CSYS
 70
0
 62
7
  6
CONTINUOUS
370
-3
390
F
  0
LAYER
  5
20F
100
AcDbSymbolTableRecord
100
AcDbLayerTableRecord
  2
05___PRT_DEF_DTM_CSYS
 70
0
 62
7
  6
CONTINUOUS
370
-3
390
F
  0
LAYER
  5
210
100
AcDbSymbolTableRecord
100
AcDbLayerTableRecord
  2
06_ALL_SURFS
 70
0
 62
7
  6
CONTINUOUS
370
-3
390
F
  0
LAYER
  5
211
100
AcDbSymbolTableRecord
100
AcDbLayerTableRecord
  2
06__ASM_ALL_SURFS
 70
0
 62
7
  6
CONTINUOUS
370
-3
390
F
  0
LAYER
  5
212
100
AcDbSymbolTableRecord
100
AcDbLayerTableRecord
  2
06___PRT_ALL_SURFS
 70
0
 62
7
  6
CONTINUOUS
370
-3
390
F
  0
LAYER
  5
213
100
AcDbSymbolTableRecord
100
AcDbLayerTableRecord
  2
07__ASM_ALL_SKELETONS
 70
0
 62
7
  6
CONTINUOUS
370
-3
390
F
  0
ENDTAB
  0
TABLE
  2
STYLE
  5
3
100
AcDbSymbolTable
 70
1
  0
STYLE
  5
11
100
AcDbSymbolTableRecord
100
AcDbTextStyleTableRecord
  2
STANDARD
 70
0
 40
0.0
 41
0.8
 50
0.0
 71
0
 42
0.2
  3
txt
  4

  0
STYLE
  5
214
100
AcDbSymbolTableRecord
100
AcDbTextStyleTableRecord
  2
TEXTSTYLE_1
 70
0
 40
0.0
 41
0.8
 50
0.0
 71
0
 42
0.2
  3
gdt
  4

  0
ENDTAB
  0
TABLE
  2
VIEW
  5
6
100
AcDbSymbolTable
 70
0
  0
ENDTAB
  0
TABLE
  2
UCS
  5
7
100
AcDbSymbolTable
 70
0
  0
ENDTAB
  0
TABLE
  2
APPID
  5
9
100
AcDbSymbolTable
 70
1
  0
APPID
  5
215
100
AcDbSymbolTableRecord
100
AcDbRegAppTableRecord
  2
ACAD
 70
0
  0
ENDTAB
  0
TABLE
  2
BLOCK_RECORD
  5
1
100
AcDbSymbolTable
 70
0
  0
BLOCK_RECORD
  5
216
100
AcDbSymbolTableRecord
100
AcDbBlockTableRecord
  2
*Model_Space
  0
BLOCK_RECORD
  5
217
100
AcDbSymbolTableRecord
100
AcDbBlockTableRecord
  2
*Paper_Space
  0
ENDTAB
  0
TABLE
  2
DIMSTYLE
  5
A
100
AcDbSymbolTable
 70
1
100
AcDbDimStyleTable
 71
0
  0
DIMSTYLE
105
218
100
AcDbSymbolTableRecord
100
AcDbDimStyleTableRecord
  2
STANDARD
 70
0
  3

  4

 40
1.0
 41
0.1875
 42
0.0625
 43
0.38
 44
0.125
 45
0.0
 46
0.0
 47
0.0001
 48
0.0001
140
0.15625
141
0.09
142
0.0
143
25.4
144
1.0
145
0.0
146
1.0
147
0.09
 71
0.0
 72
0.0
 73
1
 74
1
 75
0
 76
0
 77
0
 78
4
 79
1
170
0
171
3
172
0
173
0
174
0
175
0
176
0
177
0
178
0
270
2
179
4
271
4
272
4
273
2
274
2
275
0
280
0
281
0
282
0
283
1
284
4
285
0
286
0
287
3
288
0
340
11
278
46
  0
ENDTAB
  0
ENDSEC
  0
SECTION
  2
BLOCKS
  0
BLOCK
  5
20
100
AcDbEntity
  8
0
100
AcDbBlockBegin
  2
*Model_Space
 70
0
 10
0.0
 20
0.0
 30
0.0
  3
*Model_Space
  1

  0
ENDBLK
  5
21
100
AcDbEntity
  8
0
100
AcDbBlockEnd
  0
BLOCK
  5
1C
100
AcDbEntity
  8
0
100
AcDbBlockBegin
  2
*Paper_Space
 70
0
 10
0.0
 20
0.0
 30
0.0
  3
*Paper_Space
  1

  0
ENDBLK
  5
1D
100
AcDbEntity
  8
0
100
AcDbBlockEnd
  0
ENDSEC
  0
SECTION
  2
ENTITIES
  0
MTEXT
  5
219
100
AcDbEntity
  8
0
100
AcDbMText
 62
7
  6
CONTINUOUS
  7
STANDARD
 71
1
 72
1
 10
15.9560215477
 20
0.9479130325
 30
0.0
 11
1.0
 21
0.0
 31
0.0
 44
0.9
  1
SCALE: 1:1.000
 40
0.3
 41
3.36
  0
LINE
  5
21A
100
AcDbEntity
  8
0
100
AcDbLine
 62
7
  6
CONTINUOUS
 10
0.0
 20
0.0
 11
0.0
 21
17.0
  0
LINE
  5
21B
100
AcDbEntity
  8
0
100
AcDbLine
 62
7
  6
CONTINUOUS
 10
0.0
 20
0.0
 11
22.0
 21
0.0
  0
LINE
  5
21C
100
AcDbEntity
  8
0
100
AcDbLine
 62
7
  6
CONTINUOUS
 10
0.0
 20
17.0
 11
22.0
 21
17.0
  0
LINE
  5
21D
100
AcDbEntity
  8
0
100
AcDbLine
 62
7
  6
CONTINUOUS
 10
22.0
 20
0.0
 11
22.0
 21
17.0
  0
LINE
  5
21E
100
AcDbEntity
  8
0
100
AcDbLine
 62
7
  6
CONTINUOUS
 10
5.6928672762
 20
5.6496199236
 11
5.6928672762
 21
5.6069988284
  0
LINE
  5
21F
100
AcDbEntity
  8
0
100
AcDbLine
 62
7
  6
CONTINUOUS
 10
5.7339826429
 20
5.3858496987
 11
5.6947045578
 21
5.5879179288
  0
LINE
  5
220
100
AcDbEntity
  8
0
100
AcDbLine
 62
7
  6
CONTINUOUS
 10
5.7585233225
 20
5.3656199236
 11
6.5022112299
 21
5.3656199236
  0
LINE
  5
221
100
AcDbEntity
  8
0
100
AcDbLine
 62
7
  6
CONTINUOUS
 10
5.7385021506
 20
5.4686199236
 11
6.5222324017
 21
5.4686199236
  0
LINE
  5
222
100
AcDbEntity
  8
0
100
AcDbLine
 62
7
  6
CONTINUOUS
 10
6.5428672762
 20
5.6746199236
 11
5.7178672762
 21
5.6746199236
  0
LINE
  5
223
100
AcDbEntity
  8
0
100
AcDbLine
 62
7
  6
CONTINUOUS
 10
6.5678672762
 20
5.6069988284
 11
6.5678672762
 21
5.6496199236
  0
LINE
  5
224
100
AcDbEntity
  8
0
100
AcDbLine
 62
7
  6
CONTINUOUS
 10
6.5267519095
 20
5.3858496987
 11
6.5660299945
 21
5.5879179288
  0
LINE
  5
225
100
AcDbEntity
  8
0
100
AcDbLine
 62
7
  6
CONTINUOUS
 10
6.5083720839
 20
10.6000477814
 11
5.6333720839
 21
10.6000477814
  0
LINE
  5
226
100
AcDbEntity
  8
0
100
AcDbLine
 62
7
  6
CONTINUOUS
 10
5.6333720839
 20
10.6000477814
 11
5.6333720839
 21
14.6000477814
  0
LINE
  5
227
100
AcDbEntity
  8
0
100
AcDbLine
 62
7
  6
CONTINUOUS
 10
6.5083720839
 20
10.6000477814
 11
6.5083720839
 21
14.6000477814
  0
LINE
  5
228
100
AcDbEntity
  8
0
100
AcDbLine
 62
7
  6
CONTINUOUS
 10
5.6333720839
 20
14.6000477814
 11
6.5083720839
 21
14.6000477814
  0
LINE
  5
229
100
AcDbEntity
  8
0
100
AcDbLine
 62
7
  6
CONTINUOUS
 10
13.5603552569
 20
5.4091247313
 11
13.5603552569
 21
5.6151247313
  0
LINE
  5
22A
100
AcDbEntity
  8
0
100
AcDbLine
 62
7
  6
CONTINUOUS
 10
13.6780730994
 20
5.3891672209
 11
13.6926374145
 21
5.3260822416
  0
LINE
  5
22B
100
AcDbEntity
  8
0
100
AcDbLine
 62
7
  6
CONTINUOUS
 10
13.9280730994
 20
5.3260822416
 11
13.9426374145
 21
5.3891672209
  0
LINE
  5
22C
100
AcDbEntity
  8
0
100
AcDbLine
 62
7
  6
CONTINUOUS
 10
14.1780730994
 20
5.3891672209
 11
14.1926374145
 21
5.3260822416
  0
LINE
  5
22D
100
AcDbEntity
  8
0
100
AcDbLine
 62
7
  6
CONTINUOUS
 10
14.4280730994
 20
5.3260822416
 11
14.4426374145
 21
5.3891672209
  0
LINE
  5
22E
100
AcDbEntity
  8
0
100
AcDbLine
 62
7
  6
CONTINUOUS
 10
14.6780730994
 20
5.3891672209
 11
14.6926374145
 21
5.3260822416
  0
LINE
  5
22F
100
AcDbEntity
  8
0
100
AcDbLine
 62
7
  6
CONTINUOUS
 10
14.9280730994
 20
5.3260822416
 11
14.9426374145
 21
5.3891672209
  0
LINE
  5
230
100
AcDbEntity
  8
0
100
AcDbLine
 62
7
  6
CONTINUOUS
 10
15.1780730994
 20
5.3891672209
 11
15.1926374145
 21
5.3260822416
  0
LINE
  5
231
100
AcDbEntity
  8
0
100
AcDbLine
 62
7
  6
CONTINUOUS
 10
13.7177274436
 20
5.3061247313
 11
13.9029830702
 21
5.3061247313
  0
LINE
  5
232
100
AcDbEntity
  8
0
100
AcDbLine
 62
7
  6
CONTINUOUS
 10
14.2177274436
 20
5.3061247313
 11
14.4029830702
 21
5.3061247313
  0
LINE
  5
233
100
AcDbEntity
  8
0
100
AcDbLine
 62
7
  6
CONTINUOUS
 10
14.7177274436
 20
5.3061247313
 11
14.9029830702
 21
5.3061247313
  0
LINE
  5
234
100
AcDbEntity
  8
0
100
AcDbLine
 62
7
  6
CONTINUOUS
 10
15.2177274436
 20
5.3061247313
 11
15.4029830702
 21
5.3061247313
  0
LINE
  5
235
100
AcDbEntity
  8
0
100
AcDbLine
 62
7
  6
CONTINUOUS
 10
15.7177274436
 20
5.3061247313
 11
15.9029830702
 21
5.3061247313
  0
LINE
  5
236
100
AcDbEntity
  8
0
100
AcDbLine
 62
7
  6
CONTINUOUS
 10
16.2177274436
 20
5.3061247313
 11
16.4029830702
 21
5.3061247313
  0
LINE
  5
237
100
AcDbEntity
  8
0
100
AcDbLine
 62
7
  6
CONTINUOUS
 10
16.7177274436
 20
5.3061247313
 11
16.9029830702
 21
5.3061247313
  0
LINE
  5
238
100
AcDbEntity
  8
0
100
AcDbLine
 62
7
  6
CONTINUOUS
 10
17.2177274436
 20
5.3061247313
 11
17.4029830702
 21
5.3061247313
  0
LINE
  5
239
100
AcDbEntity
  8
0
100
AcDbLine
 62
7
  6
CONTINUOUS
 10
15.4280730994
 20
5.3260822416
 11
15.4426374145
 21
5.3891672209
  0
LINE
  5
23A
100
AcDbEntity
  8
0
100
AcDbLine
 62
7
  6
CONTINUOUS
 10
13.5603552569
 20
5.4091247313
 11
13.6529830702
 21
5.4091247313
  0
LINE
  5
23B
100
AcDbEntity
  8
0
100
AcDbLine
 62
7
  6
CONTINUOUS
 10
13.9677274436
 20
5.4091247313
 11
14.1529830702
 21
5.4091247313
  0
LINE
  5
23C
100
AcDbEntity
  8
0
100
AcDbLine
 62
7
  6
CONTINUOUS
 10
14.4677274436
 20
5.4091247313
 11
14.6529830702
 21
5.4091247313
  0
LINE
  5
23D
100
AcDbEntity
  8
0
100
AcDbLine
 62
7
  6
CONTINUOUS
 10
14.9677274436
 20
5.4091247313
 11
15.1529830702
 21
5.4091247313
  0
LINE
  5
23E
100
AcDbEntity
  8
0
100
AcDbLine
 62
7
  6
CONTINUOUS
 10
15.4677274436
 20
5.4091247313
 11
15.6529830702
 21
5.4091247313
  0
LINE
  5
23F
100
AcDbEntity
  8
0
100
AcDbLine
 62
7
  6
CONTINUOUS
 10
15.9677274436
 20
5.4091247313
 11
16.1529830702
 21
5.4091247313
  0
LINE
  5
240
100
AcDbEntity
  8
0
100
AcDbLine
 62
7
  6
CONTINUOUS
 10
16.4677274436
 20
5.4091247313
 11
16.6529830702
 21
5.4091247313
  0
LINE
  5
241
100
AcDbEntity
  8
0
100
AcDbLine
 62
7
  6
CONTINUOUS
 10
16.9677274436
 20
5.4091247313
 11
17.1529830702
 21
5.4091247313
  0
LINE
  5
242
100
AcDbEntity
  8
0
100
AcDbLine
 62
7
  6
CONTINUOUS
 10
17.4677274436
 20
5.4091247313
 11
17.5603552569
 21
5.4091247313
  0
LINE
  5
243
100
AcDbEntity
  8
0
100
AcDbLine
 62
7
  6
CONTINUOUS
 10
15.6780730994
 20
5.3891672209
 11
15.6926374145
 21
5.3260822416
  0
LINE
  5
244
100
AcDbEntity
  8
0
100
AcDbLine
 62
7
  6
CONTINUOUS
 10
13.5603552569
 20
5.6151247313
 11
17.5603552569
 21
5.6151247313
  0
LINE
  5
245
100
AcDbEntity
  8
0
100
AcDbLine
 62
7
  6
CONTINUOUS
 10
15.9280730994
 20
5.3260822416
 11
15.9426374145
 21
5.3891672209
  0
LINE
  5
246
100
AcDbEntity
  8
0
100
AcDbLine
 62
7
  6
CONTINUOUS
 10
16.1780730994
 20
5.3891672209
 11
16.1926374145
 21
5.3260822416
  0
LINE
  5
247
100
AcDbEntity
  8
0
100
AcDbLine
 62
7
  6
CONTINUOUS
 10
16.4280730994
 20
5.3260822416
 11
16.4426374145
 21
5.3891672209
  0
LINE
  5
248
100
AcDbEntity
  8
0
100
AcDbLine
 62
7
  6
CONTINUOUS
 10
16.6780730994
 20
5.3891672209
 11
16.6926374145
 21
5.3260822416
  0
LINE
  5
249
100
AcDbEntity
  8
0
100
AcDbLine
 62
7
  6
CONTINUOUS
 10
16.9280730994
 20
5.3260822416
 11
16.9426374145
 21
5.3891672209
  0
LINE
  5
24A
100
AcDbEntity
  8
0
100
AcDbLine
 62
7
  6
CONTINUOUS
 10
17.1780730994
 20
5.3891672209
 11
17.1926374145
 21
5.3260822416
  0
LINE
  5
24B
100
AcDbEntity
  8
0
100
AcDbLine
 62
7
  6
CONTINUOUS
 10
17.5603552569
 20
5.4091247313
 11
17.5603552569
 21
5.6151247313
  0
LINE
  5
24C
100
AcDbEntity
  8
0
100
AcDbLine
 62
7
  6
CONTINUOUS
 10
17.4280730994
 20
5.3260822416
 11
17.4426374145
 21
5.3891672209
  0
LINE
  5
24D
100
AcDbEntity
  8
0
100
AcDbLine
 62
7
  6
CONTINUOUS
 10
14.6670691765
 20
10.8801253469
 11
15.3889325406
 21
10.8801253469
  0
LINE
  5
24E
100
AcDbEntity
  8
0
100
AcDbLine
 62
7
  6
CONTINUOUS
 10
14.590338036
 20
10.9542821762
 11
14.6382947854
 21
10.8927003768
  0
LWPOLYLINE
  5
24F
100
AcDbEntity
  8
0
100
AcDbPolyline
 62
7
  6
CONTINUOUS
 90
7
 70
0
 10
15.4321970576
 20
10.9296301467
 10
15.4386701555
 20
10.930480182
 10
15.4447403012
 20
10.9329938634
 10
15.4496172817
 20
10.9366699663
 10
15.453233806
 20
10.9410517583
 10
15.4556233728
 20
10.9456978576
 10
15.4562542555
 20
10.9474975732
  0
LINE
  5
250
100
AcDbEntity
  8
0
100
AcDbLine
 62
7
  6
CONTINUOUS
 10
15.4179687204
 20
10.9296298455
 11
15.4322028181
 21
10.9296298455
  0
LINE
  5
251
100
AcDbEntity
  8
0
100
AcDbLine
 62
7
  6
CONTINUOUS
 10
15.3450998941
 20
11.0081770004
 11
14.585224574
 21
11.0081770004
  0
LINE
  5
252
100
AcDbEntity
  8
0
100
AcDbLine
 62
7
  6
CONTINUOUS
 10
14.5698240958
 20
10.9926367512
 11
14.5828253143
 21
10.9661430536
  0
LWPOLYLINE
  5
253
100
AcDbEntity
  8
0
100
AcDbPolyline
 62
7
  6
CONTINUOUS
 90
7
 70
0
 10
15.5532302193
 20
11.3212936015
 10
15.5597033172
 20
11.3221436368
 10
15.5657734629
 20
11.3246573182
 10
15.5706504434
 20
11.3283334211
 10
15.5742669677
 20
11.3327152131
 10
15.5766565345
 20
11.3373613124
 10
15.5772874172
 20
11.339161028
  0
LINE
  5
254
100
AcDbEntity
  8
0
100
AcDbLine
 62
7
  6
CONTINUOUS
 10
15.5390018821
 20
11.3212933004
 11
15.5532359798
 21
11.3212933004
  0
LWPOLYLINE
  5
255
100
AcDbEntity
  8
0
100
AcDbPolyline
 62
7
  6
CONTINUOUS
 90
7
 70
0
 10
15.674263381
 20
11.7129570563
 10
15.6807364789
 20
11.7138070916
 10
15.6868066246
 20
11.716320773
 10
15.6916836051
 20
11.719996876
 10
15.6953001294
 20
11.7243786679
 10
15.6976896962
 20
11.7290247673
 10
15.6983205789
 20
11.7308244828
  0
LINE
  5
256
100
AcDbEntity
  8
0
100
AcDbLine
 62
7
  6
CONTINUOUS
 10
15.6600350438
 20
11.7129567552
 11
15.6742691415
 21
11.7129567552
  0
LINE
  5
257
100
AcDbEntity
  8
0
100
AcDbLine
 62
7
  6
CONTINUOUS
 10
15.388753684
 20
10.9661430536
 11
15.3757524656
 21
10.9926367512
  0
LINE
  5
258
100
AcDbEntity
  8
0
100
AcDbLine
 62
7
  6
CONTINUOUS
 10
14.5689650996
 20
11.0000179355
 11
15.5372303932
 21
14.133325574
  0
LWPOLYLINE
  5
259
100
AcDbEntity
  8
0
100
AcDbPolyline
 62
7
  6
CONTINUOUS
 90
7
 70
0
 10
15.7952965427
 20
12.1046205111
 10
15.8017696406
 20
12.1054705464
 10
15.8078397863
 20
12.1079842279
 10
15.8127167668
 20
12.1116603308
 10
15.8163332911
 20
12.1160421227
 10
15.8187228579
 20
12.1206882221
 10
15.8193537406
 20
12.1224879376
  0
LINE
  5
25A
100
AcDbEntity
  8
0
100
AcDbLine
 62
7
  6
CONTINUOUS
 10
15.7810682055
 20
12.10462021
 11
15.7953023032
 21
12.10462021
  0
LINE
  5
25B
100
AcDbEntity
  8
0
100
AcDbLine
 62
7
  6
CONTINUOUS
 10
15.405365075
 20
10.8927003768
 11
15.3928819088
 21
10.9542821762
  0
LINE
  5
25C
100
AcDbEntity
  8
0
100
AcDbLine
 62
7
  6
CONTINUOUS
 10
15.5022324895
 20
11.1031393899
 11
15.4978089498
 21
11.1537622625
  0
LWPOLYLINE
  5
25D
100
AcDbEntity
  8
0
100
AcDbPolyline
 62
7
  6
CONTINUOUS
 90
8
 70
0
 10
15.4978085524
 20
11.1537682936
 10
15.4977189367
 20
11.1548900982
 10
15.4974660178
 20
11.163501301
 10
15.4979261206
 20
11.1741925384
 10
15.4991754727
 20
11.1857147783
 10
15.5010778321
 20
11.1966616769
 10
15.5033046125
 20
11.2057203214
 10
15.5038008801
 20
11.2073838209
  0
LINE
  5
25E
100
AcDbEntity
  8
0
100
AcDbLine
 62
7
  6
CONTINUOUS
 10
15.5023339162
 20
11.1008022737
 11
15.5022313374
 21
11.1031525943
  0
LINE
  5
25F
100
AcDbEntity
  8
0
100
AcDbLine
 62
7
  6
CONTINUOUS
 10
15.4051916215
 20
10.8882845332
 11
15.405365075
 21
10.8927003768
  0
LWPOLYLINE
  5
260
100
AcDbEntity
  8
0
100
AcDbPolyline
 62
7
  6
CONTINUOUS
 90
7
 70
0
 10
15.9163297044
 20
12.4962839659
 10
15.9228028023
 20
12.4971340012
 10
15.928872948
 20
12.4996476827
 10
15.9337499285
 20
12.5033237856
 10
15.9373664528
 20
12.5077055775
 10
15.9397560196
 20
12.5123516769
 10
15.9403869023
 20
12.5141513925
  0
LINE
  5
261
100
AcDbEntity
  8
0
100
AcDbLine
 62
7
  6
CONTINUOUS
 10
15.9021013673
 20
12.4962836648
 11
15.9163354649
 21
12.4962836648
  0
LINE
  5
262
100
AcDbEntity
  8
0
100
AcDbLine
 62
7
  6
CONTINUOUS
 10
15.6232656512
 20
11.4948028448
 11
15.6188421115
 21
11.5454257173
  0
LWPOLYLINE
  5
263
100
AcDbEntity
  8
0
100
AcDbPolyline
 62
7
  6
CONTINUOUS
 90
8
 70
0
 10
15.6188417141
 20
11.5454317484
 10
15.6187520984
 20
11.546553553
 10
15.6184991795
 20
11.5551647558
 10
15.6189592823
 20
11.5658559932
 10
15.6202086344
 20
11.5773782332
 10
15.6221109938
 20
11.5883251317
 10
15.6243377742
 20
11.5973837762
 10
15.6248340418
 20
11.5990472757
  0
LINE
  5
264
100
AcDbEntity
  8
0
100
AcDbLine
 62
7
  6
CONTINUOUS
 10
15.6233670779
 20
11.4924657285
 11
15.6232644991
 21
11.4948160491
  0
LINE
  5
265
100
AcDbEntity
  8
0
100
AcDbLine
 62
7
  6
CONTINUOUS
 10
16.2778009042
 20
13.7101684763
 11
16.2781157393
 21
13.7107288798
  0
LINE
  5
266
100
AcDbEntity
  8
0
100
AcDbLine
 62
7
  6
CONTINUOUS
 10
15.7442988129
 20
11.8864662996
 11
15.7398752732
 21
11.9370891721
  0
LWPOLYLINE
  5
267
100
AcDbEntity
  8
0
100
AcDbPolyline
 62
7
  6
CONTINUOUS
 90
8
 70
0
 10
15.7398748758
 20
11.9370952032
 10
15.7397852601
 20
11.9382170078
 10
15.7395323412
 20
11.9468282106
 10
15.739992444
 20
11.9575194481
 10
15.7412417961
 20
11.969041688
 10
15.7431441555
 20
11.9799885866
 10
15.7453709359
 20
11.989047231
 10
15.7458672035
 20
11.9907107305
  0
LINE
  5
268
100
AcDbEntity
  8
0
100
AcDbLine
 62
7
  6
CONTINUOUS
 10
15.7444002397
 20
11.8841291833
 11
15.7442976608
 21
11.886479504
  0
LINE
  5
269
100
AcDbEntity
  8
0
100
AcDbLine
 62
7
  6
CONTINUOUS
 10
16.1567677425
 20
13.3185050215
 11
16.1570825776
 21
13.319065425
  0
LINE
  5
26A
100
AcDbEntity
  8
0
100
AcDbLine
 62
7
  6
CONTINUOUS
 10
15.8653319746
 20
12.2781297544
 11
15.8609084349
 21
12.3287526269
  0
LWPOLYLINE
  5
26B
100
AcDbEntity
  8
0
100
AcDbPolyline
 62
7
  6
CONTINUOUS
 90
8
 70
0
 10
15.8609080375
 20
12.328758658
 10
15.8608184218
 20
12.3298804626
 10
15.8605655029
 20
12.3384916655
 10
15.8610256057
 20
12.3491829029
 10
15.8622749578
 20
12.3607051428
 10
15.8641773172
 20
12.3716520414
 10
15.8664040976
 20
12.3807106858
 10
15.8669003652
 20
12.3823741854
  0
LINE
  5
26C
100
AcDbEntity
  8
0
100
AcDbLine
 62
7
  6
CONTINUOUS
 10
15.8654334014
 20
12.2757926382
 11
15.8653308225
 21
12.2781429588
  0
LWPOLYLINE
  5
26D
100
AcDbEntity
  8
0
100
AcDbPolyline
 62
7
  6
CONTINUOUS
 90
3
 70
0
 10
16.2748467384
 20
13.7024885133
 10
16.2766320234
 20
13.7075831171
 10
16.2778009042
 20
13.7101684763
  0
LWPOLYLINE
  5
26E
100
AcDbEntity
  8
0
100
AcDbPolyline
 62
7
  6
CONTINUOUS
 90
3
 70
0
 10
16.1538135767
 20
13.3108250585
 10
16.1555988617
 20
13.3159196623
 10
16.1567677425
 20
13.3185050215
  0
LINE
  5
26F
100
AcDbEntity
  8
0
100
AcDbLine
 62
7
  6
CONTINUOUS
 10
16.0357345808
 20
12.9268415666
 11
16.0360494159
 21
12.9274019702
  0
LINE
  5
270
100
AcDbEntity
  8
0
100
AcDbLine
 62
7
  6
CONTINUOUS
 10
15.9147014191
 20
12.5351781118
 11
15.9150162542
 21
12.5357385154
  0
LWPOLYLINE
  5
271
100
AcDbEntity
  8
0
100
AcDbPolyline
 62
7
  6
CONTINUOUS
 90
7
 70
0
 10
16.0373628661
 20
12.8879474208
 10
16.043835964
 20
12.888797456
 10
16.0499061097
 20
12.8913111375
 10
16.0547830902
 20
12.8949872404
 10
16.0583996145
 20
12.8993690323
 10
16.0607891813
 20
12.9040151317
 10
16.061420064
 20
12.9058148473
  0
LINE
  5
272
100
AcDbEntity
  8
0
100
AcDbLine
 62
7
  6
CONTINUOUS
 10
16.023134529
 20
12.8879471196
 11
16.0373686266
 21
12.8879471196
  0
LWPOLYLINE
  5
273
100
AcDbEntity
  8
0
100
AcDbPolyline
 62
7
  6
CONTINUOUS
 90
4
 70
0
 10
15.5011075096
 20
11.0926428417
 10
15.5015670942
 20
11.0943190167
 10
15.5021366361
 20
11.097504676
 10
15.5023339162
 20
11.1008022737
  0
LWPOLYLINE
  5
274
100
AcDbEntity
  8
0
100
AcDbPolyline
 62
7
  6
CONTINUOUS
 90
4
 70
0
 10
15.6221406713
 20
11.4843062965
 10
15.6226002559
 20
11.4859824715
 10
15.6231697978
 20
11.4891681308
 10
15.6233670779
 20
11.4924657285
  0
LWPOLYLINE
  5
275
100
AcDbEntity
  8
0
100
AcDbPolyline
 62
7
  6
CONTINUOUS
 90
4
 70
0
 10
15.743173833
 20
11.8759697513
 10
15.7436334176
 20
11.8776459263
 10
15.7442029596
 20
11.8808315857
 10
15.7444002397
 20
11.8841291833
  0
LWPOLYLINE
  5
276
100
AcDbEntity
  8
0
100
AcDbPolyline
 62
7
  6
CONTINUOUS
 90
4
 70
0
 10
15.8642069947
 20
12.2676332061
 10
15.8646665793
 20
12.2693093811
 10
15.8652361213
 20
12.2724950405
 10
15.8654334014
 20
12.2757926382
  0
LWPOLYLINE
  5
277
100
AcDbEntity
  8
0
100
AcDbPolyline
 62
7
  6
CONTINUOUS
 90
4
 70
0
 10
15.9852401564
 20
12.6592966609
 10
15.985699741
 20
12.660972836
 10
15.986269283
 20
12.6641584953
 10
15.9864665631
 20
12.667456093
  0
LWPOLYLINE
  5
278
100
AcDbEntity
  8
0
100
AcDbPolyline
 62
7
  6
CONTINUOUS
 90
4
 70
0
 10
16.1062733181
 20
13.0509601157
 10
16.1067329027
 20
13.0526362908
 10
16.1073024447
 20
13.0558219501
 10
16.1074997248
 20
13.0591195478
  0
LWPOLYLINE
  5
279
100
AcDbEntity
  8
0
100
AcDbPolyline
 62
7
  6
CONTINUOUS
 90
4
 70
0
 10
16.2273064798
 20
13.4426235705
 10
16.2277660644
 20
13.4442997456
 10
16.2283356064
 20
13.4474854049
 10
16.2285328865
 20
13.4507830026
  0
LWPOLYLINE
  5
27A
100
AcDbEntity
  8
0
100
AcDbPolyline
 62
7
  6
CONTINUOUS
 90
4
 70
0
 10
16.3483396415
 20
13.8342870253
 10
16.3487992261
 20
13.8359632004
 10
16.3493687681
 20
13.8391488597
 10
16.3495660482
 20
13.8424464574
  0
LINE
  5
27B
100
AcDbEntity
  8
0
100
AcDbLine
 62
7
  6
CONTINUOUS
 10
15.4051920151
 20
10.8882844118
 11
15.4276140889
 21
10.9608422693
  0
LINE
  5
27C
100
AcDbEntity
  8
0
100
AcDbLine
 62
7
  6
CONTINUOUS
 10
15.5038031026
 20
11.2073900079
 11
15.5486472506
 21
11.3525057241
  0
LINE
  5
27D
100
AcDbEntity
  8
0
100
AcDbLine
 62
7
  6
CONTINUOUS
 10
15.6248362643
 20
11.5990534627
 11
15.6696804123
 21
11.7441691789
  0
LINE
  5
27E
100
AcDbEntity
  8
0
100
AcDbLine
 62
7
  6
CONTINUOUS
 10
15.745869426
 20
11.9907169175
 11
15.790713574
 21
12.1358326337
  0
LINE
  5
27F
100
AcDbEntity
  8
0
100
AcDbLine
 62
7
  6
CONTINUOUS
 10
15.8669025877
 20
12.3823803723
 11
15.9117467357
 21
12.5274960885
  0
LINE
  5
280
100
AcDbEntity
  8
0
100
AcDbLine
 62
7
  6
CONTINUOUS
 10
15.9879357494
 20
12.7740438271
 11
16.0327798974
 21
12.9191595433
  0
LINE
  5
281
100
AcDbEntity
  8
0
100
AcDbLine
 62
7
  6
CONTINUOUS
 10
16.1089689111
 20
13.165707282
 11
16.1538130591
 21
13.3108229981
  0
LINE
  5
282
100
AcDbEntity
  8
0
100
AcDbLine
 62
7
  6
CONTINUOUS
 10
16.2300020728
 20
13.5573707368
 11
16.2748462208
 21
13.702486453
  0
LINE
  5
283
100
AcDbEntity
  8
0
100
AcDbLine
 62
7
  6
CONTINUOUS
 10
16.3510352345
 20
13.9490341916
 11
16.3734573087
 21
14.0215920503
  0
LINE
  5
284
100
AcDbEntity
  8
0
100
AcDbLine
 62
7
  6
CONTINUOUS
 10
15.4562651135
 20
10.9475324538
 11
15.5011092673
 21
11.0926481885
  0
LINE
  5
285
100
AcDbEntity
  8
0
100
AcDbLine
 62
7
  6
CONTINUOUS
 10
15.5772982752
 20
11.3391959086
 11
15.622142429
 21
11.4843116433
  0
LINE
  5
286
100
AcDbEntity
  8
0
100
AcDbLine
 62
7
  6
CONTINUOUS
 10
15.698331437
 20
11.7308593634
 11
15.7431755907
 21
11.8759750981
  0
LINE
  5
287
100
AcDbEntity
  8
0
100
AcDbLine
 62
7
  6
CONTINUOUS
 10
15.8193645987
 20
12.1225228182
 11
15.8642087524
 21
12.2676385529
  0
LINE
  5
288
100
AcDbEntity
  8
0
100
AcDbLine
 62
7
  6
CONTINUOUS
 10
15.9403977604
 20
12.514186273
 11
15.9852419141
 21
12.6593020077
  0
LINE
  5
289
100
AcDbEntity
  8
0
100
AcDbLine
 62
7
  6
CONTINUOUS
 10
16.0614309221
 20
12.9058497278
 11
16.1062750758
 21
13.0509654626
  0
LINE
  5
28A
100
AcDbEntity
  8
0
100
AcDbLine
 62
7
  6
CONTINUOUS
 10
16.1824640838
 20
13.2975131827
 11
16.2273082375
 21
13.4426289174
  0
LINE
  5
28B
100
AcDbEntity
  8
0
100
AcDbLine
 62
7
  6
CONTINUOUS
 10
16.3034972455
 20
13.6891766375
 11
16.3483413992
 21
13.8342923722
  0
LWPOLYLINE
  5
28C
100
AcDbEntity
  8
0
100
AcDbPolyline
 62
7
  6
CONTINUOUS
 90
3
 70
0
 10
16.032780415
 20
12.9191616037
 10
16.0345657
 20
12.9242562075
 10
16.0357345808
 20
12.9268415666
  0
LWPOLYLINE
  5
28D
100
AcDbEntity
  8
0
100
AcDbPolyline
 62
7
  6
CONTINUOUS
 90
3
 70
0
 10
15.9117472533
 20
12.5274981489
 10
15.9135325383
 20
12.5325927527
 10
15.9147014191
 20
12.5351781118
  0
LWPOLYLINE
  5
28E
100
AcDbEntity
  8
0
100
AcDbPolyline
 62
7
  6
CONTINUOUS
 90
3
 70
0
 10
15.7907140916
 20
12.1358346941
 10
15.7924993766
 20
12.1409292978
 10
15.7936682574
 20
12.143514657
  0
LWPOLYLINE
  5
28F
100
AcDbEntity
  8
0
100
AcDbPolyline
 62
7
  6
CONTINUOUS
 90
3
 70
0
 10
15.6696809299
 20
11.7441712393
 10
15.6714662149
 20
11.749265843
 10
15.6726350957
 20
11.7518512022
  0
LWPOLYLINE
  5
290
100
AcDbEntity
  8
0
100
AcDbPolyline
 62
7
  6
CONTINUOUS
 90
3
 70
0
 10
15.5486477682
 20
11.3525077844
 10
15.5504330532
 20
11.3576023882
 10
15.551601934
 20
11.3601877474
  0
LWPOLYLINE
  5
291
100
AcDbEntity
  8
0
100
AcDbPolyline
 62
7
  6
CONTINUOUS
 90
3
 70
0
 10
15.4276146065
 20
10.9608443296
 10
15.4293998915
 20
10.9659389334
 10
15.4305687723
 20
10.9685242926
  0
LINE
  5
292
100
AcDbEntity
  8
0
100
AcDbLine
 62
7
  6
CONTINUOUS
 10
15.7936682574
 20
12.143514657
 11
15.7939830925
 21
12.1440750606
  0
LINE
  5
293
100
AcDbEntity
  8
0
100
AcDbLine
 62
7
  6
CONTINUOUS
 10
15.9863651363
 20
12.6697932092
 11
15.9819415966
 21
12.7204160818
  0
LWPOLYLINE
  5
294
100
AcDbEntity
  8
0
100
AcDbPolyline
 62
7
  6
CONTINUOUS
 90
8
 70
0
 10
15.9819411992
 20
12.7204221129
 10
15.9818515835
 20
12.7215439174
 10
15.9815986646
 20
12.7301551203
 10
15.9820587674
 20
12.7408463577
 10
15.9833081196
 20
12.7523685976
 10
15.9852104789
 20
12.7633154962
 10
15.9874372593
 20
12.7723741406
 10
15.9879335269
 20
12.7740376402
  0
LINE
  5
295
100
AcDbEntity
  8
0
100
AcDbLine
 62
7
  6
CONTINUOUS
 10
15.9864665631
 20
12.667456093
 11
15.9863639842
 21
12.6698064136
  0
LINE
  5
296
100
AcDbEntity
  8
0
100
AcDbLine
 62
7
  6
CONTINUOUS
 10
15.6726350957
 20
11.7518512022
 11
15.6729499308
 21
11.7524116058
  0
LINE
  5
297
100
AcDbEntity
  8
0
100
AcDbLine
 62
7
  6
CONTINUOUS
 10
15.551601934
 20
11.3601877474
 11
15.5519167691
 21
11.360748151
  0
LINE
  5
298
100
AcDbEntity
  8
0
100
AcDbLine
 62
7
  6
CONTINUOUS
 10
16.107398298
 20
13.061456664
 11
16.1029747583
 21
13.1120795366
  0
LWPOLYLINE
  5
299
100
AcDbEntity
  8
0
100
AcDbPolyline
 62
7
  6
CONTINUOUS
 90
8
 70
0
 10
16.1029743609
 20
13.1120855677
 10
16.1028847452
 20
13.1132073722
 10
16.1026318263
 20
13.1218185751
 10
16.1030919291
 20
13.1325098125
 10
16.1043412813
 20
13.1440320524
 10
16.1062436406
 20
13.154978951
 10
16.1084704211
 20
13.1640375954
 10
16.1089666886
 20
13.165701095
  0
LINE
  5
29A
100
AcDbEntity
  8
0
100
AcDbLine
 62
7
  6
CONTINUOUS
 10
16.1074997248
 20
13.0591195478
 11
16.1073971459
 21
13.0614698684
  0
LINE
  5
29B
100
AcDbEntity
  8
0
100
AcDbLine
 62
7
  6
CONTINUOUS
 10
15.4305687723
 20
10.9685242926
 11
15.4308836074
 21
10.9690846961
  0
LWPOLYLINE
  5
29C
100
AcDbEntity
  8
0
100
AcDbPolyline
 62
7
  6
CONTINUOUS
 90
7
 70
0
 10
16.1583960278
 20
13.2796108756
 10
16.1648691257
 20
13.2804609108
 10
16.1709392714
 20
13.2829745923
 10
16.1758162519
 20
13.2866506952
 10
16.1794327762
 20
13.2910324872
 10
16.181822343
 20
13.2956785865
 10
16.1824532257
 20
13.2974783021
  0
LINE
  5
29D
100
AcDbEntity
  8
0
100
AcDbLine
 62
7
  6
CONTINUOUS
 10
16.2284314597
 20
13.4531201188
 11
16.22400792
 21
13.5037429914
  0
LWPOLYLINE
  5
29E
100
AcDbEntity
  8
0
100
AcDbPolyline
 62
7
  6
CONTINUOUS
 90
8
 70
0
 10
16.2240075226
 20
13.5037490225
 10
16.2239179069
 20
13.504870827
 10
16.223664988
 20
13.5134820299
 10
16.2241250909
 20
13.5241732673
 10
16.225374443
 20
13.5356955072
 10
16.2272768023
 20
13.5466424058
 10
16.2295035828
 20
13.5557010503
 10
16.2299998503
 20
13.5573645498
  0
LINE
  5
29F
100
AcDbEntity
  8
0
100
AcDbLine
 62
7
  6
CONTINUOUS
 10
16.2285328865
 20
13.4507830026
 11
16.2284303076
 21
13.4531333232
  0
LINE
  5
2A0
100
AcDbEntity
  8
0
100
AcDbLine
 62
7
  6
CONTINUOUS
 10
16.3736303686
 20
14.0260080153
 11
16.3734569151
 21
14.0215921717
  0
LINE
  5
2A1
100
AcDbEntity
  8
0
100
AcDbLine
 62
7
  6
CONTINUOUS
 10
16.1441676907
 20
13.2796105744
 11
16.1584017883
 21
13.2796105744
  0
LINE
  5
2A2
100
AcDbEntity
  8
0
100
AcDbLine
 62
7
  6
CONTINUOUS
 10
16.3494646214
 20
13.8447835736
 11
16.3450410817
 21
13.8954064462
  0
LWPOLYLINE
  5
2A3
100
AcDbEntity
  8
0
100
AcDbPolyline
 62
7
  6
CONTINUOUS
 90
8
 70
0
 10
16.3450406843
 20
13.8954124773
 10
16.3449510686
 20
13.8965342819
 10
16.3446981497
 20
13.9051454847
 10
16.3451582526
 20
13.9158367221
 10
16.3464076047
 20
13.927358962
 10
16.348309964
 20
13.9383058606
 10
16.3505367445
 20
13.9473645051
 10
16.351033012
 20
13.9490280046
  0
LINE
  5
2A4
100
AcDbEntity
  8
0
100
AcDbLine
 62
7
  6
CONTINUOUS
 10
16.3495660482
 20
13.8424464574
 11
16.3494634693
 21
13.844796778
  0
LWPOLYLINE
  5
2A5
100
AcDbEntity
  8
0
100
AcDbPolyline
 62
7
  6
CONTINUOUS
 90
7
 70
0
 10
16.2794291895
 20
13.6712743304
 10
16.2859022874
 20
13.6721243657
 10
16.2919724331
 20
13.6746380471
 10
16.2968494136
 20
13.67831415
 10
16.300465938
 20
13.682695942
 10
16.3028555047
 20
13.6873420413
 10
16.3034863874
 20
13.6891417569
  0
LINE
  5
2A6
100
AcDbEntity
  8
0
100
AcDbLine
 62
7
  6
CONTINUOUS
 10
16.2652008524
 20
13.6712740292
 11
16.27943495
 21
13.6712740292
  0
LINE
  5
2A7
100
AcDbEntity
  8
0
100
AcDbLine
 62
7
  6
CONTINUOUS
 10
16.3736303686
 20
14.0260080153
 11
16.3611472024
 21
14.0875898147
  0
LINE
  5
2A8
100
AcDbEntity
  8
0
100
AcDbLine
 62
7
  6
CONTINUOUS
 10
16.3570189777
 20
14.0994506921
 11
16.3440177592
 21
14.1259443897
  0
LINE
  5
2A9
100
AcDbEntity
  8
0
100
AcDbLine
 62
7
  6
CONTINUOUS
 10
16.3133651877
 20
14.1414846389
 11
15.5534898677
 21
14.1414846389
  0
ARC
  5
2AA
100
AcDbEntity
  8
0
100
AcDbCircle
 62
7
  6
CONTINUOUS
 10
5.7385021506
 20
5.4936199236
 40
0.025
100
AcDbArc
 50
191.0
 51
270.0
  0
ARC
  5
2AB
100
AcDbEntity
  8
0
100
AcDbCircle
 62
7
  6
CONTINUOUS
 10
5.7585233232
 20
5.3906199198
 40
0.025
100
AcDbArc
 50
190.9999911821
 51
269.9999983174
  0
ARC
  5
2AC
100
AcDbEntity
  8
0
100
AcDbCircle
 62
7
  6
CONTINUOUS
 10
5.7928672762
 20
5.6069988284
 40
0.1
100
AcDbArc
 50
180.0
 51
191.0
  0
ARC
  5
2AD
100
AcDbEntity
  8
0
100
AcDbCircle
 62
7
  6
CONTINUOUS
 10
5.7178672762
 20
5.6496199236
 40
0.025
100
AcDbArc
 50
90.0
 51
180.0
  0
ARC
  5
2AE
100
AcDbEntity
  8
0
100
AcDbCircle
 62
7
  6
CONTINUOUS
 10
6.5222324017
 20
5.4936199236
 40
0.025
100
AcDbArc
 50
270.0
 51
349.0
  0
ARC
  5
2AF
100
AcDbEntity
  8
0
100
AcDbCircle
 62
7
  6
CONTINUOUS
 10
6.5022112299
 20
5.3906199236
 40
0.025
100
AcDbArc
 50
270.0
 51
349.0
  0
ARC
  5
2B0
100
AcDbEntity
  8
0
100
AcDbCircle
 62
7
  6
CONTINUOUS
 10
6.4678672762
 20
5.6069988284
 40
0.1
100
AcDbArc
 50
349.0
 51
360.0
  0
ARC
  5
2B1
100
AcDbEntity
  8
0
100
AcDbCircle
 62
7
  6
CONTINUOUS
 10
6.5428672762
 20
5.6496199236
 40
0.025
100
AcDbArc
 50
0.0
 51
90.0
  0
ARC
  5
2B2
100
AcDbEntity
  8
0
100
AcDbCircle
 62
7
  6
CONTINUOUS
 10
13.7177274436
 20
5.3318747313
 40
0.02575
100
AcDbArc
 50
193.0
 51
270.0
  0
ARC
  5
2B3
100
AcDbEntity
  8
0
100
AcDbCircle
 62
7
  6
CONTINUOUS
 10
13.9029830702
 20
5.3318747313
 40
0.02575
100
AcDbArc
 50
270.0
 51
347.0
  0
ARC
  5
2B4
100
AcDbEntity
  8
0
100
AcDbCircle
 62
7
  6
CONTINUOUS
 10
14.2177274436
 20
5.3318747313
 40
0.02575
100
AcDbArc
 50
193.0
 51
270.0
  0
ARC
  5
2B5
100
AcDbEntity
  8
0
100
AcDbCircle
 62
7
  6
CONTINUOUS
 10
14.4029830702
 20
5.3318747313
 40
0.02575
100
AcDbArc
 50
270.0
 51
347.0
  0
ARC
  5
2B6
100
AcDbEntity
  8
0
100
AcDbCircle
 62
7
  6
CONTINUOUS
 10
14.7177274436
 20
5.3318747313
 40
0.02575
100
AcDbArc
 50
193.0
 51
270.0
  0
ARC
  5
2B7
100
AcDbEntity
  8
0
100
AcDbCircle
 62
7
  6
CONTINUOUS
 10
14.9029830702
 20
5.3318747313
 40
0.02575
100
AcDbArc
 50
270.0
 51
347.0
  0
ARC
  5
2B8
100
AcDbEntity
  8
0
100
AcDbCircle
 62
7
  6
CONTINUOUS
 10
15.2177274436
 20
5.3318747313
 40
0.02575
100
AcDbArc
 50
193.0
 51
270.0
  0
ARC
  5
2B9
100
AcDbEntity
  8
0
100
AcDbCircle
 62
7
  6
CONTINUOUS
 10
15.4029830702
 20
5.3318747313
 40
0.02575
100
AcDbArc
 50
270.0
 51
347.0
  0
ARC
  5
2BA
100
AcDbEntity
  8
0
100
AcDbCircle
 62
7
  6
CONTINUOUS
 10
13.6529830702
 20
5.3833747313
 40
0.02575
100
AcDbArc
 50
13.0
 51
90.0
  0
ARC
  5
2BB
100
AcDbEntity
  8
0
100
AcDbCircle
 62
7
  6
CONTINUOUS
 10
13.9677274436
 20
5.3833747313
 40
0.02575
100
AcDbArc
 50
90.0
 51
167.0
  0
ARC
  5
2BC
100
AcDbEntity
  8
0
100
AcDbCircle
 62
7
  6
CONTINUOUS
 10
14.1529830702
 20
5.3833747313
 40
0.02575
100
AcDbArc
 50
13.0
 51
90.0
  0
ARC
  5
2BD
100
AcDbEntity
  8
0
100
AcDbCircle
 62
7
  6
CONTINUOUS
 10
14.4677274436
 20
5.3833747313
 40
0.02575
100
AcDbArc
 50
90.0
 51
167.0
  0
ARC
  5
2BE
100
AcDbEntity
  8
0
100
AcDbCircle
 62
7
  6
CONTINUOUS
 10
14.6529830702
 20
5.3833747313
 40
0.02575
100
AcDbArc
 50
13.0
 51
90.0
  0
ARC
  5
2BF
100
AcDbEntity
  8
0
100
AcDbCircle
 62
7
  6
CONTINUOUS
 10
14.9677274436
 20
5.3833747313
 40
0.02575
100
AcDbArc
 50
90.0
 51
167.0
  0
ARC
  5
2C0
100
AcDbEntity
  8
0
100
AcDbCircle
 62
7
  6
CONTINUOUS
 10
15.1529830702
 20
5.3833747313
 40
0.02575
100
AcDbArc
 50
13.0
 51
90.0
  0
ARC
  5
2C1
100
AcDbEntity
  8
0
100
AcDbCircle
 62
7
  6
CONTINUOUS
 10
15.4677274436
 20
5.3833747313
 40
0.02575
100
AcDbArc
 50
90.0
 51
167.0
  0
ARC
  5
2C2
100
AcDbEntity
  8
0
100
AcDbCircle
 62
7
  6
CONTINUOUS
 10
17.4029830702
 20
5.3318747313
 40
0.02575
100
AcDbArc
 50
270.0
 51
347.0
  0
ARC
  5
2C3
100
AcDbEntity
  8
0
100
AcDbCircle
 62
7
  6
CONTINUOUS
 10
17.2177274436
 20
5.3318747313
 40
0.02575
100
AcDbArc
 50
193.0
 51
270.0
  0
ARC
  5
2C4
100
AcDbEntity
  8
0
100
AcDbCircle
 62
7
  6
CONTINUOUS
 10
16.9029830702
 20
5.3318747313
 40
0.02575
100
AcDbArc
 50
270.0
 51
347.0
  0
ARC
  5
2C5
100
AcDbEntity
  8
0
100
AcDbCircle
 62
7
  6
CONTINUOUS
 10
16.7177274436
 20
5.3318747313
 40
0.02575
100
AcDbArc
 50
193.0
 51
270.0
  0
ARC
  5
2C6
100
AcDbEntity
  8
0
100
AcDbCircle
 62
7
  6
CONTINUOUS
 10
16.4029830702
 20
5.3318747313
 40
0.02575
100
AcDbArc
 50
270.0
 51
347.0
  0
ARC
  5
2C7
100
AcDbEntity
  8
0
100
AcDbCircle
 62
7
  6
CONTINUOUS
 10
16.2177274436
 20
5.3318747313
 40
0.02575
100
AcDbArc
 50
193.0
 51
270.0
  0
ARC
  5
2C8
100
AcDbEntity
  8
0
100
AcDbCircle
 62
7
  6
CONTINUOUS
 10
15.9029830702
 20
5.3318747313
 40
0.02575
100
AcDbArc
 50
270.0
 51
347.0
  0
ARC
  5
2C9
100
AcDbEntity
  8
0
100
AcDbCircle
 62
7
  6
CONTINUOUS
 10
15.7177274436
 20
5.3318747313
 40
0.02575
100
AcDbArc
 50
193.0
 51
270.0
  0
ARC
  5
2CA
100
AcDbEntity
  8
0
100
AcDbCircle
 62
7
  6
CONTINUOUS
 10
17.4677274436
 20
5.3833747313
 40
0.02575
100
AcDbArc
 50
90.0
 51
167.0
  0
ARC
  5
2CB
100
AcDbEntity
  8
0
100
AcDbCircle
 62
7
  6
CONTINUOUS
 10
17.1529830702
 20
5.3833747313
 40
0.02575
100
AcDbArc
 50
13.0
 51
90.0
  0
ARC
  5
2CC
100
AcDbEntity
  8
0
100
AcDbCircle
 62
7
  6
CONTINUOUS
 10
16.9677274436
 20
5.3833747313
 40
0.02575
100
AcDbArc
 50
90.0
 51
167.0
  0
ARC
  5
2CD
100
AcDbEntity
  8
0
100
AcDbCircle
 62
7
  6
CONTINUOUS
 10
16.6529830702
 20
5.3833747313
 40
0.02575
100
AcDbArc
 50
13.0
 51
90.0
  0
ARC
  5
2CE
100
AcDbEntity
  8
0
100
AcDbCircle
 62
7
  6
CONTINUOUS
 10
16.4677274436
 20
5.3833747313
 40
0.02575
100
AcDbArc
 50
90.0
 51
167.0
  0
ARC
  5
2CF
100
AcDbEntity
  8
0
100
AcDbCircle
 62
7
  6
CONTINUOUS
 10
16.1529830702
 20
5.3833747313
 40
0.02575
100
AcDbArc
 50
13.0
 51
90.0
  0
ARC
  5
2D0
100
AcDbEntity
  8
0
100
AcDbCircle
 62
7
  6
CONTINUOUS
 10
15.9677274436
 20
5.3833747313
 40
0.02575
100
AcDbArc
 50
90.0
 51
167.0
  0
ARC
  5
2D1
100
AcDbEntity
  8
0
100
AcDbCircle
 62
7
  6
CONTINUOUS
 10
15.6529830702
 20
5.3833747313
 40
0.02575
100
AcDbArc
 50
13.0
 51
90.0
  0
SPLINE
  5
2D2
100
AcDbEntity
  8
0
100
AcDbSpline
 62
7
  6
CONTINUOUS
 70
0
 71
3
 72
15
 73
11
 74
0
 42
0.0000001
 43
0.0000001
 44
0.0000000001
 40
0.0
 40
0.0
 40
0.0
 40
0.0
 40
0.1295680983
 40
0.2645750085
 40
0.4012659253
 40
0.5362717555
 40
0.666215877
 40
0.788101692
 40
0.8998147666
 40
1.0
 40
1.0
 40
1.0
 40
1.0
 10
16.3133651877
 20
14.1414846389
 30
0.0
 10
16.3149134412
 20
14.1414846389
 30
0.0
 10
16.3180773857
 20
14.1412694181
 30
0.0
 10
16.3227998991
 20
14.1403855184
 30
0.0
 10
16.3274562129
 20
14.1389580687
 30
0.0
 10
16.3318680915
 20
14.137042751
 30
0.0
 10
16.335874285
 20
14.1347140565
 30
0.0
 10
16.339326366
 20
14.1320527161
 30
0.0
 10
16.342092226
 20
14.1291566785
 30
0.0
 10
16.3434903646
 20
14.127019107
 30
0.0
 10
16.3440177592
 20
14.1259443897
 30
0.0
  0
SPLINE
  5
2D3
100
AcDbEntity
  8
0
100
AcDbSpline
 62
7
  6
CONTINUOUS
 70
0
 71
3
 72
15
 73
11
 74
0
 42
0.0000001
 43
0.0000001
 44
0.0000000001
 40
0.0
 40
0.0
 40
0.0
 40
0.0
 40
0.0996463886
 40
0.2028723266
 40
0.3125946236
 40
0.4308580427
 40
0.5588167296
 40
0.6968324884
 40
0.8443988049
 40
1.0
 40
1.0
 40
1.0
 40
1.0
 10
15.5372303826
 20
14.1333255811
 30
0.0
 10
15.5374204977
 20
14.1339408246
 30
0.0
 10
15.5379591339
 20
14.1351517712
 30
0.0
 10
15.5391901217
 20
14.13677272
 30
0.0
 10
15.540813515
 20
14.1381878857
 30
0.0
 10
15.5427976901
 20
14.1393719409
 30
0.0
 10
15.5451052382
 20
14.1403105705
 30
0.0
 10
15.5476968479
 20
14.1409893028
 30
0.0
 10
15.5505237157
 20
14.1413969596
 30
0.0
 10
15.552484322
 20
14.1414846389
 30
0.0
 10
15.5534898677
 20
14.1414846389
 30
0.0
  0
SPLINE
  5
2D4
100
AcDbEntity
  8
0
100
AcDbSpline
 62
7
  6
CONTINUOUS
 70
0
 71
3
 72
11
 73
7
 74
0
 42
0.0000001
 43
0.0000001
 44
0.0000000001
 40
0.0
 40
0.0
 40
0.0
 40
0.0
 40
0.2336955844
 40
0.4747288284
 40
0.7289545298
 40
1.0
 40
1.0
 40
1.0
 40
1.0
 10
14.568965089
 20
11.0000179426
 30
0.0
 10
14.5687902341
 20
10.9994520838
 30
0.0
 10
14.568559921
 20
10.9982599349
 30
0.0
 10
14.5686022025
 20
10.9964006557
 30
0.0
 10
14.5690200143
 20
10.9944934835
 30
0.0
 10
14.5695214804
 20
10.9932534167
 30
0.0
 10
14.5698240958
 20
10.9926367512
 30
0.0
  0
SPLINE
  5
2D5
100
AcDbEntity
  8
0
100
AcDbSpline
 62
7
  6
CONTINUOUS
 70
0
 71
3
 72
9
 73
5
 74
0
 42
0.0000001
 43
0.0000001
 44
0.0000000001
 40
0.0
 40
0.0
 40
0.0
 40
0.0
 40
0.5134075832
 40
1.0
 40
1.0
 40
1.0
 40
1.0
 10
16.3570189777
 20
14.0994506921
 30
0.0
 10
16.3579677594
 20
14.0975172782
 30
0.0
 10
16.3596083494
 20
14.0936444837
 30
0.0
 10
16.3607416851
 20
14.0895903077
 30
0.0
 10
16.3611472024
 20
14.0875898147
 30
0.0
  0
SPLINE
  5
2D6
100
AcDbEntity
  8
0
100
AcDbSpline
 62
7
  6
CONTINUOUS
 70
0
 71
3
 72
14
 73
10
 74
0
 42
0.0000001
 43
0.0000001
 44
0.0000000001
 40
0.0
 40
0.0
 40
0.0
 40
0.0
 40
0.1555865073
 40
0.3032329059
 40
0.5688638834
 40
0.6871849088
 40
0.7969112138
 40
0.900185722
 40
1.0
 40
1.0
 40
1.0
 40
1.0
 10
15.3889325406
 20
10.8801253469
 30
0.0
 10
15.3899374113
 20
10.8801253469
 30
0.0
 10
15.3918981819
 20
10.8802133225
 30
0.0
 10
15.3955362493
 20
10.8807380931
 30
0.0
 10
15.3988575393
 20
10.8817821611
 30
0.0
 10
15.4016081121
 20
10.8834211114
 30
0.0
 10
15.4032318854
 20
10.8848355163
 30
0.0
 10
15.4044622285
 20
10.8864570938
 30
0.0
 10
15.4050018606
 20
10.8876684346
 30
0.0
 10
15.4051914635
 20
10.888284582
 30
0.0
  0
SPLINE
  5
2D7
100
AcDbEntity
  8
0
100
AcDbSpline
 62
7
  6
CONTINUOUS
 70
0
 71
3
 72
15
 73
11
 74
0
 42
0.0000001
 43
0.0000001
 44
0.0000000001
 40
0.0
 40
0.0
 40
0.0
 40
0.0
 40
0.1075852687
 40
0.2244574681
 40
0.3487075992
 40
0.4782296153
 40
0.610708163
 40
0.7436385837
 40
0.8743957239
 40
1.0
 40
1.0
 40
1.0
 40
1.0
 10
14.6382947854
 20
10.8927003768
 30
0.0
 10
14.6390074438
 20
10.8917852442
 30
0.0
 10
14.6406606245
 20
10.8900031707
 30
0.0
 10
14.6435716766
 20
10.8876099481
 30
0.0
 10
14.6469471699
 20
10.8854549932
 30
0.0
 10
14.6506816743
 20
10.8835962816
 30
0.0
 10
14.6546713988
 20
10.882089728
 30
0.0
 10
14.6588016944
 20
10.880974563
 30
0.0
 10
14.6629495005
 20
10.8802912023
 30
0.0
 10
14.665715019
 20
10.8801253469
 30
0.0
 10
14.6670691765
 20
10.8801253469
 30
0.0
  0
SPLINE
  5
2D8
100
AcDbEntity
  8
0
100
AcDbSpline
 62
7
  6
CONTINUOUS
 70
0
 71
3
 72
9
 73
5
 74
0
 42
0.0000001
 43
0.0000001
 44
0.0000000001
 40
0.0
 40
0.0
 40
0.0
 40
0.0
 40
0.2397652042
 40
1.0
 40
1.0
 40
1.0
 40
1.0
 10
14.5828253143
 20
10.9661430536
 30
0.0
 10
14.5833201484
 20
10.9651346877
 30
0.0
 10
14.5855061438
 20
10.960989289
 30
0.0
 10
14.5881497856
 20
10.957092133
 30
0.0
 10
14.590338036
 20
10.9542821762
 30
0.0
  0
SPLINE
  5
2D9
100
AcDbEntity
  8
0
100
AcDbSpline
 62
7
  6
CONTINUOUS
 70
0
 71
3
 72
9
 73
5
 74
0
 42
0.0000001
 43
0.0000001
 44
0.0000000001
 40
0.0
 40
0.0
 40
0.0
 40
0.0
 40
0.4865924168
 40
1.0
 40
1.0
 40
1.0
 40
1.0
 10
15.3928819088
 20
10.9542821762
 30
0.0
 10
15.3924763914
 20
10.9562826692
 30
0.0
 10
15.3913430558
 20
10.9603368452
 30
0.0
 10
15.3897024657
 20
10.9642096397
 30
0.0
 10
15.388753684
 20
10.9661430536
 30
0.0
  0
SPLINE
  5
2DA
100
AcDbEntity
  8
0
100
AcDbSpline
 62
7
  6
CONTINUOUS
 70
0
 71
3
 72
15
 73
11
 74
0
 42
0.0000001
 43
0.0000001
 44
0.0000000001
 40
0.0
 40
0.0
 40
0.0
 40
0.0
 40
0.1001852334
 40
0.211898308
 40
0.333784123
 40
0.4637282445
 40
0.5987340747
 40
0.7354249915
 40
0.8704319017
 40
1.0
 40
1.0
 40
1.0
 40
1.0
 10
15.3757524656
 20
10.9926367512
 30
0.0
 10
15.3752250709
 20
10.9937114685
 30
0.0
 10
15.3738269323
 20
10.99584904
 30
0.0
 10
15.3710610724
 20
10.9987450776
 30
0.0
 10
15.3676089914
 20
11.0014064179
 30
0.0
 10
15.3636027978
 20
11.0037351125
 30
0.0
 10
15.3591909193
 20
11.0056504302
 30
0.0
 10
15.3545346055
 20
11.0070778799
 30
0.0
 10
15.3498120921
 20
11.0079617796
 30
0.0
 10
15.3466481476
 20
11.0081770004
 30
0.0
 10
15.3450998941
 20
11.0081770004
 30
0.0
  0
SPLINE
  5
2DB
100
AcDbEntity
  8
0
100
AcDbSpline
 62
7
  6
CONTINUOUS
 70
0
 71
3
 72
15
 73
11
 74
0
 42
0.0000001
 43
0.0000001
 44
0.0000000001
 40
0.0
 40
0.0
 40
0.0
 40
0.0
 40
0.1556011951
 40
0.3031675116
 40
0.4411832704
 40
0.5691419573
 40
0.6874053764
 40
0.7971276734
 40
0.9003536114
 40
1.0
 40
1.0
 40
1.0
 40
1.0
 10
14.585224574
 20
11.0081770004
 30
0.0
 10
14.5842190284
 20
11.0081770004
 30
0.0
 10
14.5822584221
 20
11.0080893211
 30
0.0
 10
14.5794315543
 20
11.0076816642
 30
0.0
 10
14.5768399445
 20
11.0070029319
 30
0.0
 10
14.5745323965
 20
11.0060643024
 30
0.0
 10
14.5725482213
 20
11.0048802472
 30
0.0
 10
14.5709248281
 20
11.0034650815
 30
0.0
 10
14.5696938402
 20
11.0018441327
 30
0.0
 10
14.5691552041
 20
11.0006331861
 30
0.0
 10
14.568965089
 20
11.0000179426
 30
0.0
  0
ENDSEC
  0
SECTION
  2
OBJECTS
  0
DICTIONARY
  5
C
100
AcDbDictionary
280
0
281
1
  3
ACAD_GROUP
350
D
  3
ACAD_MLINESTYLE
350
17
  3
ACAD_LAYOUT
350
1A
  3
ACAD_PLOTSETTINGS
350
19
  3
ACAD_PLOTSTYLENAME
350
E
  0
DICTIONARY
  5
D
102
{ACAD_REACTORS
330
C
102
}
100
AcDbDictionary
280
0
281
1
  0
ACDBDICTIONARYWDFLT
  5
E
102
{ACAD_REACTORS
330
C
102
}
100
AcDbDictionary
281
1
  3
Normal
350
F
100
AcDbDictionaryWithDefault
340
F
  0
DICTIONARY
  5
17
102
{ACAD_REACTORS
330
C
102
}
100
AcDbDictionary
280
0
281
1
  3
Standard
350
18
  0
DICTIONARY
  5
19
102
{ACAD_REACTORS
330
C
102
}
100
AcDbDictionary
281
1
  0
DICTIONARY
  5
1A
102
{ACAD_REACTORS
330
C
102
}
100
AcDbDictionary
281
1
  3
Model
350
2DC
  3
Layout1
350
2DD
  0
ACDBPLACEHOLDER
  5
F
102
{ACAD_REACTORS
330
E
102
}
  0
MLINESTYLE
  5
18
102
{ACAD_REACTORS
330
17
102
}
100
AcDbMlineStyle
  2
STANDARD
 70
0
  3

 62
256
 51
90.0
 52
90.0
 71
2
 49
0.5
 62
256
  6
BYLAYER
 49
-0.5
 62
256
  6
BYLAYER
  0
LAYOUT
  5
2DC
102
{ACAD_REACTORS
330
1A
102
}
100
AcDbPlotSettings
  1

  2
none_device
  4
ANSI_C_(22.00_x_17.00_Inches)
  6

 40
0.0
 41
0.0
 42
0.0
 43
0.0
 44
558.8
 45
431.8
 46
0.0
 47
0.0
 48
0.0
 49
0.0
140
0.0
141
0.0
142
1.0
143
1.0
 70
1024
 72
0
 73
0
 74
0
  7

 75
0
147
1.0
148
0.0
149
0.0
100
AcDbLayout
  1
Model
 70
0
 71
0
 10
0.0
 20
0.0
 11
22.0
 21
17.0
 12
0.0
 22
0.0
 32
0.0
 14
0.0
 24
0.0
 34
0.0
 15
0.0
 25
0.0
 35
0.0
146
0.0
 13
0.0
 23
0.0
 33
0.0
 16
1.0
 26
0.0
 36
0.0
 17
0.0
 27
1.0
 37
0.0
 76
0
330
216
345
0
346
0
  0
LAYOUT
  5
2DD
102
{ACAD_REACTORS
330
1A
102
}
100
AcDbPlotSettings
  1

  2
none_device
  4
ANSI_C_(22.00_x_17.00_Inches)
  6

 40
0.0
 41
0.0
 42
0.0
 43
0.0
 44
558.8
 45
431.8
 46
0.0
 47
0.0
 48
0.0
 49
0.0
140
0.0
141
0.0
142
1.0
143
1.0
 70
0
 72
0
 73
0
 74
0
  7

 75
0
147
1.0
148
0.0
149
0.0
100
AcDbLayout
  1
Layout1
 70
0
 71
1
 10
0.0
 20
0.0
 11
22.0
 21
17.0
 12
0.0
 22
0.0
 32
0.0
 14
0.0
 24
0.0
 34
0.0
 15
0.0
 25
0.0
 35
0.0
146
0.0
 13
0.0
 23
0.0
 33
0.0
 16
1.0
 26
0.0
 36
0.0
 17
0.0
 27
1.0
 37
0.0
 76
0
330
217
345
0
346
0
  0
ENDSEC
  0
EOF