999
DXF file: _cgs_temp_output.dxf
999
Pro/ENGINEER 2016360 by Parametric Technology Corporation
  0
SECTION
  2
HEADER
  9
$ACADVER
  1
AC1021
  9
$DWGCODEPAGE
  3
ANSI_1252
  9
$EXTMAX
 10
22.0
 20
17.0
 30
0.0
  9
$EXTMIN
 10
0.0
 20
0.0
 30
0.0
  9
$LIMMIN
 10
0.0
 20
0.0
  9
$LIMMAX
 10
22.0
 20
17.0
  9
$VIEWCTR
 10
11.0
 20
8.5
  9
$VIEWSIZE
 40
17.0
  9
$CLAYER
  8
0
  9
$LTSCALE
 40
1.21
  9
$CELTYPE
  6
BYLAYER
  9
$DIMSCALE
 40
1.0
  9
$DIMASZ
 40
0.1875
  9
$DIMEXO
 40
0.0625
  9
$DIMDLI
 40
0.836
  9
$DIMEXE
 40
0.125
  9
$DIMCEN
 40
0.198
  9
$DIMLFAC
 40
1.0
  9
$DIMBLK
  1
_CLOSED
  9
$DIMALT
 70
0
  9
$DIMALTF
 40
25.4
  9
$DIMTXT
 40
0.15625
  9
$DIMTOL
 70
0
  9
$DIMLIM
 70
0
  9
$DIMTFAC
 40
1.0
  9
$DIMGAP
 40
0.09
  9
$DIMDSEP
 70
46
  9
$AUNITS
 70
0
  9
$PDMODE
 70
3
  9
$PDSIZE
 40
0.3125
  9
$HANDSEED
  5
2E6
  9
$TILEMODE
 70
1
  9
$MEASUREMENT
 70
0
  9
$INSUNITS
 70
1
  0
ENDSEC
  0
SECTION
  2
CLASSES
  0
CLASS
  1
ACDBDICTIONARYWDFLT
  2
AcDbDictionaryWithDefault
  3
AutoCAD 2000
 90
0
 91
1
280
0
281
0
  0
CLASS
  1
ACDBPLACEHOLDER
  2
AcDbPlaceHolder
  3
AutoCAD 2000
 90
0
 91
1
280
0
281
0
  0
CLASS
  1
LAYOUT
  2
AcDbLayout
  3
AutoCAD 2000
 90
0
 91
0
280
0
281
0
  0
ENDSEC
  0
SECTION
  2
TABLES
  0
TABLE
  2
VPORT
  5
8
100
AcDbSymbolTable
 70
2
  0
VPORT
  5
1F4
100
AcDbSymbolTableRecord
100
AcDbViewportTableRecord
  2
*ACTIVE
 70
0
 10
0.0
 20
0.0
 11
1.0
 21
1.0
 12
11.0
 22
8.5
 13
0.0
 23
0.0
 14
1.0
 24
1.0
 15
0.0
 25
0.0
 16
0.0
 26
0.0
 36
1.0
 17
0.0
 27
0.0
 37
0.0
 40
17.0
 41
1.2941176471
 42
50.0
 43
0.0
 44
0.0
 50
0.0
 51
0.0
 71
0
 72
100
 73
1
 74
1
 75
0
 76
0
 77
0
 78
0
  0
ENDTAB
  0
TABLE
  2
LTYPE
  5
5
100
AcDbSymbolTable
 70
6
  0
LTYPE
  5
14
100
AcDbSymbolTableRecord
100
AcDbLinetypeTableRecord
  2
BYBLOCK
 70
0
  3

 72
65
 73
0
 40
0.0
  0
LTYPE
  5
15
100
AcDbSymbolTableRecord
100
AcDbLinetypeTableRecord
  2
BYLAYER
 70
0
  3

 72
65
 73
0
 40
0.0
  0
LTYPE
  5
16
100
AcDbSymbolTableRecord
100
AcDbLinetypeTableRecord
  2
CONTINUOUS
 70
64
  3
Solid line
 72
65
 73
0
 40
0.0
  0
LTYPE
  5
1F5
100
AcDbSymbolTableRecord
100
AcDbLinetypeTableRecord
  2
CENTER
 70
64
  3
____ _ ____ _ ____ _ ____ _ ____ _ ____ _ ____
 72
65
 73
4
 40
0.6
 49
0.375
 74
0
 49
-0.075
 74
0
 49
0.075
 74
0
 49
-0.075
 74
0
  0
LTYPE
  5
1F6
100
AcDbSymbolTableRecord
100
AcDbLinetypeTableRecord
  2
HIDDEN
 70
64
  3
- - - - - - - - - - - - - - - - - - - -
 72
65
 73
2
 40
0.2
 49
0.1
 74
0
 49
-0.1
 74
0
  0
LTYPE
  5
1F7
100
AcDbSymbolTableRecord
100
AcDbLinetypeTableRecord
  2
PHANTOM
 70
64
  3
_____ _ _ _____ _ _ _____ _ _ _____
 72
65
 73
6
 40
0.8
 49
0.45
 74
0
 49
-0.05
 74
0
 49
0.1
 74
0
 49
-0.05
 74
0
 49
0.1
 74
0
 49
-0.05
 74
0
  0
LTYPE
  5
1F8
100
AcDbSymbolTableRecord
100
AcDbLinetypeTableRecord
  2
DOT
 70
64
  3
. . . . . . . . . . . . . . . . . . . .
 72
65
 73
2
 40
0.2
 49
0.1
 74
0
 49
-0.1
 74
0
  0
LTYPE
  5
1F9
100
AcDbSymbolTableRecord
100
AcDbLinetypeTableRecord
  2
DASHED
 70
64
  3
- - - - - - - - - - - - - - - - - - - -
 72
65
 73
2
 40
0.2
 49
0.1
 74
0
 49
-0.1
 74
0
  0
ENDTAB
  0
TABLE
  2
LAYER
  5
2
100
AcDbSymbolTable
 70
36
  0
LAYER
  5
10
100
AcDbSymbolTableRecord
100
AcDbLayerTableRecord
  2
0
 70
0
 62
7
  6
CONTINUOUS
370
-3
390
F
  0
LAYER
  5
1FA
100
AcDbSymbolTableRecord
100
AcDbLayerTableRecord
  2
DEFAULT_1
 70
0
 62
7
  6
CENTER
370
-3
390
F
  0
LAYER
  5
1FB
100
AcDbSymbolTableRecord
100
AcDbLayerTableRecord
  2
DEFAULT_2
 70
0
 62
8
  6
HIDDEN
370
-3
390
F
  0
LAYER
  5
1FC
100
AcDbSymbolTableRecord
100
AcDbLayerTableRecord
  2
DEFAULT_3
 70
0
 62
7
  6
PHANTOM
370
-3
390
F
  0
LAYER
  5
1FD
100
AcDbSymbolTableRecord
100
AcDbLayerTableRecord
  2
01_ALL_DTM_PLN
 70
0
 62
7
  6
CONTINUOUS
370
-3
390
F
  0
LAYER
  5
1FE
100
AcDbSymbolTableRecord
100
AcDbLayerTableRecord
  2
01__ASM_ALL_DTM_PLN
 70
0
 62
7
  6
CONTINUOUS
370
-3
390
F
  0
LAYER
  5
1FF
100
AcDbSymbolTableRecord
100
AcDbLayerTableRecord
  2
01__ASM_DEF_DTM_PLN
 70
0
 62
7
  6
CONTINUOUS
370
-3
390
F
  0
LAYER
  5
200
100
AcDbSymbolTableRecord
100
AcDbLayerTableRecord
  2
01___PRT_ALL_DTM_PLN
 70
0
 62
7
  6
CONTINUOUS
370
-3
390
F
  0
LAYER
  5
201
100
AcDbSymbolTableRecord
100
AcDbLayerTableRecord
  2
01___PRT_DEF_DTM_PLN
 70
0
 62
7
  6
CONTINUOUS
370
-3
390
F
  0
LAYER
  5
202
100
AcDbSymbolTableRecord
100
AcDbLayerTableRecord
  2
02_ALL_AXES
 70
0
 62
7
  6
CONTINUOUS
370
-3
390
F
  0
LAYER
  5
203
100
AcDbSymbolTableRecord
100
AcDbLayerTableRecord
  2
02__ASM_ALL_AXES
 70
0
 62
7
  6
CONTINUOUS
370
-3
390
F
  0
LAYER
  5
204
100
AcDbSymbolTableRecord
100
AcDbLayerTableRecord
  2
02___PRT_ALL_AXES
 70
0
 62
7
  6
CONTINUOUS
370
-3
390
F
  0
LAYER
  5
205
100
AcDbSymbolTableRecord
100
AcDbLayerTableRecord
  2
03_ALL_CURVES
 70
0
 62
7
  6
CONTINUOUS
370
-3
390
F
  0
LAYER
  5
206
100
AcDbSymbolTableRecord
100
AcDbLayerTableRecord
  2
03__ASM_ALL_CURVES
 70
0
 62
7
  6
CONTINUOUS
370
-3
390
F
  0
LAYER
  5
207
100
AcDbSymbolTableRecord
100
AcDbLayerTableRecord
  2
03___PRT_ALL_CURVES
 70
0
 62
7
  6
CONTINUOUS
370
-3
390
F
  0
LAYER
  5
208
100
AcDbSymbolTableRecord
100
AcDbLayerTableRecord
  2
04_ALL_DTM_PNT
 70
0
 62
7
  6
CONTINUOUS
370
-3
390
F
  0
LAYER
  5
209
100
AcDbSymbolTableRecord
100
AcDbLayerTableRecord
  2
04__ASM_ALL_DTM_PNT
 70
0
 62
7
  6
CONTINUOUS
370
-3
390
F
  0
LAYER
  5
20A
100
AcDbSymbolTableRecord
100
AcDbLayerTableRecord
  2
04___PRT_ALL_DTM_PNT
 70
0
 62
7
  6
CONTINUOUS
370
-3
390
F
  0
LAYER
  5
20B
100
AcDbSymbolTableRecord
100
AcDbLayerTableRecord
  2
05_ALL_DTM_CSYS
 70
0
 62
7
  6
CONTINUOUS
370
-3
390
F
  0
LAYER
  5
20C
100
AcDbSymbolTableRecord
100
AcDbLayerTableRecord
  2
05__ASM_ALL_DTM_CSYS
 70
0
 62
7
  6
CONTINUOUS
370
-3
390
F
  0
LAYER
  5
20D
100
AcDbSymbolTableRecord
100
AcDbLayerTableRecord
  2
05__ASM_DEF_DTM_CSYS
 70
0
 62
7
  6
CONTINUOUS
370
-3
390
F
  0
LAYER
  5
20E
100
AcDbSymbolTableRecord
100
AcDbLayerTableRecord
  2
05___PRT_ALL_DTM_CSYS
 70
0
 62
7
  6
CONTINUOUS
370
-3
390
F
  0
LAYER
  5
20F
100
AcDbSymbolTableRecord
100
AcDbLayerTableRecord
  2
05___PRT_DEF_DTM_CSYS
 70
0
 62
7
  6
CONTINUOUS
370
-3
390
F
  0
LAYER
  5
210
100
AcDbSymbolTableRecord
100
AcDbLayerTableRecord
  2
06_ALL_SURFS
 70
0
 62
7
  6
CONTINUOUS
370
-3
390
F
  0
LAYER
  5
211
100
AcDbSymbolTableRecord
100
AcDbLayerTableRecord
  2
06__ASM_ALL_SURFS
 70
0
 62
7
  6
CONTINUOUS
370
-3
390
F
  0
LAYER
  5
212
100
AcDbSymbolTableRecord
100
AcDbLayerTableRecord
  2
06___PRT_ALL_SURFS
 70
0
 62
7
  6
CONTINUOUS
370
-3
390
F
  0
LAYER
  5
213
100
AcDbSymbolTableRecord
100
AcDbLayerTableRecord
  2
07__ASM_ALL_SKELETONS
 70
0
 62
7
  6
CONTINUOUS
370
-3
390
F
  0
ENDTAB
  0
TABLE
  2
STYLE
  5
3
100
AcDbSymbolTable
 70
1
  0
STYLE
  5
11
100
AcDbSymbolTableRecord
100
AcDbTextStyleTableRecord
  2
STANDARD
 70
0
 40
0.0
 41
0.8
 50
0.0
 71
0
 42
0.2
  3
txt
  4

  0
STYLE
  5
214
100
AcDbSymbolTableRecord
100
AcDbTextStyleTableRecord
  2
TEXTSTYLE_1
 70
0
 40
0.0
 41
0.8
 50
0.0
 71
0
 42
0.2
  3
gdt
  4

  0
ENDTAB
  0
TABLE
  2
VIEW
  5
6
100
AcDbSymbolTable
 70
0
  0
ENDTAB
  0
TABLE
  2
UCS
  5
7
100
AcDbSymbolTable
 70
0
  0
ENDTAB
  0
TABLE
  2
APPID
  5
9
100
AcDbSymbolTable
 70
1
  0
APPID
  5
215
100
AcDbSymbolTableRecord
100
AcDbRegAppTableRecord
  2
ACAD
 70
0
  0
ENDTAB
  0
TABLE
  2
BLOCK_RECORD
  5
1
100
AcDbSymbolTable
 70
0
  0
BLOCK_RECORD
  5
216
100
AcDbSymbolTableRecord
100
AcDbBlockTableRecord
  2
*Model_Space
  0
BLOCK_RECORD
  5
217
100
AcDbSymbolTableRecord
100
AcDbBlockTableRecord
  2
*Paper_Space
  0
ENDTAB
  0
TABLE
  2
DIMSTYLE
  5
A
100
AcDbSymbolTable
 70
1
100
AcDbDimStyleTable
 71
0
  0
DIMSTYLE
105
218
100
AcDbSymbolTableRecord
100
AcDbDimStyleTableRecord
  2
STANDARD
 70
0
  3

  4

 40
1.0
 41
0.1875
 42
0.0625
 43
0.38
 44
0.125
 45
0.0
 46
0.0
 47
0.0001
 48
0.0001
140
0.15625
141
0.09
142
0.0
143
25.4
144
1.0
145
0.0
146
1.0
147
0.09
 71
0.0
 72
0.0
 73
1
 74
1
 75
0
 76
0
 77
0
 78
4
 79
1
170
0
171
3
172
0
173
0
174
0
175
0
176
0
177
0
178
0
270
2
179
4
271
4
272
4
273
2
274
2
275
0
280
0
281
0
282
0
283
1
284
4
285
0
286
0
287
3
288
0
340
11
278
46
  0
ENDTAB
  0
ENDSEC
  0
SECTION
  2
BLOCKS
  0
BLOCK
  5
20
100
AcDbEntity
  8
0
100
AcDbBlockBegin
  2
*Model_Space
 70
0
 10
0.0
 20
0.0
 30
0.0
  3
*Model_Space
  1

  0
ENDBLK
  5
21
100
AcDbEntity
  8
0
100
AcDbBlockEnd
  0
BLOCK
  5
1C
100
AcDbEntity
  8
0
100
AcDbBlockBegin
  2
*Paper_Space
 70
0
 10
0.0
 20
0.0
 30
0.0
  3
*Paper_Space
  1

  0
ENDBLK
  5
1D
100
AcDbEntity
  8
0
100
AcDbBlockEnd
  0
ENDSEC
  0
SECTION
  2
ENTITIES
  0
MTEXT
  5
219
100
AcDbEntity
  8
0
100
AcDbMText
 62
7
  6
CONTINUOUS
  7
STANDARD
 71
1
 72
1
 10
15.9560215477
 20
0.9479130325
 30
0.0
 11
1.0
 21
0.0
 31
0.0
 44
0.9
  1
SCALE: 1:1.000
 40
0.3
 41
3.36
  0
LINE
  5
21A
100
AcDbEntity
  8
0
100
AcDbLine
 62
7
  6
CONTINUOUS
 10
0.0
 20
0.0
 11
0.0
 21
17.0
  0
LINE
  5
21B
100
AcDbEntity
  8
0
100
AcDbLine
 62
7
  6
CONTINUOUS
 10
0.0
 20
0.0
 11
22.0
 21
0.0
  0
LINE
  5
21C
100
AcDbEntity
  8
0
100
AcDbLine
 62
7
  6
CONTINUOUS
 10
0.0
 20
17.0
 11
22.0
 21
17.0
  0
LINE
  5
21D
100
AcDbEntity
  8
0
100
AcDbLine
 62
7
  6
CONTINUOUS
 10
22.0
 20
0.0
 11
22.0
 21
17.0
  0
LINE
  5
21E
100
AcDbEntity
  8
0
100
AcDbLine
 62
7
  6
CONTINUOUS
 10
5.6928672762
 20
5.6576199229
 11
5.6928672762
 21
5.6109988277
  0
LINE
  5
21F
100
AcDbEntity
  8
0
100
AcDbLine
 62
7
  6
CONTINUOUS
 10
5.7363152066
 20
5.377849698
 11
5.6947045578
 21
5.5919179282
  0
LINE
  5
220
100
AcDbEntity
  8
0
100
AcDbLine
 62
7
  6
CONTINUOUS
 10
5.7608558862
 20
5.3576199229
 11
6.4998786662
 21
5.3576199229
  0
LINE
  5
221
100
AcDbEntity
  8
0
100
AcDbLine
 62
7
  6
CONTINUOUS
 10
5.7397980193
 20
5.4659532562
 11
6.520936533
 21
5.4659532562
  0
LINE
  5
222
100
AcDbEntity
  8
0
100
AcDbLine
 62
7
  6
CONTINUOUS
 10
6.5428672762
 20
5.6826199229
 11
5.7178672762
 21
5.6826199229
  0
LINE
  5
223
100
AcDbEntity
  8
0
100
AcDbLine
 62
7
  6
CONTINUOUS
 10
6.5678672762
 20
5.6109988277
 11
6.5678672762
 21
5.6576199229
  0
LINE
  5
224
100
AcDbEntity
  8
0
100
AcDbLine
 62
7
  6
CONTINUOUS
 10
6.5244193458
 20
5.377849698
 11
6.5660299945
 21
5.5919179282
  0
LINE
  5
225
100
AcDbEntity
  8
0
100
AcDbLine
 62
7
  6
CONTINUOUS
 10
6.5083720839
 20
10.6000477814
 11
5.6333720839
 21
10.6000477814
  0
LINE
  5
226
100
AcDbEntity
  8
0
100
AcDbLine
 62
7
  6
CONTINUOUS
 10
5.6333720839
 20
10.6000477814
 11
5.6333720839
 21
14.6000477814
  0
LINE
  5
227
100
AcDbEntity
  8
0
100
AcDbLine
 62
7
  6
CONTINUOUS
 10
6.5083720839
 20
10.6000477814
 11
6.5083720839
 21
14.6000477814
  0
LINE
  5
228
100
AcDbEntity
  8
0
100
AcDbLine
 62
7
  6
CONTINUOUS
 10
5.6333720839
 20
14.6000477814
 11
6.5083720839
 21
14.6000477814
  0
LINE
  5
229
100
AcDbEntity
  8
0
100
AcDbLine
 62
7
  6
CONTINUOUS
 10
13.5603552569
 20
5.4064580639
 11
13.5603552569
 21
5.6231247306
  0
LINE
  5
22A
100
AcDbEntity
  8
0
100
AcDbLine
 62
7
  6
CONTINUOUS
 10
13.6776960298
 20
5.385467155
 11
13.6930144841
 21
5.3191156395
  0
LINE
  5
22B
100
AcDbEntity
  8
0
100
AcDbLine
 62
7
  6
CONTINUOUS
 10
13.9276960298
 20
5.3191156395
 11
13.9430144841
 21
5.385467155
  0
LINE
  5
22C
100
AcDbEntity
  8
0
100
AcDbLine
 62
7
  6
CONTINUOUS
 10
14.1776960298
 20
5.385467155
 11
14.1930144841
 21
5.3191156395
  0
LINE
  5
22D
100
AcDbEntity
  8
0
100
AcDbLine
 62
7
  6
CONTINUOUS
 10
14.4276960298
 20
5.3191156395
 11
14.4430144841
 21
5.385467155
  0
LINE
  5
22E
100
AcDbEntity
  8
0
100
AcDbLine
 62
7
  6
CONTINUOUS
 10
14.6776960298
 20
5.385467155
 11
14.6930144841
 21
5.3191156395
  0
LINE
  5
22F
100
AcDbEntity
  8
0
100
AcDbLine
 62
7
  6
CONTINUOUS
 10
14.9276960298
 20
5.3191156395
 11
14.9430144841
 21
5.385467155
  0
LINE
  5
230
100
AcDbEntity
  8
0
100
AcDbLine
 62
7
  6
CONTINUOUS
 10
15.1776960298
 20
5.385467155
 11
15.1930144841
 21
5.3191156395
  0
LINE
  5
231
100
AcDbEntity
  8
0
100
AcDbLine
 62
7
  6
CONTINUOUS
 10
13.7194036734
 20
5.2981247306
 11
13.9013068405
 21
5.2981247306
  0
LINE
  5
232
100
AcDbEntity
  8
0
100
AcDbLine
 62
7
  6
CONTINUOUS
 10
14.2194036734
 20
5.2981247306
 11
14.4013068405
 21
5.2981247306
  0
LINE
  5
233
100
AcDbEntity
  8
0
100
AcDbLine
 62
7
  6
CONTINUOUS
 10
14.7194036734
 20
5.2981247306
 11
14.9013068405
 21
5.2981247306
  0
LINE
  5
234
100
AcDbEntity
  8
0
100
AcDbLine
 62
7
  6
CONTINUOUS
 10
15.2194036734
 20
5.2981247306
 11
15.4013068405
 21
5.2981247306
  0
LINE
  5
235
100
AcDbEntity
  8
0
100
AcDbLine
 62
7
  6
CONTINUOUS
 10
15.7194036734
 20
5.2981247306
 11
15.9013068405
 21
5.2981247306
  0
LINE
  5
236
100
AcDbEntity
  8
0
100
AcDbLine
 62
7
  6
CONTINUOUS
 10
16.2194036734
 20
5.2981247306
 11
16.4013068405
 21
5.2981247306
  0
LINE
  5
237
100
AcDbEntity
  8
0
100
AcDbLine
 62
7
  6
CONTINUOUS
 10
16.7194036734
 20
5.2981247306
 11
16.9013068405
 21
5.2981247306
  0
LINE
  5
238
100
AcDbEntity
  8
0
100
AcDbLine
 62
7
  6
CONTINUOUS
 10
17.2194036734
 20
5.2981247306
 11
17.4013068405
 21
5.2981247306
  0
LINE
  5
239
100
AcDbEntity
  8
0
100
AcDbLine
 62
7
  6
CONTINUOUS
 10
15.4276960298
 20
5.3191156395
 11
15.4430144841
 21
5.385467155
  0
LINE
  5
23A
100
AcDbEntity
  8
0
100
AcDbLine
 62
7
  6
CONTINUOUS
 10
13.5603552569
 20
5.4064580639
 11
13.6513068405
 21
5.4064580639
  0
LINE
  5
23B
100
AcDbEntity
  8
0
100
AcDbLine
 62
7
  6
CONTINUOUS
 10
13.9694036734
 20
5.4064580639
 11
14.1513068405
 21
5.4064580639
  0
LINE
  5
23C
100
AcDbEntity
  8
0
100
AcDbLine
 62
7
  6
CONTINUOUS
 10
14.4694036734
 20
5.4064580639
 11
14.6513068405
 21
5.4064580639
  0
LINE
  5
23D
100
AcDbEntity
  8
0
100
AcDbLine
 62
7
  6
CONTINUOUS
 10
14.9694036734
 20
5.4064580639
 11
15.1513068405
 21
5.4064580639
  0
LINE
  5
23E
100
AcDbEntity
  8
0
100
AcDbLine
 62
7
  6
CONTINUOUS
 10
15.4694036734
 20
5.4064580639
 11
15.6513068405
 21
5.4064580639
  0
LINE
  5
23F
100
AcDbEntity
  8
0
100
AcDbLine
 62
7
  6
CONTINUOUS
 10
15.9694036734
 20
5.4064580639
 11
16.1513068405
 21
5.4064580639
  0
LINE
  5
240
100
AcDbEntity
  8
0
100
AcDbLine
 62
7
  6
CONTINUOUS
 10
16.4694036734
 20
5.4064580639
 11
16.6513068405
 21
5.4064580639
  0
LINE
  5
241
100
AcDbEntity
  8
0
100
AcDbLine
 62
7
  6
CONTINUOUS
 10
16.9694036734
 20
5.4064580639
 11
17.1513068405
 21
5.4064580639
  0
LINE
  5
242
100
AcDbEntity
  8
0
100
AcDbLine
 62
7
  6
CONTINUOUS
 10
17.4694036734
 20
5.4064580639
 11
17.5603552569
 21
5.4064580639
  0
LINE
  5
243
100
AcDbEntity
  8
0
100
AcDbLine
 62
7
  6
CONTINUOUS
 10
15.6776960298
 20
5.385467155
 11
15.6930144841
 21
5.3191156395
  0
LINE
  5
244
100
AcDbEntity
  8
0
100
AcDbLine
 62
7
  6
CONTINUOUS
 10
13.5603552569
 20
5.6231247306
 11
17.5603552569
 21
5.6231247306
  0
LINE
  5
245
100
AcDbEntity
  8
0
100
AcDbLine
 62
7
  6
CONTINUOUS
 10
15.9276960298
 20
5.3191156395
 11
15.9430144841
 21
5.385467155
  0
LINE
  5
246
100
AcDbEntity
  8
0
100
AcDbLine
 62
7
  6
CONTINUOUS
 10
16.1776960298
 20
5.385467155
 11
16.1930144841
 21
5.3191156395
  0
LINE
  5
247
100
AcDbEntity
  8
0
100
AcDbLine
 62
7
  6
CONTINUOUS
 10
16.4276960298
 20
5.3191156395
 11
16.4430144841
 21
5.385467155
  0
LINE
  5
248
100
AcDbEntity
  8
0
100
AcDbLine
 62
7
  6
CONTINUOUS
 10
16.6776960298
 20
5.385467155
 11
16.6930144841
 21
5.3191156395
  0
LINE
  5
249
100
AcDbEntity
  8
0
100
AcDbLine
 62
7
  6
CONTINUOUS
 10
16.9276960298
 20
5.3191156395
 11
16.9430144841
 21
5.385467155
  0
LINE
  5
24A
100
AcDbEntity
  8
0
100
AcDbLine
 62
7
  6
CONTINUOUS
 10
17.1776960298
 20
5.385467155
 11
17.1930144841
 21
5.3191156395
  0
LINE
  5
24B
100
AcDbEntity
  8
0
100
AcDbLine
 62
7
  6
CONTINUOUS
 10
17.5603552569
 20
5.4064580639
 11
17.5603552569
 21
5.6231247306
  0
LINE
  5
24C
100
AcDbEntity
  8
0
100
AcDbLine
 62
7
  6
CONTINUOUS
 10
17.4276960298
 20
5.3191156395
 11
17.4430144841
 21
5.385467155
  0
LINE
  5
24D
100
AcDbEntity
  8
0
100
AcDbLine
 62
7
  6
CONTINUOUS
 10
14.6704864278
 20
10.8768100938
 11
15.3899626436
 21
10.8768100938
  0
LINE
  5
24E
100
AcDbEntity
  8
0
100
AcDbLine
 62
7
  6
CONTINUOUS
 10
14.5905281006
 20
10.9551109895
 11
14.6417120367
 21
10.8893851236
  0
LWPOLYLINE
  5
24F
100
AcDbEntity
  8
0
100
AcDbPolyline
 62
7
  6
CONTINUOUS
 90
6
 70
0
 10
15.4339884064
 20
10.9238081375
 10
15.4407519734
 20
10.9247343258
 10
15.4469066089
 20
10.927376969
 10
15.4518209485
 20
10.931208947
 10
15.4554642747
 20
10.9358015311
 10
15.4578051281
 20
10.940556265
  0
LINE
  5
250
100
AcDbEntity
  8
0
100
AcDbLine
 62
7
  6
CONTINUOUS
 10
15.418224183
 20
10.923807855
 11
15.4339942538
 21
10.923807855
  0
LINE
  5
251
100
AcDbEntity
  8
0
100
AcDbLine
 62
7
  6
CONTINUOUS
 10
15.3440697913
 20
11.0114922535
 11
14.5841944712
 21
11.0114922535
  0
LINE
  5
252
100
AcDbEntity
  8
0
100
AcDbLine
 62
7
  6
CONTINUOUS
 10
14.568793993
 20
10.9959520043
 11
14.5830153789
 21
10.9669718668
  0
LWPOLYLINE
  5
253
100
AcDbEntity
  8
0
100
AcDbPolyline
 62
7
  6
CONTINUOUS
 90
6
 70
0
 10
15.5550215681
 20
11.3154715923
 10
15.5617851351
 20
11.3163977806
 10
15.5679397706
 20
11.3190404238
 10
15.5728541102
 20
11.3228724019
 10
15.5764974364
 20
11.3274649859
 10
15.5788382898
 20
11.3322197198
  0
LINE
  5
254
100
AcDbEntity
  8
0
100
AcDbLine
 62
7
  6
CONTINUOUS
 10
15.5392573447
 20
11.3154713098
 11
15.5550274155
 21
11.3154713098
  0
LWPOLYLINE
  5
255
100
AcDbEntity
  8
0
100
AcDbPolyline
 62
7
  6
CONTINUOUS
 90
6
 70
0
 10
15.6760547298
 20
11.7071350471
 10
15.6828182968
 20
11.7080612354
 10
15.6889729323
 20
11.7107038786
 10
15.6938872719
 20
11.7145358567
 10
15.6975305981
 20
11.7191284407
 10
15.6998714516
 20
11.7238831746
  0
LINE
  5
256
100
AcDbEntity
  8
0
100
AcDbLine
 62
7
  6
CONTINUOUS
 10
15.6602905064
 20
11.7071347647
 11
15.6760605772
 21
11.7071347647
  0
LINE
  5
257
100
AcDbEntity
  8
0
100
AcDbLine
 62
7
  6
CONTINUOUS
 10
15.3889437487
 20
10.9669718668
 11
15.3747223628
 21
10.9959520043
  0
LINE
  5
258
100
AcDbEntity
  8
0
100
AcDbLine
 62
7
  6
CONTINUOUS
 10
14.5679349968
 20
11.0033331886
 11
15.5362002904
 21
14.1366408271
  0
LWPOLYLINE
  5
259
100
AcDbEntity
  8
0
100
AcDbPolyline
 62
7
  6
CONTINUOUS
 90
6
 70
0
 10
15.7970878915
 20
12.0987985019
 10
15.8038514585
 20
12.0997246902
 10
15.810006094
 20
12.1023673334
 10
15.8149204336
 20
12.1061993115
 10
15.8185637598
 20
12.1107918956
 10
15.8209046133
 20
12.1155466294
  0
LINE
  5
25A
100
AcDbEntity
  8
0
100
AcDbLine
 62
7
  6
CONTINUOUS
 10
15.7813236681
 20
12.0987982195
 11
15.7970937389
 21
12.0987982195
  0
LINE
  5
25B
100
AcDbEntity
  8
0
100
AcDbLine
 62
7
  6
CONTINUOUS
 10
15.406395178
 20
10.8893851236
 11
15.3930719734
 21
10.9551109895
  0
LINE
  5
25C
100
AcDbEntity
  8
0
100
AcDbLine
 62
7
  6
CONTINUOUS
 10
15.5037131331
 20
11.0968558857
 11
15.4990605427
 21
11.1501000071
  0
LWPOLYLINE
  5
25D
100
AcDbEntity
  8
0
100
AcDbPolyline
 62
7
  6
CONTINUOUS
 90
8
 70
0
 10
15.4990600493
 20
11.1501070312
 10
15.4989530513
 20
11.1514676184
 10
15.4987076505
 20
11.1603409465
 10
15.4991873969
 20
11.1712683796
 10
15.5004628258
 20
11.1830117206
 10
15.5023983874
 20
11.1941823653
 10
15.5046720859
 20
11.2034825033
 10
15.5052365325
 20
11.2053811646
  0
LINE
  5
25E
100
AcDbEntity
  8
0
100
AcDbLine
 62
7
  6
CONTINUOUS
 10
15.5037837568
 20
11.0925893443
 11
15.5037130405
 21
11.0968570319
  0
LINE
  5
25F
100
AcDbEntity
  8
0
100
AcDbLine
 62
7
  6
CONTINUOUS
 10
15.4062217234
 20
10.8849692804
 11
15.406395178
 21
10.8893851236
  0
LWPOLYLINE
  5
260
100
AcDbEntity
  8
0
100
AcDbPolyline
 62
7
  6
CONTINUOUS
 90
6
 70
0
 10
15.9181210532
 20
12.4904619567
 10
15.9248846202
 20
12.491388145
 10
15.9310392557
 20
12.4940307882
 10
15.9359535953
 20
12.4978627663
 10
15.9395969215
 20
12.5024553504
 10
15.941937775
 20
12.5072100842
  0
LINE
  5
261
100
AcDbEntity
  8
0
100
AcDbLine
 62
7
  6
CONTINUOUS
 10
15.9023568298
 20
12.4904616743
 11
15.9181269006
 21
12.4904616743
  0
LINE
  5
262
100
AcDbEntity
  8
0
100
AcDbLine
 62
7
  6
CONTINUOUS
 10
15.6247462948
 20
11.4885193405
 11
15.6200937045
 21
11.5417634619
  0
LWPOLYLINE
  5
263
100
AcDbEntity
  8
0
100
AcDbPolyline
 62
7
  6
CONTINUOUS
 90
8
 70
0
 10
15.620093211
 20
11.541770486
 10
15.619986213
 20
11.5431310732
 10
15.6197408122
 20
11.5520044013
 10
15.6202205586
 20
11.5629318344
 10
15.6214959875
 20
11.5746751754
 10
15.6234315491
 20
11.5858458201
 10
15.6257052476
 20
11.5951459581
 10
15.6262696942
 20
11.5970446194
  0
LINE
  5
264
100
AcDbEntity
  8
0
100
AcDbLine
 62
7
  6
CONTINUOUS
 10
15.6248169185
 20
11.4842527991
 11
15.6247462022
 21
11.4885204867
  0
LINE
  5
265
100
AcDbEntity
  8
0
100
AcDbLine
 62
7
  6
CONTINUOUS
 10
16.2786456385
 20
13.706034748
 11
16.278914984
 21
13.7065005125
  0
LINE
  5
266
100
AcDbEntity
  8
0
100
AcDbLine
 62
7
  6
CONTINUOUS
 10
15.7457794565
 20
11.8801827953
 11
15.7411268662
 21
11.9334269167
  0
LWPOLYLINE
  5
267
100
AcDbEntity
  8
0
100
AcDbPolyline
 62
7
  6
CONTINUOUS
 90
8
 70
0
 10
15.7411263727
 20
11.9334339409
 10
15.7410193747
 20
11.9347945281
 10
15.7407739739
 20
11.9436678561
 10
15.7412537203
 20
11.9545952892
 10
15.7425291492
 20
11.9663386302
 10
15.7444647108
 20
11.9775092749
 10
15.7467384093
 20
11.9868094129
 10
15.7473028559
 20
11.9887080743
  0
LINE
  5
268
100
AcDbEntity
  8
0
100
AcDbLine
 62
7
  6
CONTINUOUS
 10
15.7458500802
 20
11.8759162539
 11
15.7457793639
 21
11.8801839415
  0
LINE
  5
269
100
AcDbEntity
  8
0
100
AcDbLine
 62
7
  6
CONTINUOUS
 10
16.1576124768
 20
13.3143712931
 11
16.1578818223
 21
13.3148370577
  0
LINE
  5
26A
100
AcDbEntity
  8
0
100
AcDbLine
 62
7
  6
CONTINUOUS
 10
15.8668126182
 20
12.2718462501
 11
15.8621600279
 21
12.3250903716
  0
LWPOLYLINE
  5
26B
100
AcDbEntity
  8
0
100
AcDbPolyline
 62
7
  6
CONTINUOUS
 90
8
 70
0
 10
15.8621595344
 20
12.3250973957
 10
15.8620525364
 20
12.3264579829
 10
15.8618071356
 20
12.335331311
 10
15.862286882
 20
12.346258744
 10
15.8635623109
 20
12.358002085
 10
15.8654978725
 20
12.3691727298
 10
15.867771571
 20
12.3784728677
 10
15.8683360176
 20
12.3803715291
  0
LWPOLYLINE
  5
26C
100
AcDbEntity
  8
0
100
AcDbPolyline
 62
7
  6
CONTINUOUS
 90
3
 70
0
 10
15.5024045762
 20
11.0847016103
 10
15.5032897898
 20
11.0883363179
 10
15.5037837568
 20
11.0925893443
  0
LWPOLYLINE
  5
26D
100
AcDbEntity
  8
0
100
AcDbPolyline
 62
7
  6
CONTINUOUS
 90
3
 70
0
 10
16.2754712222
 20
13.6978604705
 10
16.2773522398
 20
13.7032160325
 10
16.2786456385
 20
13.706034748
  0
LWPOLYLINE
  5
26E
100
AcDbEntity
  8
0
100
AcDbPolyline
 62
7
  6
CONTINUOUS
 90
3
 70
0
 10
16.1544380605
 20
13.3061970157
 10
16.1563190781
 20
13.3115525776
 10
16.1576124768
 20
13.3143712931
  0
LINE
  5
26F
100
AcDbEntity
  8
0
100
AcDbLine
 62
7
  6
CONTINUOUS
 10
16.0365793151
 20
12.9227078383
 11
16.0368486606
 21
12.9231736028
  0
LINE
  5
270
100
AcDbEntity
  8
0
100
AcDbLine
 62
7
  6
CONTINUOUS
 10
15.9155461534
 20
12.5310443835
 11
15.9158154989
 21
12.531510148
  0
LWPOLYLINE
  5
271
100
AcDbEntity
  8
0
100
AcDbPolyline
 62
7
  6
CONTINUOUS
 90
6
 70
0
 10
16.0391542149
 20
12.8821254115
 10
16.0459177819
 20
12.8830515998
 10
16.0520724174
 20
12.885694243
 10
16.056986757
 20
12.8895262211
 10
16.0606300832
 20
12.8941188052
 10
16.0629709367
 20
12.898873539
  0
LINE
  5
272
100
AcDbEntity
  8
0
100
AcDbLine
 62
7
  6
CONTINUOUS
 10
16.0233899915
 20
12.8821251291
 11
16.0391600623
 21
12.8821251291
  0
LINE
  5
273
100
AcDbEntity
  8
0
100
AcDbLine
 62
7
  6
CONTINUOUS
 10
15.8668832419
 20
12.2675797087
 11
15.8668125256
 21
12.2718473963
  0
LWPOLYLINE
  5
274
100
AcDbEntity
  8
0
100
AcDbPolyline
 62
7
  6
CONTINUOUS
 90
3
 70
0
 10
15.6234377379
 20
11.4763650651
 10
15.6243229515
 20
11.4799997728
 10
15.6248169185
 20
11.4842527991
  0
LWPOLYLINE
  5
275
100
AcDbEntity
  8
0
100
AcDbPolyline
 62
7
  6
CONTINUOUS
 90
3
 70
0
 10
15.7444708997
 20
11.86802852
 10
15.7453561132
 20
11.8716632276
 10
15.7458500802
 20
11.8759162539
  0
LWPOLYLINE
  5
276
100
AcDbEntity
  8
0
100
AcDbPolyline
 62
7
  6
CONTINUOUS
 90
3
 70
0
 10
15.8655040614
 20
12.2596919748
 10
15.8663892749
 20
12.2633266824
 10
15.8668832419
 20
12.2675797087
  0
LWPOLYLINE
  5
277
100
AcDbEntity
  8
0
100
AcDbPolyline
 62
7
  6
CONTINUOUS
 90
3
 70
0
 10
15.9865372231
 20
12.6513554296
 10
15.9874224366
 20
12.6549901372
 10
15.9879164036
 20
12.6592431635
  0
LWPOLYLINE
  5
278
100
AcDbEntity
  8
0
100
AcDbPolyline
 62
7
  6
CONTINUOUS
 90
3
 70
0
 10
16.1075703848
 20
13.0430188844
 10
16.1084555983
 20
13.046653592
 10
16.1089495653
 20
13.0509066183
  0
LINE
  5
279
100
AcDbEntity
  8
0
100
AcDbLine
 62
7
  6
CONTINUOUS
 10
15.406222118
 20
10.8849691587
 11
15.4282384331
 21
10.9562139804
  0
LINE
  5
27A
100
AcDbEntity
  8
0
100
AcDbLine
 62
7
  6
CONTINUOUS
 10
15.5052389643
 20
11.2053877906
 11
15.5492715948
 21
11.3478774352
  0
LINE
  5
27B
100
AcDbEntity
  8
0
100
AcDbLine
 62
7
  6
CONTINUOUS
 10
15.626272126
 20
11.5970512454
 11
15.6703047565
 21
11.73954089
  0
LINE
  5
27C
100
AcDbEntity
  8
0
100
AcDbLine
 62
7
  6
CONTINUOUS
 10
15.7473052877
 20
11.9887147002
 11
15.7913379182
 21
12.1312043448
  0
LINE
  5
27D
100
AcDbEntity
  8
0
100
AcDbLine
 62
7
  6
CONTINUOUS
 10
15.8683384494
 20
12.380378155
 11
15.9123710799
 21
12.5228677996
  0
LINE
  5
27E
100
AcDbEntity
  8
0
100
AcDbLine
 62
7
  6
CONTINUOUS
 10
15.9893716111
 20
12.7720416098
 11
16.0334042416
 21
12.9145312545
  0
LINE
  5
27F
100
AcDbEntity
  8
0
100
AcDbLine
 62
7
  6
CONTINUOUS
 10
16.1104047728
 20
13.1637050646
 11
16.1544374033
 21
13.3061947093
  0
LINE
  5
280
100
AcDbEntity
  8
0
100
AcDbLine
 62
7
  6
CONTINUOUS
 10
16.2314379345
 20
13.5553685195
 11
16.275470565
 21
13.6978581641
  0
LINE
  5
281
100
AcDbEntity
  8
0
100
AcDbLine
 62
7
  6
CONTINUOUS
 10
16.3524710962
 20
13.9470319743
 11
16.3744874117
 21
14.0182767972
  0
LINE
  5
282
100
AcDbEntity
  8
0
100
AcDbLine
 62
7
  6
CONTINUOUS
 10
15.4583730059
 20
10.9422149833
 11
15.5024056417
 21
11.0847046449
  0
LINE
  5
283
100
AcDbEntity
  8
0
100
AcDbLine
 62
7
  6
CONTINUOUS
 10
15.5794061676
 20
11.3338784381
 11
15.6234388034
 21
11.4763680997
  0
LINE
  5
284
100
AcDbEntity
  8
0
100
AcDbLine
 62
7
  6
CONTINUOUS
 10
15.7004393293
 20
11.7255418929
 11
15.7444719651
 21
11.8680315545
  0
LINE
  5
285
100
AcDbEntity
  8
0
100
AcDbLine
 62
7
  6
CONTINUOUS
 10
15.821472491
 20
12.1172053477
 11
15.8655051268
 21
12.2596950093
  0
LINE
  5
286
100
AcDbEntity
  8
0
100
AcDbLine
 62
7
  6
CONTINUOUS
 10
15.9425056527
 20
12.5088688026
 11
15.9865382885
 21
12.6513584641
  0
LINE
  5
287
100
AcDbEntity
  8
0
100
AcDbLine
 62
7
  6
CONTINUOUS
 10
16.0635388144
 20
12.9005322574
 11
16.1075714502
 21
13.0430219189
  0
LINE
  5
288
100
AcDbEntity
  8
0
100
AcDbLine
 62
7
  6
CONTINUOUS
 10
16.1845719761
 20
13.2921957122
 11
16.2286046119
 21
13.4346853738
  0
LINE
  5
289
100
AcDbEntity
  8
0
100
AcDbLine
 62
7
  6
CONTINUOUS
 10
16.3056051378
 20
13.683859167
 11
16.3496377736
 21
13.8263488286
  0
LINE
  5
28A
100
AcDbEntity
  8
0
100
AcDbLine
 62
7
  6
CONTINUOUS
 10
16.3050372601
 20
13.6822004487
 11
16.3056030536
 21
13.6838524116
  0
LINE
  5
28B
100
AcDbEntity
  8
0
100
AcDbLine
 62
7
  6
CONTINUOUS
 10
16.1840040984
 20
13.2905369938
 11
16.1845698919
 21
13.2921889568
  0
LINE
  5
28C
100
AcDbEntity
  8
0
100
AcDbLine
 62
7
  6
CONTINUOUS
 10
16.0629709367
 20
12.898873539
 11
16.0635367302
 21
12.900525502
  0
LINE
  5
28D
100
AcDbEntity
  8
0
100
AcDbLine
 62
7
  6
CONTINUOUS
 10
15.941937775
 20
12.5072100842
 11
15.9425035685
 21
12.5088620472
  0
LINE
  5
28E
100
AcDbEntity
  8
0
100
AcDbLine
 62
7
  6
CONTINUOUS
 10
15.8209046133
 20
12.1155466294
 11
15.8214704068
 21
12.1171985924
  0
LINE
  5
28F
100
AcDbEntity
  8
0
100
AcDbLine
 62
7
  6
CONTINUOUS
 10
15.6998714516
 20
11.7238831746
 11
15.7004372451
 21
11.7255351375
  0
LINE
  5
290
100
AcDbEntity
  8
0
100
AcDbLine
 62
7
  6
CONTINUOUS
 10
15.5788382898
 20
11.3322197198
 11
15.5794040834
 21
11.3338716827
  0
LINE
  5
291
100
AcDbEntity
  8
0
100
AcDbLine
 62
7
  6
CONTINUOUS
 10
15.4578051281
 20
10.940556265
 11
15.4583709217
 21
10.9422082279
  0
LWPOLYLINE
  5
292
100
AcDbEntity
  8
0
100
AcDbPolyline
 62
7
  6
CONTINUOUS
 90
3
 70
0
 10
16.0334048988
 20
12.9145335609
 10
16.0352859164
 20
12.9198891228
 10
16.0365793151
 20
12.9227078383
  0
LWPOLYLINE
  5
293
100
AcDbEntity
  8
0
100
AcDbPolyline
 62
7
  6
CONTINUOUS
 90
3
 70
0
 10
15.9123717371
 20
12.5228701061
 10
15.9142527547
 20
12.528225668
 10
15.9155461534
 20
12.5310443835
  0
LWPOLYLINE
  5
294
100
AcDbEntity
  8
0
100
AcDbPolyline
 62
7
  6
CONTINUOUS
 90
3
 70
0
 10
15.7913385754
 20
12.1312066513
 10
15.7932195929
 20
12.1365622132
 10
15.7945129917
 20
12.1393809287
  0
LWPOLYLINE
  5
295
100
AcDbEntity
  8
0
100
AcDbPolyline
 62
7
  6
CONTINUOUS
 90
3
 70
0
 10
15.6703054137
 20
11.7395431964
 10
15.6721864312
 20
11.7448987584
 10
15.67347983
 20
11.7477174739
  0
LWPOLYLINE
  5
296
100
AcDbEntity
  8
0
100
AcDbPolyline
 62
7
  6
CONTINUOUS
 90
3
 70
0
 10
15.549272252
 20
11.3478797416
 10
15.5511532695
 20
11.3532353036
 10
15.5524466683
 20
11.3560540191
  0
LWPOLYLINE
  5
297
100
AcDbEntity
  8
0
100
AcDbPolyline
 62
7
  6
CONTINUOUS
 90
3
 70
0
 10
15.4282390903
 20
10.9562162868
 10
15.4301201078
 20
10.9615718488
 10
15.4314135066
 20
10.9643905643
  0
LINE
  5
298
100
AcDbEntity
  8
0
100
AcDbLine
 62
7
  6
CONTINUOUS
 10
15.7945129917
 20
12.1393809287
 11
15.7947823372
 21
12.1398466932
  0
LINE
  5
299
100
AcDbEntity
  8
0
100
AcDbLine
 62
7
  6
CONTINUOUS
 10
15.9878457799
 20
12.6635097049
 11
15.9831931896
 21
12.7167538264
  0
LWPOLYLINE
  5
29A
100
AcDbEntity
  8
0
100
AcDbPolyline
 62
7
  6
CONTINUOUS
 90
8
 70
0
 10
15.9831926961
 20
12.7167608505
 10
15.9830856981
 20
12.7181214377
 10
15.9828402973
 20
12.7269947658
 10
15.9833200437
 20
12.7379221989
 10
15.9845954726
 20
12.7496655399
 10
15.9865310342
 20
12.7608361846
 10
15.9888047328
 20
12.7701363225
 10
15.9893691793
 20
12.7720349839
  0
LINE
  5
29B
100
AcDbEntity
  8
0
100
AcDbLine
 62
7
  6
CONTINUOUS
 10
15.9879164036
 20
12.6592431635
 11
15.9878456874
 21
12.6635108511
  0
LWPOLYLINE
  5
29C
100
AcDbEntity
  8
0
100
AcDbPolyline
 62
7
  6
CONTINUOUS
 90
3
 70
0
 10
16.2286035465
 20
13.4346823392
 10
16.22948876
 20
13.4383170468
 10
16.229982727
 20
13.4425700731
  0
LWPOLYLINE
  5
29D
100
AcDbEntity
  8
0
100
AcDbPolyline
 62
7
  6
CONTINUOUS
 90
3
 70
0
 10
16.3496367082
 20
13.826345794
 10
16.3505219217
 20
13.8299805016
 10
16.3510158887
 20
13.834233528
  0
LINE
  5
29E
100
AcDbEntity
  8
0
100
AcDbLine
 62
7
  6
CONTINUOUS
 10
15.67347983
 20
11.7477174739
 11
15.6737491755
 21
11.7481832384
  0
LINE
  5
29F
100
AcDbEntity
  8
0
100
AcDbLine
 62
7
  6
CONTINUOUS
 10
16.1088789416
 20
13.0551731598
 11
16.1042263513
 21
13.1084172812
  0
LWPOLYLINE
  5
2A0
100
AcDbEntity
  8
0
100
AcDbPolyline
 62
7
  6
CONTINUOUS
 90
8
 70
0
 10
16.1042258578
 20
13.1084243053
 10
16.1041188598
 20
13.1097848925
 10
16.103873459
 20
13.1186582206
 10
16.1043532054
 20
13.1295856537
 10
16.1056286343
 20
13.1413289947
 10
16.1075641959
 20
13.1524996394
 10
16.1098378945
 20
13.1617997774
 10
16.110402341
 20
13.1636984387
  0
LINE
  5
2A1
100
AcDbEntity
  8
0
100
AcDbLine
 62
7
  6
CONTINUOUS
 10
16.1089495653
 20
13.0509066183
 11
16.1088788491
 21
13.0551743059
  0
LINE
  5
2A2
100
AcDbEntity
  8
0
100
AcDbLine
 62
7
  6
CONTINUOUS
 10
15.5524466683
 20
11.3560540191
 11
15.5527160138
 21
11.3565197836
  0
LINE
  5
2A3
100
AcDbEntity
  8
0
100
AcDbLine
 62
7
  6
CONTINUOUS
 10
15.4314135066
 20
10.9643905643
 11
15.4316828521
 21
10.9648563288
  0
LWPOLYLINE
  5
2A4
100
AcDbEntity
  8
0
100
AcDbPolyline
 62
7
  6
CONTINUOUS
 90
6
 70
0
 10
16.1601873766
 20
13.2737888663
 10
16.1669509436
 20
13.2747150546
 10
16.1731055791
 20
13.2773576978
 10
16.1780199187
 20
13.2811896759
 10
16.1816632449
 20
13.28578226
 10
16.1840040984
 20
13.2905369938
  0
LINE
  5
2A5
100
AcDbEntity
  8
0
100
AcDbLine
 62
7
  6
CONTINUOUS
 10
16.1444231532
 20
13.2737885839
 11
16.160193224
 21
13.2737885839
  0
LINE
  5
2A6
100
AcDbEntity
  8
0
100
AcDbLine
 62
7
  6
CONTINUOUS
 10
16.2299121033
 20
13.4468366146
 11
16.225259513
 21
13.500080736
  0
LWPOLYLINE
  5
2A7
100
AcDbEntity
  8
0
100
AcDbPolyline
 62
7
  6
CONTINUOUS
 90
8
 70
0
 10
16.2252590195
 20
13.5000877601
 10
16.2251520215
 20
13.5014483473
 10
16.2249066207
 20
13.5103216754
 10
16.2253863671
 20
13.5212491085
 10
16.226661796
 20
13.5329924495
 10
16.2285973576
 20
13.5441630942
 10
16.2308710562
 20
13.5534632322
 10
16.2314355027
 20
13.5553618935
  0
LINE
  5
2A8
100
AcDbEntity
  8
0
100
AcDbLine
 62
7
  6
CONTINUOUS
 10
16.229982727
 20
13.4425700731
 11
16.2299120108
 21
13.4468377608
  0
LINE
  5
2A9
100
AcDbEntity
  8
0
100
AcDbLine
 62
7
  6
CONTINUOUS
 10
16.3746604716
 20
14.0226927621
 11
16.374487017
 21
14.0182769189
  0
LINE
  5
2AA
100
AcDbEntity
  8
0
100
AcDbLine
 62
7
  6
CONTINUOUS
 10
16.350945265
 20
13.8385000694
 11
16.3462926747
 21
13.8917441908
  0
LWPOLYLINE
  5
2AB
100
AcDbEntity
  8
0
100
AcDbPolyline
 62
7
  6
CONTINUOUS
 90
8
 70
0
 10
16.3462921812
 20
13.8917512149
 10
16.3461851832
 20
13.8931118021
 10
16.3459397824
 20
13.9019851302
 10
16.3464195288
 20
13.9129125633
 10
16.3476949577
 20
13.9246559043
 10
16.3496305193
 20
13.935826549
 10
16.3519042179
 20
13.945126687
 10
16.3524686644
 20
13.9470253483
  0
LINE
  5
2AC
100
AcDbEntity
  8
0
100
AcDbLine
 62
7
  6
CONTINUOUS
 10
16.3510158887
 20
13.834233528
 11
16.3509451725
 21
13.8385012156
  0
LWPOLYLINE
  5
2AD
100
AcDbEntity
  8
0
100
AcDbPolyline
 62
7
  6
CONTINUOUS
 90
6
 70
0
 10
16.2812205383
 20
13.6654523212
 10
16.2879841053
 20
13.6663785094
 10
16.2941387408
 20
13.6690211527
 10
16.2990530804
 20
13.6728531307
 10
16.3026964066
 20
13.6774457148
 10
16.3050372601
 20
13.6822004487
  0
LINE
  5
2AE
100
AcDbEntity
  8
0
100
AcDbLine
 62
7
  6
CONTINUOUS
 10
16.2654563149
 20
13.6654520387
 11
16.2812263857
 21
13.6654520387
  0
LINE
  5
2AF
100
AcDbEntity
  8
0
100
AcDbLine
 62
7
  6
CONTINUOUS
 10
16.3746604716
 20
14.0226927621
 11
16.3613372671
 21
14.088418628
  0
LINE
  5
2B0
100
AcDbEntity
  8
0
100
AcDbLine
 62
7
  6
CONTINUOUS
 10
16.3572090423
 20
14.1002795054
 11
16.3429876564
 21
14.1292596429
  0
LINE
  5
2B1
100
AcDbEntity
  8
0
100
AcDbLine
 62
7
  6
CONTINUOUS
 10
16.3123350849
 20
14.1447998921
 11
15.5524597648
 21
14.1447998921
  0
ARC
  5
2B2
100
AcDbEntity
  8
0
100
AcDbCircle
 62
7
  6
CONTINUOUS
 10
5.7397980193
 20
5.4909532562
 40
0.025
100
AcDbArc
 50
191.0
 51
270.0
  0
ARC
  5
2B3
100
AcDbEntity
  8
0
100
AcDbCircle
 62
7
  6
CONTINUOUS
 10
5.7608558875
 20
5.3826199162
 40
0.025
100
AcDbArc
 50
190.9999845197
 51
269.9999970461
  0
ARC
  5
2B4
100
AcDbEntity
  8
0
100
AcDbCircle
 62
7
  6
CONTINUOUS
 10
5.7928672762
 20
5.6109988277
 40
0.1
100
AcDbArc
 50
180.0
 51
191.0
  0
ARC
  5
2B5
100
AcDbEntity
  8
0
100
AcDbCircle
 62
7
  6
CONTINUOUS
 10
5.7178672762
 20
5.6576199229
 40
0.025
100
AcDbArc
 50
90.0
 51
180.0
  0
ARC
  5
2B6
100
AcDbEntity
  8
0
100
AcDbCircle
 62
7
  6
CONTINUOUS
 10
6.520936533
 20
5.4909532562
 40
0.025
100
AcDbArc
 50
270.0
 51
349.0
  0
ARC
  5
2B7
100
AcDbEntity
  8
0
100
AcDbCircle
 62
7
  6
CONTINUOUS
 10
6.4998786662
 20
5.3826199229
 40
0.025
100
AcDbArc
 50
270.0
 51
349.0
  0
ARC
  5
2B8
100
AcDbEntity
  8
0
100
AcDbCircle
 62
7
  6
CONTINUOUS
 10
6.4678672762
 20
5.6109988277
 40
0.1
100
AcDbArc
 50
349.0
 51
360.0
  0
ARC
  5
2B9
100
AcDbEntity
  8
0
100
AcDbCircle
 62
7
  6
CONTINUOUS
 10
6.5428672762
 20
5.6576199229
 40
0.025
100
AcDbArc
 50
0.0
 51
90.0
  0
ARC
  5
2BA
100
AcDbEntity
  8
0
100
AcDbCircle
 62
7
  6
CONTINUOUS
 10
13.7194036734
 20
5.3252080639
 40
0.0270833333
100
AcDbArc
 50
193.0
 51
270.0
  0
ARC
  5
2BB
100
AcDbEntity
  8
0
100
AcDbCircle
 62
7
  6
CONTINUOUS
 10
13.9013068405
 20
5.3252080639
 40
0.0270833333
100
AcDbArc
 50
270.0
 51
347.0
  0
ARC
  5
2BC
100
AcDbEntity
  8
0
100
AcDbCircle
 62
7
  6
CONTINUOUS
 10
14.2194036734
 20
5.3252080639
 40
0.0270833333
100
AcDbArc
 50
193.0
 51
270.0
  0
ARC
  5
2BD
100
AcDbEntity
  8
0
100
AcDbCircle
 62
7
  6
CONTINUOUS
 10
14.4013068405
 20
5.3252080639
 40
0.0270833333
100
AcDbArc
 50
270.0
 51
347.0
  0
ARC
  5
2BE
100
AcDbEntity
  8
0
100
AcDbCircle
 62
7
  6
CONTINUOUS
 10
14.7194036734
 20
5.3252080639
 40
0.0270833333
100
AcDbArc
 50
193.0
 51
270.0
  0
ARC
  5
2BF
100
AcDbEntity
  8
0
100
AcDbCircle
 62
7
  6
CONTINUOUS
 10
14.9013068405
 20
5.3252080639
 40
0.0270833333
100
AcDbArc
 50
270.0
 51
347.0
  0
ARC
  5
2C0
100
AcDbEntity
  8
0
100
AcDbCircle
 62
7
  6
CONTINUOUS
 10
15.2194036734
 20
5.3252080639
 40
0.0270833333
100
AcDbArc
 50
193.0
 51
270.0
  0
ARC
  5
2C1
100
AcDbEntity
  8
0
100
AcDbCircle
 62
7
  6
CONTINUOUS
 10
15.4013068405
 20
5.3252080639
 40
0.0270833333
100
AcDbArc
 50
270.0
 51
347.0
  0
ARC
  5
2C2
100
AcDbEntity
  8
0
100
AcDbCircle
 62
7
  6
CONTINUOUS
 10
13.6513068405
 20
5.3793747306
 40
0.0270833333
100
AcDbArc
 50
13.0
 51
90.0
  0
ARC
  5
2C3
100
AcDbEntity
  8
0
100
AcDbCircle
 62
7
  6
CONTINUOUS
 10
13.9694036734
 20
5.3793747306
 40
0.0270833333
100
AcDbArc
 50
90.0
 51
167.0
  0
ARC
  5
2C4
100
AcDbEntity
  8
0
100
AcDbCircle
 62
7
  6
CONTINUOUS
 10
14.1513068405
 20
5.3793747306
 40
0.0270833333
100
AcDbArc
 50
13.0
 51
90.0
  0
ARC
  5
2C5
100
AcDbEntity
  8
0
100
AcDbCircle
 62
7
  6
CONTINUOUS
 10
14.4694036734
 20
5.3793747306
 40
0.0270833333
100
AcDbArc
 50
90.0
 51
167.0
  0
ARC
  5
2C6
100
AcDbEntity
  8
0
100
AcDbCircle
 62
7
  6
CONTINUOUS
 10
14.6513068405
 20
5.3793747306
 40
0.0270833333
100
AcDbArc
 50
13.0
 51
90.0
  0
ARC
  5
2C7
100
AcDbEntity
  8
0
100
AcDbCircle
 62
7
  6
CONTINUOUS
 10
14.9694036734
 20
5.3793747306
 40
0.0270833333
100
AcDbArc
 50
90.0
 51
167.0
  0
ARC
  5
2C8
100
AcDbEntity
  8
0
100
AcDbCircle
 62
7
  6
CONTINUOUS
 10
15.1513068405
 20
5.3793747306
 40
0.0270833333
100
AcDbArc
 50
13.0
 51
90.0
  0
ARC
  5
2C9
100
AcDbEntity
  8
0
100
AcDbCircle
 62
7
  6
CONTINUOUS
 10
15.4694036734
 20
5.3793747306
 40
0.0270833333
100
AcDbArc
 50
90.0
 51
167.0
  0
ARC
  5
2CA
100
AcDbEntity
  8
0
100
AcDbCircle
 62
7
  6
CONTINUOUS
 10
17.4013068405
 20
5.3252080639
 40
0.0270833333
100
AcDbArc
 50
270.0
 51
347.0
  0
ARC
  5
2CB
100
AcDbEntity
  8
0
100
AcDbCircle
 62
7
  6
CONTINUOUS
 10
17.2194036734
 20
5.3252080639
 40
0.0270833333
100
AcDbArc
 50
193.0
 51
270.0
  0
ARC
  5
2CC
100
AcDbEntity
  8
0
100
AcDbCircle
 62
7
  6
CONTINUOUS
 10
16.9013068405
 20
5.3252080639
 40
0.0270833333
100
AcDbArc
 50
270.0
 51
347.0
  0
ARC
  5
2CD
100
AcDbEntity
  8
0
100
AcDbCircle
 62
7
  6
CONTINUOUS
 10
16.7194036734
 20
5.3252080639
 40
0.0270833333
100
AcDbArc
 50
193.0
 51
270.0
  0
ARC
  5
2CE
100
AcDbEntity
  8
0
100
AcDbCircle
 62
7
  6
CONTINUOUS
 10
16.4013068405
 20
5.3252080639
 40
0.0270833333
100
AcDbArc
 50
270.0
 51
347.0
  0
ARC
  5
2CF
100
AcDbEntity
  8
0
100
AcDbCircle
 62
7
  6
CONTINUOUS
 10
16.2194036734
 20
5.3252080639
 40
0.0270833333
100
AcDbArc
 50
193.0
 51
270.0
  0
ARC
  5
2D0
100
AcDbEntity
  8
0
100
AcDbCircle
 62
7
  6
CONTINUOUS
 10
15.9013068405
 20
5.3252080639
 40
0.0270833333
100
AcDbArc
 50
270.0
 51
347.0
  0
ARC
  5
2D1
100
AcDbEntity
  8
0
100
AcDbCircle
 62
7
  6
CONTINUOUS
 10
15.7194036734
 20
5.3252080639
 40
0.0270833333
100
AcDbArc
 50
193.0
 51
270.0
  0
ARC
  5
2D2
100
AcDbEntity
  8
0
100
AcDbCircle
 62
7
  6
CONTINUOUS
 10
17.4694036734
 20
5.3793747306
 40
0.0270833333
100
AcDbArc
 50
90.0
 51
167.0
  0
ARC
  5
2D3
100
AcDbEntity
  8
0
100
AcDbCircle
 62
7
  6
CONTINUOUS
 10
17.1513068405
 20
5.3793747306
 40
0.0270833333
100
AcDbArc
 50
13.0
 51
90.0
  0
ARC
  5
2D4
100
AcDbEntity
  8
0
100
AcDbCircle
 62
7
  6
CONTINUOUS
 10
16.9694036734
 20
5.3793747306
 40
0.0270833333
100
AcDbArc
 50
90.0
 51
167.0
  0
ARC
  5
2D5
100
AcDbEntity
  8
0
100
AcDbCircle
 62
7
  6
CONTINUOUS
 10
16.6513068405
 20
5.3793747306
 40
0.0270833333
100
AcDbArc
 50
13.0
 51
90.0
  0
ARC
  5
2D6
100
AcDbEntity
  8
0
100
AcDbCircle
 62
7
  6
CONTINUOUS
 10
16.4694036734
 20
5.3793747306
 40
0.0270833333
100
AcDbArc
 50
90.0
 51
167.0
  0
ARC
  5
2D7
100
AcDbEntity
  8
0
100
AcDbCircle
 62
7
  6
CONTINUOUS
 10
16.1513068405
 20
5.3793747306
 40
0.0270833333
100
AcDbArc
 50
13.0
 51
90.0
  0
ARC
  5
2D8
100
AcDbEntity
  8
0
100
AcDbCircle
 62
7
  6
CONTINUOUS
 10
15.9694036734
 20
5.3793747306
 40
0.0270833333
100
AcDbArc
 50
90.0
 51
167.0
  0
ARC
  5
2D9
100
AcDbEntity
  8
0
100
AcDbCircle
 62
7
  6
CONTINUOUS
 10
15.6513068405
 20
5.3793747306
 40
0.0270833333
100
AcDbArc
 50
13.0
 51
90.0
  0
SPLINE
  5
2DA
100
AcDbEntity
  8
0
100
AcDbSpline
 62
7
  6
CONTINUOUS
 70
0
 71
3
 72
15
 73
11
 74
0
 42
0.0000001
 43
0.0000001
 44
0.0000000001
 40
0.0
 40
0.0
 40
0.0
 40
0.0
 40
0.1295681014
 40
0.2645750133
 40
0.4012659259
 40
0.5362717551
 40
0.666215876
 40
0.7881016877
 40
0.8998147638
 40
1.0
 40
1.0
 40
1.0
 40
1.0
 10
16.3123350849
 20
14.1447998921
 30
0.0
 10
16.3138833384
 20
14.1447998921
 30
0.0
 10
16.317047283
 20
14.1445846712
 30
0.0
 10
16.3217697964
 20
14.1437007716
 30
0.0
 10
16.3264261101
 20
14.1422733219
 30
0.0
 10
16.3308379886
 20
14.1403580041
 30
0.0
 10
16.3348441822
 20
14.1380293097
 30
0.0
 10
16.3382962632
 20
14.1353679694
 30
0.0
 10
16.341062123
 20
14.1324719317
 30
0.0
 10
16.3424602617
 20
14.1303343602
 30
0.0
 10
16.3429876564
 20
14.1292596429
 30
0.0
  0
SPLINE
  5
2DB
100
AcDbEntity
  8
0
100
AcDbSpline
 62
7
  6
CONTINUOUS
 70
0
 71
3
 72
15
 73
11
 74
0
 42
0.0000001
 43
0.0000001
 44
0.0000000001
 40
0.0
 40
0.0
 40
0.0
 40
0.0
 40
0.0996463862
 40
0.2028723244
 40
0.3125946214
 40
0.4308580372
 40
0.55881672
 40
0.6968324808
 40
0.8443988021
 40
1.0
 40
1.0
 40
1.0
 40
1.0
 10
15.5362002797
 20
14.1366408343
 30
0.0
 10
15.5363903949
 20
14.1372560777
 30
0.0
 10
15.536929031
 20
14.1384670243
 30
0.0
 10
15.5381600189
 20
14.1400879731
 30
0.0
 10
15.5397834121
 20
14.1415031388
 30
0.0
 10
15.5417675872
 20
14.1426871941
 30
0.0
 10
15.5440751352
 20
14.1436258236
 30
0.0
 10
15.546666745
 20
14.1443045559
 30
0.0
 10
15.5494936128
 20
14.1447122128
 30
0.0
 10
15.5514542192
 20
14.1447998921
 30
0.0
 10
15.5524597648
 20
14.1447998921
 30
0.0
  0
SPLINE
  5
2DC
100
AcDbEntity
  8
0
100
AcDbSpline
 62
7
  6
CONTINUOUS
 70
0
 71
3
 72
11
 73
7
 74
0
 42
0.0000001
 43
0.0000001
 44
0.0000000001
 40
0.0
 40
0.0
 40
0.0
 40
0.0
 40
0.2336955765
 40
0.4747288227
 40
0.728954529
 40
1.0
 40
1.0
 40
1.0
 40
1.0
 10
14.5679349861
 20
11.0033331958
 30
0.0
 10
14.5677601312
 20
11.002767337
 30
0.0
 10
14.5675298182
 20
11.0015751881
 30
0.0
 10
14.5675720997
 20
10.9997159089
 30
0.0
 10
14.5679899115
 20
10.9978087367
 30
0.0
 10
14.5684913776
 20
10.9965686699
 30
0.0
 10
14.568793993
 20
10.9959520043
 30
0.0
  0
SPLINE
  5
2DD
100
AcDbEntity
  8
0
100
AcDbSpline
 62
7
  6
CONTINUOUS
 70
0
 71
3
 72
9
 73
5
 74
0
 42
0.0000001
 43
0.0000001
 44
0.0000000001
 40
0.0
 40
0.0
 40
0.0
 40
0.0
 40
0.5134075832
 40
1.0
 40
1.0
 40
1.0
 40
1.0
 10
16.3572090423
 20
14.1002795054
 30
0.0
 10
16.358157824
 20
14.0983460915
 30
0.0
 10
16.3597984141
 20
14.094473297
 30
0.0
 10
16.3609317497
 20
14.090419121
 30
0.0
 10
16.3613372671
 20
14.088418628
 30
0.0
  0
SPLINE
  5
2DE
100
AcDbEntity
  8
0
100
AcDbSpline
 62
7
  6
CONTINUOUS
 70
0
 71
3
 72
14
 73
10
 74
0
 42
0.0000001
 43
0.0000001
 44
0.0000000001
 40
0.0
 40
0.0
 40
0.0
 40
0.0
 40
0.1555865102
 40
0.3032329137
 40
0.5688638923
 40
0.6871849132
 40
0.7969112147
 40
0.9001857207
 40
1.0
 40
1.0
 40
1.0
 40
1.0
 10
15.3899626436
 20
10.8768100938
 30
0.0
 10
15.3909675143
 20
10.8768100938
 30
0.0
 10
15.392928285
 20
10.8768980693
 30
0.0
 10
15.3965663523
 20
10.87742284
 30
0.0
 10
15.3998876424
 20
10.878466908
 30
0.0
 10
15.4026382151
 20
10.8801058583
 30
0.0
 10
15.4042619884
 20
10.8815202632
 30
0.0
 10
15.4054923315
 20
10.8831418406
 30
0.0
 10
15.4060319635
 20
10.8843531814
 30
0.0
 10
15.4062215664
 20
10.8849693288
 30
0.0
  0
SPLINE
  5
2DF
100
AcDbEntity
  8
0
100
AcDbSpline
 62
7
  6
CONTINUOUS
 70
0
 71
3
 72
15
 73
11
 74
0
 42
0.0000001
 43
0.0000001
 44
0.0000000001
 40
0.0
 40
0.0
 40
0.0
 40
0.0
 40
0.1075852716
 40
0.2244574749
 40
0.3487076044
 40
0.4782296156
 40
0.6107081583
 40
0.7436385777
 40
0.8743957215
 40
1.0
 40
1.0
 40
1.0
 40
1.0
 10
14.6417120367
 20
10.8893851236
 30
0.0
 10
14.642424695
 20
10.888469991
 30
0.0
 10
14.6440778758
 20
10.8866879175
 30
0.0
 10
14.646988928
 20
10.8842946949
 30
0.0
 10
14.6503644213
 20
10.88213974
 30
0.0
 10
14.6540989256
 20
10.8802810284
 30
0.0
 10
14.6580886499
 20
10.8787744749
 30
0.0
 10
14.6622189455
 20
10.8776593098
 30
0.0
 10
14.6663667516
 20
10.8769759491
 30
0.0
 10
14.6691322702
 20
10.8768100938
 30
0.0
 10
14.6704864278
 20
10.8768100938
 30
0.0
  0
SPLINE
  5
2E0
100
AcDbEntity
  8
0
100
AcDbSpline
 62
7
  6
CONTINUOUS
 70
0
 71
3
 72
9
 73
5
 74
0
 42
0.0000001
 43
0.0000001
 44
0.0000000001
 40
0.0
 40
0.0
 40
0.0
 40
0.0
 40
0.2397652041
 40
1.0
 40
1.0
 40
1.0
 40
1.0
 10
14.5830153789
 20
10.9669718668
 30
0.0
 10
14.583510213
 20
10.9659635009
 30
0.0
 10
14.5856962085
 20
10.9618181023
 30
0.0
 10
14.5883398502
 20
10.9579209463
 30
0.0
 10
14.5905281006
 20
10.9551109895
 30
0.0
  0
SPLINE
  5
2E1
100
AcDbEntity
  8
0
100
AcDbSpline
 62
7
  6
CONTINUOUS
 70
0
 71
3
 72
9
 73
5
 74
0
 42
0.0000001
 43
0.0000001
 44
0.0000000001
 40
0.0
 40
0.0
 40
0.0
 40
0.0
 40
0.4865924168
 40
1.0
 40
1.0
 40
1.0
 40
1.0
 10
15.3930719734
 20
10.9551109895
 30
0.0
 10
15.3926664561
 20
10.9571114825
 30
0.0
 10
15.3915331205
 20
10.9611656585
 30
0.0
 10
15.3898925304
 20
10.965038453
 30
0.0
 10
15.3889437487
 20
10.9669718668
 30
0.0
  0
SPLINE
  5
2E2
100
AcDbEntity
  8
0
100
AcDbSpline
 62
7
  6
CONTINUOUS
 70
0
 71
3
 72
15
 73
11
 74
0
 42
0.0000001
 43
0.0000001
 44
0.0000000001
 40
0.0
 40
0.0
 40
0.0
 40
0.0
 40
0.1001852362
 40
0.2118983123
 40
0.333784124
 40
0.4637282449
 40
0.5987340741
 40
0.7354249867
 40
0.8704318986
 40
1.0
 40
1.0
 40
1.0
 40
1.0
 10
15.3747223628
 20
10.9959520043
 30
0.0
 10
15.3741949681
 20
10.9970267217
 30
0.0
 10
15.3727968294
 20
10.9991642932
 30
0.0
 10
15.3700309696
 20
11.0020603308
 30
0.0
 10
15.3665788885
 20
11.0047216711
 30
0.0
 10
15.362572695
 20
11.0070503656
 30
0.0
 10
15.3581608165
 20
11.0089656834
 30
0.0
 10
15.3535045028
 20
11.0103931331
 30
0.0
 10
15.3487819894
 20
11.0112770327
 30
0.0
 10
15.3456180448
 20
11.0114922535
 30
0.0
 10
15.3440697913
 20
11.0114922535
 30
0.0
  0
SPLINE
  5
2E3
100
AcDbEntity
  8
0
100
AcDbSpline
 62
7
  6
CONTINUOUS
 70
0
 71
3
 72
15
 73
11
 74
0
 42
0.0000001
 43
0.0000001
 44
0.0000000001
 40
0.0
 40
0.0
 40
0.0
 40
0.0
 40
0.1556011979
 40
0.3031675192
 40
0.44118328
 40
0.5691419628
 40
0.6874053786
 40
0.7971276756
 40
0.9003536138
 40
1.0
 40
1.0
 40
1.0
 40
1.0
 10
14.5841944712
 20
11.0114922535
 30
0.0
 10
14.5831889256
 20
11.0114922535
 30
0.0
 10
14.5812283192
 20
11.0114045743
 30
0.0
 10
14.5784014514
 20
11.0109969174
 30
0.0
 10
14.5758098416
 20
11.0103181851
 30
0.0
 10
14.5735022935
 20
11.0093795556
 30
0.0
 10
14.5715181185
 20
11.0081955003
 30
0.0
 10
14.5698947253
 20
11.0067803346
 30
0.0
 10
14.5686637374
 20
11.0051593858
 30
0.0
 10
14.5681251013
 20
11.0039484392
 30
0.0
 10
14.5679349861
 20
11.0033331958
 30
0.0
  0
ENDSEC
  0
SECTION
  2
OBJECTS
  0
DICTIONARY
  5
C
100
AcDbDictionary
280
0
281
1
  3
ACAD_GROUP
350
D
  3
ACAD_MLINESTYLE
350
17
  3
ACAD_LAYOUT
350
1A
  3
ACAD_PLOTSETTINGS
350
19
  3
ACAD_PLOTSTYLENAME
350
E
  0
DICTIONARY
  5
D
102
{ACAD_REACTORS
330
C
102
}
100
AcDbDictionary
280
0
281
1
  0
ACDBDICTIONARYWDFLT
  5
E
102
{ACAD_REACTORS
330
C
102
}
100
AcDbDictionary
281
1
  3
Normal
350
F
100
AcDbDictionaryWithDefault
340
F
  0
DICTIONARY
  5
17
102
{ACAD_REACTORS
330
C
102
}
100
AcDbDictionary
280
0
281
1
  3
Standard
350
18
  0
DICTIONARY
  5
19
102
{ACAD_REACTORS
330
C
102
}
100
AcDbDictionary
281
1
  0
DICTIONARY
  5
1A
102
{ACAD_REACTORS
330
C
102
}
100
AcDbDictionary
281
1
  3
Model
350
2E4
  3
Layout1
350
2E5
  0
ACDBPLACEHOLDER
  5
F
102
{ACAD_REACTORS
330
E
102
}
  0
MLINESTYLE
  5
18
102
{ACAD_REACTORS
330
17
102
}
100
AcDbMlineStyle
  2
STANDARD
 70
0
  3

 62
256
 51
90.0
 52
90.0
 71
2
 49
0.5
 62
256
  6
BYLAYER
 49
-0.5
 62
256
  6
BYLAYER
  0
LAYOUT
  5
2E4
102
{ACAD_REACTORS
330
1A
102
}
100
AcDbPlotSettings
  1

  2
none_device
  4
ANSI_C_(22.00_x_17.00_Inches)
  6

 40
0.0
 41
0.0
 42
0.0
 43
0.0
 44
558.8
 45
431.8
 46
0.0
 47
0.0
 48
0.0
 49
0.0
140
0.0
141
0.0
142
1.0
143
1.0
 70
1024
 72
0
 73
0
 74
0
  7

 75
0
147
1.0
148
0.0
149
0.0
100
AcDbLayout
  1
Model
 70
0
 71
0
 10
0.0
 20
0.0
 11
22.0
 21
17.0
 12
0.0
 22
0.0
 32
0.0
 14
0.0
 24
0.0
 34
0.0
 15
0.0
 25
0.0
 35
0.0
146
0.0
 13
0.0
 23
0.0
 33
0.0
 16
1.0
 26
0.0
 36
0.0
 17
0.0
 27
1.0
 37
0.0
 76
0
330
216
345
0
346
0
  0
LAYOUT
  5
2E5
102
{ACAD_REACTORS
330
1A
102
}
100
AcDbPlotSettings
  1

  2
none_device
  4
ANSI_C_(22.00_x_17.00_Inches)
  6

 40
0.0
 41
0.0
 42
0.0
 43
0.0
 44
558.8
 45
431.8
 46
0.0
 47
0.0
 48
0.0
 49
0.0
140
0.0
141
0.0
142
1.0
143
1.0
 70
0
 72
0
 73
0
 74
0
  7

 75
0
147
1.0
148
0.0
149
0.0
100
AcDbLayout
  1
Layout1
 70
0
 71
1
 10
0.0
 20
0.0
 11
22.0
 21
17.0
 12
0.0
 22
0.0
 32
0.0
 14
0.0
 24
0.0
 34
0.0
 15
0.0
 25
0.0
 35
0.0
146
0.0
 13
0.0
 23
0.0
 33
0.0
 16
1.0
 26
0.0
 36
0.0
 17
0.0
 27
1.0
 37
0.0
 76
0
330
217
345
0
346
0
  0
ENDSEC
  0
EOF