999
DXF file: _cgs_temp_output.dxf
999
Pro/ENGINEER 2016360 by Parametric Technology Corporation
  0
SECTION
  2
HEADER
  9
$ACADVER
  1
AC1021
  9
$DWGCODEPAGE
  3
ANSI_1252
  9
$EXTMAX
 10
22.0
 20
17.0
 30
0.0
  9
$EXTMIN
 10
0.0
 20
0.0
 30
0.0
  9
$LIMMIN
 10
0.0
 20
0.0
  9
$LIMMAX
 10
22.0
 20
17.0
  9
$VIEWCTR
 10
11.0
 20
8.5
  9
$VIEWSIZE
 40
17.0
  9
$CLAYER
  8
0
  9
$LTSCALE
 40
1.21
  9
$CELTYPE
  6
BYLAYER
  9
$DIMSCALE
 40
1.0
  9
$DIMASZ
 40
0.1875
  9
$DIMEXO
 40
0.0625
  9
$DIMDLI
 40
0.836
  9
$DIMEXE
 40
0.125
  9
$DIMCEN
 40
0.198
  9
$DIMLFAC
 40
1.0
  9
$DIMBLK
  1
_CLOSED
  9
$DIMALT
 70
0
  9
$DIMALTF
 40
25.4
  9
$DIMTXT
 40
0.15625
  9
$DIMTOL
 70
0
  9
$DIMLIM
 70
0
  9
$DIMTFAC
 40
1.0
  9
$DIMGAP
 40
0.09
  9
$DIMDSEP
 70
46
  9
$AUNITS
 70
0
  9
$PDMODE
 70
3
  9
$PDSIZE
 40
0.3125
  9
$HANDSEED
  5
2F6
  9
$TILEMODE
 70
1
  9
$MEASUREMENT
 70
0
  9
$INSUNITS
 70
1
  0
ENDSEC
  0
SECTION
  2
CLASSES
  0
CLASS
  1
ACDBDICTIONARYWDFLT
  2
AcDbDictionaryWithDefault
  3
AutoCAD 2000
 90
0
 91
1
280
0
281
0
  0
CLASS
  1
ACDBPLACEHOLDER
  2
AcDbPlaceHolder
  3
AutoCAD 2000
 90
0
 91
1
280
0
281
0
  0
CLASS
  1
LAYOUT
  2
AcDbLayout
  3
AutoCAD 2000
 90
0
 91
0
280
0
281
0
  0
ENDSEC
  0
SECTION
  2
TABLES
  0
TABLE
  2
VPORT
  5
8
100
AcDbSymbolTable
 70
2
  0
VPORT
  5
1F4
100
AcDbSymbolTableRecord
100
AcDbViewportTableRecord
  2
*ACTIVE
 70
0
 10
0.0
 20
0.0
 11
1.0
 21
1.0
 12
11.0
 22
8.5
 13
0.0
 23
0.0
 14
1.0
 24
1.0
 15
0.0
 25
0.0
 16
0.0
 26
0.0
 36
1.0
 17
0.0
 27
0.0
 37
0.0
 40
17.0
 41
1.2941176471
 42
50.0
 43
0.0
 44
0.0
 50
0.0
 51
0.0
 71
0
 72
100
 73
1
 74
1
 75
0
 76
0
 77
0
 78
0
  0
ENDTAB
  0
TABLE
  2
LTYPE
  5
5
100
AcDbSymbolTable
 70
6
  0
LTYPE
  5
14
100
AcDbSymbolTableRecord
100
AcDbLinetypeTableRecord
  2
BYBLOCK
 70
0
  3

 72
65
 73
0
 40
0.0
  0
LTYPE
  5
15
100
AcDbSymbolTableRecord
100
AcDbLinetypeTableRecord
  2
BYLAYER
 70
0
  3

 72
65
 73
0
 40
0.0
  0
LTYPE
  5
16
100
AcDbSymbolTableRecord
100
AcDbLinetypeTableRecord
  2
CONTINUOUS
 70
64
  3
Solid line
 72
65
 73
0
 40
0.0
  0
LTYPE
  5
1F5
100
AcDbSymbolTableRecord
100
AcDbLinetypeTableRecord
  2
CENTER
 70
64
  3
____ _ ____ _ ____ _ ____ _ ____ _ ____ _ ____
 72
65
 73
4
 40
0.6
 49
0.375
 74
0
 49
-0.075
 74
0
 49
0.075
 74
0
 49
-0.075
 74
0
  0
LTYPE
  5
1F6
100
AcDbSymbolTableRecord
100
AcDbLinetypeTableRecord
  2
HIDDEN
 70
64
  3
- - - - - - - - - - - - - - - - - - - -
 72
65
 73
2
 40
0.2
 49
0.1
 74
0
 49
-0.1
 74
0
  0
LTYPE
  5
1F7
100
AcDbSymbolTableRecord
100
AcDbLinetypeTableRecord
  2
PHANTOM
 70
64
  3
_____ _ _ _____ _ _ _____ _ _ _____
 72
65
 73
6
 40
0.8
 49
0.45
 74
0
 49
-0.05
 74
0
 49
0.1
 74
0
 49
-0.05
 74
0
 49
0.1
 74
0
 49
-0.05
 74
0
  0
LTYPE
  5
1F8
100
AcDbSymbolTableRecord
100
AcDbLinetypeTableRecord
  2
DOT
 70
64
  3
. . . . . . . . . . . . . . . . . . . .
 72
65
 73
2
 40
0.2
 49
0.1
 74
0
 49
-0.1
 74
0
  0
LTYPE
  5
1F9
100
AcDbSymbolTableRecord
100
AcDbLinetypeTableRecord
  2
DASHED
 70
64
  3
- - - - - - - - - - - - - - - - - - - -
 72
65
 73
2
 40
0.2
 49
0.1
 74
0
 49
-0.1
 74
0
  0
ENDTAB
  0
TABLE
  2
LAYER
  5
2
100
AcDbSymbolTable
 70
36
  0
LAYER
  5
10
100
AcDbSymbolTableRecord
100
AcDbLayerTableRecord
  2
0
 70
0
 62
7
  6
CONTINUOUS
370
-3
390
F
  0
LAYER
  5
1FA
100
AcDbSymbolTableRecord
100
AcDbLayerTableRecord
  2
DEFAULT_1
 70
0
 62
7
  6
CENTER
370
-3
390
F
  0
LAYER
  5
1FB
100
AcDbSymbolTableRecord
100
AcDbLayerTableRecord
  2
DEFAULT_2
 70
0
 62
8
  6
HIDDEN
370
-3
390
F
  0
LAYER
  5
1FC
100
AcDbSymbolTableRecord
100
AcDbLayerTableRecord
  2
DEFAULT_3
 70
0
 62
7
  6
PHANTOM
370
-3
390
F
  0
LAYER
  5
1FD
100
AcDbSymbolTableRecord
100
AcDbLayerTableRecord
  2
01_ALL_DTM_PLN
 70
0
 62
7
  6
CONTINUOUS
370
-3
390
F
  0
LAYER
  5
1FE
100
AcDbSymbolTableRecord
100
AcDbLayerTableRecord
  2
01__ASM_ALL_DTM_PLN
 70
0
 62
7
  6
CONTINUOUS
370
-3
390
F
  0
LAYER
  5
1FF
100
AcDbSymbolTableRecord
100
AcDbLayerTableRecord
  2
01__ASM_DEF_DTM_PLN
 70
0
 62
7
  6
CONTINUOUS
370
-3
390
F
  0
LAYER
  5
200
100
AcDbSymbolTableRecord
100
AcDbLayerTableRecord
  2
01___PRT_ALL_DTM_PLN
 70
0
 62
7
  6
CONTINUOUS
370
-3
390
F
  0
LAYER
  5
201
100
AcDbSymbolTableRecord
100
AcDbLayerTableRecord
  2
01___PRT_DEF_DTM_PLN
 70
0
 62
7
  6
CONTINUOUS
370
-3
390
F
  0
LAYER
  5
202
100
AcDbSymbolTableRecord
100
AcDbLayerTableRecord
  2
02_ALL_AXES
 70
0
 62
7
  6
CONTINUOUS
370
-3
390
F
  0
LAYER
  5
203
100
AcDbSymbolTableRecord
100
AcDbLayerTableRecord
  2
02__ASM_ALL_AXES
 70
0
 62
7
  6
CONTINUOUS
370
-3
390
F
  0
LAYER
  5
204
100
AcDbSymbolTableRecord
100
AcDbLayerTableRecord
  2
02___PRT_ALL_AXES
 70
0
 62
7
  6
CONTINUOUS
370
-3
390
F
  0
LAYER
  5
205
100
AcDbSymbolTableRecord
100
AcDbLayerTableRecord
  2
03_ALL_CURVES
 70
0
 62
7
  6
CONTINUOUS
370
-3
390
F
  0
LAYER
  5
206
100
AcDbSymbolTableRecord
100
AcDbLayerTableRecord
  2
03__ASM_ALL_CURVES
 70
0
 62
7
  6
CONTINUOUS
370
-3
390
F
  0
LAYER
  5
207
100
AcDbSymbolTableRecord
100
AcDbLayerTableRecord
  2
03___PRT_ALL_CURVES
 70
0
 62
7
  6
CONTINUOUS
370
-3
390
F
  0
LAYER
  5
208
100
AcDbSymbolTableRecord
100
AcDbLayerTableRecord
  2
04_ALL_DTM_PNT
 70
0
 62
7
  6
CONTINUOUS
370
-3
390
F
  0
LAYER
  5
209
100
AcDbSymbolTableRecord
100
AcDbLayerTableRecord
  2
04__ASM_ALL_DTM_PNT
 70
0
 62
7
  6
CONTINUOUS
370
-3
390
F
  0
LAYER
  5
20A
100
AcDbSymbolTableRecord
100
AcDbLayerTableRecord
  2
04___PRT_ALL_DTM_PNT
 70
0
 62
7
  6
CONTINUOUS
370
-3
390
F
  0
LAYER
  5
20B
100
AcDbSymbolTableRecord
100
AcDbLayerTableRecord
  2
05_ALL_DTM_CSYS
 70
0
 62
7
  6
CONTINUOUS
370
-3
390
F
  0
LAYER
  5
20C
100
AcDbSymbolTableRecord
100
AcDbLayerTableRecord
  2
05__ASM_ALL_DTM_CSYS
 70
0
 62
7
  6
CONTINUOUS
370
-3
390
F
  0
LAYER
  5
20D
100
AcDbSymbolTableRecord
100
AcDbLayerTableRecord
  2
05__ASM_DEF_DTM_CSYS
 70
0
 62
7
  6
CONTINUOUS
370
-3
390
F
  0
LAYER
  5
20E
100
AcDbSymbolTableRecord
100
AcDbLayerTableRecord
  2
05___PRT_ALL_DTM_CSYS
 70
0
 62
7
  6
CONTINUOUS
370
-3
390
F
  0
LAYER
  5
20F
100
AcDbSymbolTableRecord
100
AcDbLayerTableRecord
  2
05___PRT_DEF_DTM_CSYS
 70
0
 62
7
  6
CONTINUOUS
370
-3
390
F
  0
LAYER
  5
210
100
AcDbSymbolTableRecord
100
AcDbLayerTableRecord
  2
06_ALL_SURFS
 70
0
 62
7
  6
CONTINUOUS
370
-3
390
F
  0
LAYER
  5
211
100
AcDbSymbolTableRecord
100
AcDbLayerTableRecord
  2
06__ASM_ALL_SURFS
 70
0
 62
7
  6
CONTINUOUS
370
-3
390
F
  0
LAYER
  5
212
100
AcDbSymbolTableRecord
100
AcDbLayerTableRecord
  2
06___PRT_ALL_SURFS
 70
0
 62
7
  6
CONTINUOUS
370
-3
390
F
  0
LAYER
  5
213
100
AcDbSymbolTableRecord
100
AcDbLayerTableRecord
  2
07__ASM_ALL_SKELETONS
 70
0
 62
7
  6
CONTINUOUS
370
-3
390
F
  0
LAYER
  5
214
100
AcDbSymbolTableRecord
100
AcDbLayerTableRecord
  2
LAYER_AXIS
 70
0
 62
7
  6
CONTINUOUS
370
-3
390
F
  0
LAYER
  5
215
100
AcDbSymbolTableRecord
100
AcDbLayerTableRecord
  2
LAYER_CHAMFER_FEAT
 70
0
 62
7
  6
CONTINUOUS
370
-3
390
F
  0
LAYER
  5
216
100
AcDbSymbolTableRecord
100
AcDbLayerTableRecord
  2
LAYER_CUT_FEAT
 70
0
 62
7
  6
CONTINUOUS
370
-3
390
F
  0
LAYER
  5
217
100
AcDbSymbolTableRecord
100
AcDbLayerTableRecord
  2
LAYER_DATUM
 70
0
 62
7
  6
CONTINUOUS
370
-3
390
F
  0
LAYER
  5
218
100
AcDbSymbolTableRecord
100
AcDbLayerTableRecord
  2
LAYER_DIM
 70
0
 62
7
  6
CONTINUOUS
370
-3
390
F
  0
LAYER
  5
219
100
AcDbSymbolTableRecord
100
AcDbLayerTableRecord
  2
LAYER_FEATURE
 70
0
 62
7
  6
CONTINUOUS
370
-3
390
F
  0
LAYER
  5
21A
100
AcDbSymbolTableRecord
100
AcDbLayerTableRecord
  2
LAYER_GEOM_FEAT
 70
0
 62
7
  6
CONTINUOUS
370
-3
390
F
  0
LAYER
  5
21B
100
AcDbSymbolTableRecord
100
AcDbLayerTableRecord
  2
LAYER_NOGEOM_FEAT
 70
0
 62
7
  6
CONTINUOUS
370
-3
390
F
  0
LAYER
  5
21C
100
AcDbSymbolTableRecord
100
AcDbLayerTableRecord
  2
LAYER_PARAMETER_DIM
 70
0
 62
7
  6
CONTINUOUS
370
-3
390
F
  0
LAYER
  5
21D
100
AcDbSymbolTableRecord
100
AcDbLayerTableRecord
  2
LAYER_PROTRUSION_FEAT
 70
0
 62
7
  6
CONTINUOUS
370
-3
390
F
  0
LAYER
  5
21E
100
AcDbSymbolTableRecord
100
AcDbLayerTableRecord
  2
LAYER_QUILT
 70
0
 62
7
  6
CONTINUOUS
370
-3
390
F
  0
LAYER
  5
21F
100
AcDbSymbolTableRecord
100
AcDbLayerTableRecord
  2
LAYER_ROUND_FEAT
 70
0
 62
7
  6
CONTINUOUS
370
-3
390
F
  0
ENDTAB
  0
TABLE
  2
STYLE
  5
3
100
AcDbSymbolTable
 70
1
  0
STYLE
  5
11
100
AcDbSymbolTableRecord
100
AcDbTextStyleTableRecord
  2
STANDARD
 70
0
 40
0.0
 41
0.8
 50
0.0
 71
0
 42
0.2
  3
txt
  4

  0
STYLE
  5
220
100
AcDbSymbolTableRecord
100
AcDbTextStyleTableRecord
  2
TEXTSTYLE_1
 70
0
 40
0.0
 41
0.8
 50
0.0
 71
0
 42
0.2
  3
gdt
  4

  0
ENDTAB
  0
TABLE
  2
VIEW
  5
6
100
AcDbSymbolTable
 70
0
  0
ENDTAB
  0
TABLE
  2
UCS
  5
7
100
AcDbSymbolTable
 70
0
  0
ENDTAB
  0
TABLE
  2
APPID
  5
9
100
AcDbSymbolTable
 70
1
  0
APPID
  5
221
100
AcDbSymbolTableRecord
100
AcDbRegAppTableRecord
  2
ACAD
 70
0
  0
ENDTAB
  0
TABLE
  2
BLOCK_RECORD
  5
1
100
AcDbSymbolTable
 70
0
  0
BLOCK_RECORD
  5
222
100
AcDbSymbolTableRecord
100
AcDbBlockTableRecord
  2
*Model_Space
  0
BLOCK_RECORD
  5
223
100
AcDbSymbolTableRecord
100
AcDbBlockTableRecord
  2
*Paper_Space
  0
ENDTAB
  0
TABLE
  2
DIMSTYLE
  5
A
100
AcDbSymbolTable
 70
1
100
AcDbDimStyleTable
 71
0
  0
DIMSTYLE
105
224
100
AcDbSymbolTableRecord
100
AcDbDimStyleTableRecord
  2
STANDARD
 70
0
  3

  4

 40
1.0
 41
0.1875
 42
0.0625
 43
0.38
 44
0.125
 45
0.0
 46
0.0
 47
0.0001
 48
0.0001
140
0.15625
141
0.09
142
0.0
143
25.4
144
1.0
145
0.0
146
1.0
147
0.09
 71
0.0
 72
0.0
 73
1
 74
1
 75
0
 76
0
 77
0
 78
4
 79
1
170
0
171
3
172
0
173
0
174
0
175
0
176
0
177
0
178
0
270
2
179
4
271
4
272
4
273
2
274
2
275
0
280
0
281
0
282
0
283
1
284
4
285
0
286
0
287
3
288
0
340
11
278
46
  0
ENDTAB
  0
ENDSEC
  0
SECTION
  2
BLOCKS
  0
BLOCK
  5
20
100
AcDbEntity
  8
0
100
AcDbBlockBegin
  2
*Model_Space
 70
0
 10
0.0
 20
0.0
 30
0.0
  3
*Model_Space
  1

  0
ENDBLK
  5
21
100
AcDbEntity
  8
0
100
AcDbBlockEnd
  0
BLOCK
  5
1C
100
AcDbEntity
  8
0
100
AcDbBlockBegin
  2
*Paper_Space
 70
0
 10
0.0
 20
0.0
 30
0.0
  3
*Paper_Space
  1

  0
ENDBLK
  5
1D
100
AcDbEntity
  8
0
100
AcDbBlockEnd
  0
ENDSEC
  0
SECTION
  2
ENTITIES
  0
MTEXT
  5
225
100
AcDbEntity
  8
0
100
AcDbMText
 62
7
  6
CONTINUOUS
  7
STANDARD
 71
1
 72
1
 10
15.9560215477
 20
0.9479130325
 30
0.0
 11
1.0
 21
0.0
 31
0.0
 44
0.9
  1
SCALE: 1:0.143
 40
0.3
 41
3.36
  0
LINE
  5
226
100
AcDbEntity
  8
0
100
AcDbLine
 62
7
  6
CONTINUOUS
 10
0.0
 20
0.0
 11
0.0
 21
17.0
  0
LINE
  5
227
100
AcDbEntity
  8
0
100
AcDbLine
 62
7
  6
CONTINUOUS
 10
0.0
 20
0.0
 11
22.0
 21
0.0
  0
LINE
  5
228
100
AcDbEntity
  8
0
100
AcDbLine
 62
7
  6
CONTINUOUS
 10
0.0
 20
17.0
 11
22.0
 21
17.0
  0
LINE
  5
229
100
AcDbEntity
  8
0
100
AcDbLine
 62
7
  6
CONTINUOUS
 10
22.0
 20
0.0
 11
22.0
 21
17.0
  0
LINE
  5
22A
100
AcDbEntity
  8
02___PRT_ALL_AXES
100
AcDbLine
 62
7
  6
CONTINUOUS
 10
5.7296529905
 20
4.1245162423
 11
6.5310815619
 21
4.1245162423
  0
LINE
  5
22B
100
AcDbEntity
  8
0
100
AcDbLine
 62
7
  6
CONTINUOUS
 10
5.7296529905
 20
4.124516313
 11
5.7296529905
 21
6.9155663719
  0
LINE
  5
22C
100
AcDbEntity
  8
0
100
AcDbLine
 62
7
  6
CONTINUOUS
 10
6.5310815619
 20
4.124516313
 11
6.5310815619
 21
6.9155663719
  0
LINE
  5
22D
100
AcDbEntity
  8
0
100
AcDbLine
 62
7
  6
CONTINUOUS
 10
5.7296529905
 20
6.8904077453
 11
6.5310815619
 21
6.8904077453
  0
LINE
  5
22E
100
AcDbEntity
  8
0
100
AcDbLine
 62
7
  6
CONTINUOUS
 10
5.7296529905
 20
6.8904789781
 11
6.5310815619
 21
6.8904789781
  0
LINE
  5
22F
100
AcDbEntity
  8
0
100
AcDbLine
 62
7
  6
CONTINUOUS
 10
5.7296529905
 20
6.9012956499
 11
6.5310815619
 21
6.9012956499
  0
LINE
  5
230
100
AcDbEntity
  8
0
100
AcDbLine
 62
7
  6
CONTINUOUS
 10
5.7296529905
 20
6.9031539475
 11
6.5310815619
 21
6.9031539475
  0
LINE
  5
231
100
AcDbEntity
  8
0
100
AcDbLine
 62
7
  6
CONTINUOUS
 10
5.7296529905
 20
6.9031856481
 11
6.5310815619
 21
6.9031856481
  0
LINE
  5
232
100
AcDbEntity
  8
0
100
AcDbLine
 62
7
  6
CONTINUOUS
 10
5.7296529905
 20
6.9104316385
 11
6.5310815619
 21
6.9104316385
  0
LINE
  5
233
100
AcDbEntity
  8
0
100
AcDbLine
 62
7
  6
CONTINUOUS
 10
5.7296529905
 20
6.911548961
 11
6.5310815619
 21
6.911548961
  0
LINE
  5
234
100
AcDbEntity
  8
0
100
AcDbLine
 62
7
  6
CONTINUOUS
 10
5.7296529905
 20
6.91519354
 11
6.5310815619
 21
6.91519354
  0
LINE
  5
235
100
AcDbEntity
  8
0
100
AcDbLine
 62
7
  6
CONTINUOUS
 10
5.7296529905
 20
6.9155663719
 11
6.5310815619
 21
6.9155663719
  0
LINE
  5
236
100
AcDbEntity
  8
02___PRT_ALL_AXES
100
AcDbLine
 62
7
  6
CONTINUOUS
 10
5.6701577981
 20
11.2043056139
 11
6.4715863696
 21
11.2043056139
  0
LINE
  5
237
100
AcDbEntity
  8
0
100
AcDbLine
 62
7
  6
CONTINUOUS
 10
5.6701577981
 20
11.2043056539
 11
5.6701577981
 21
13.9957341849
  0
LINE
  5
238
100
AcDbEntity
  8
0
100
AcDbLine
 62
7
  6
CONTINUOUS
 10
5.6701577981
 20
12.334251654
 11
6.4715863696
 21
12.334251654
  0
LINE
  5
239
100
AcDbEntity
  8
0
100
AcDbLine
 62
7
  6
CONTINUOUS
 10
6.4715863696
 20
12.363356705
 11
5.6701577981
 21
12.363356705
  0
LINE
  5
23A
100
AcDbEntity
  8
0
100
AcDbLine
 62
7
  6
CONTINUOUS
 10
6.4715863696
 20
12.380257351
 11
5.6701577981
 21
12.380257351
  0
LINE
  5
23B
100
AcDbEntity
  8
0
100
AcDbLine
 62
7
  6
CONTINUOUS
 10
5.6701577981
 20
12.3983332702
 11
6.4715863696
 21
12.3983332702
  0
LINE
  5
23C
100
AcDbEntity
  8
0
100
AcDbLine
 62
7
  6
CONTINUOUS
 10
5.6701577981
 20
12.411496206
 11
6.4715863696
 21
12.411496206
  0
LINE
  5
23D
100
AcDbEntity
  8
0
100
AcDbLine
 62
7
  6
CONTINUOUS
 10
6.4715863696
 20
12.4389603646
 11
5.6701577981
 21
12.4389603646
  0
LINE
  5
23E
100
AcDbEntity
  8
0
100
AcDbLine
 62
7
  6
CONTINUOUS
 10
6.4715863696
 20
12.4559954311
 11
5.6701577981
 21
12.4559954311
  0
LINE
  5
23F
100
AcDbEntity
  8
0
100
AcDbLine
 62
7
  6
CONTINUOUS
 10
5.6701577981
 20
12.4760874996
 11
6.4715863696
 21
12.4760874996
  0
LINE
  5
240
100
AcDbEntity
  8
0
100
AcDbLine
 62
7
  6
CONTINUOUS
 10
5.6701577981
 20
12.4893339233
 11
6.4715863696
 21
12.4893339233
  0
LINE
  5
241
100
AcDbEntity
  8
0
100
AcDbLine
 62
7
  6
CONTINUOUS
 10
6.4715863696
 20
12.5150707771
 11
5.6701577981
 21
12.5150707771
  0
LINE
  5
242
100
AcDbEntity
  8
0
100
AcDbLine
 62
7
  6
CONTINUOUS
 10
6.4715863696
 20
12.5321866654
 11
5.6701577981
 21
12.5321866654
  0
LINE
  5
243
100
AcDbEntity
  8
0
100
AcDbLine
 62
7
  6
CONTINUOUS
 10
5.6701577981
 20
12.5542316662
 11
6.4715863696
 21
12.5542316662
  0
LINE
  5
244
100
AcDbEntity
  8
0
100
AcDbLine
 62
7
  6
CONTINUOUS
 10
5.6701577981
 20
12.5675198996
 11
6.4715863696
 21
12.5675198996
  0
LINE
  5
245
100
AcDbEntity
  8
0
100
AcDbLine
 62
7
  6
CONTINUOUS
 10
6.4715863696
 20
12.591448471
 11
5.6701577981
 21
12.591448471
  0
LINE
  5
246
100
AcDbEntity
  8
0
100
AcDbLine
 62
7
  6
CONTINUOUS
 10
6.4715863696
 20
12.6085913281
 11
5.6701577981
 21
12.6085913281
  0
LINE
  5
247
100
AcDbEntity
  8
0
100
AcDbLine
 62
7
  6
CONTINUOUS
 10
5.6701577981
 20
12.6325198996
 11
6.4715863696
 21
12.6325198996
  0
LINE
  5
248
100
AcDbEntity
  8
0
100
AcDbLine
 62
7
  6
CONTINUOUS
 10
6.4715863696
 20
11.2043056539
 11
6.4715863696
 21
13.9957341849
  0
LINE
  5
249
100
AcDbEntity
  8
02___PRT_ALL_AXES
100
AcDbLine
 62
7
  6
CONTINUOUS
 10
5.6701577981
 20
13.9957341853
 11
6.4715863696
 21
13.9957341853
  0
LINE
  5
24A
100
AcDbEntity
  8
0
100
AcDbLine
 62
7
  6
CONTINUOUS
 10
15.3509191534
 20
6.8211508698
 11
15.3545585991
 21
6.8379005679
  0
LINE
  5
24B
100
AcDbEntity
  8
0
100
AcDbLine
 62
7
  6
CONTINUOUS
 10
15.4275276987
 20
6.8307522971
 11
15.432100582
 21
6.8472715795
  0
LINE
  5
24C
100
AcDbEntity
  8
0
100
AcDbLine
 62
7
  6
CONTINUOUS
 10
15.5045540809
 20
6.8360431443
 11
15.5100460138
 21
6.8522800352
  0
LINE
  5
24D
100
AcDbEntity
  8
0
100
AcDbLine
 62
7
  6
CONTINUOUS
 10
15.5817559466
 20
6.8370067642
 11
15.5881496493
 21
6.8529101764
  0
LINE
  5
24E
100
AcDbEntity
  8
0
100
AcDbLine
 62
7
  6
CONTINUOUS
 10
15.2997002516
 20
6.8285797598
 11
15.3086675384
 21
6.8139720316
  0
LINE
  5
24F
100
AcDbEntity
  8
0
100
AcDbLine
 62
7
  6
CONTINUOUS
 10
15.3768059149
 20
6.8410413668
 11
15.3849400326
 21
6.8259538196
  0
LINE
  5
250
100
AcDbEntity
  8
0
100
AcDbLine
 62
7
  6
CONTINUOUS
 10
15.4544890046
 20
6.8491600205
 11
15.4617643603
 21
6.8336401251
  0
LINE
  5
251
100
AcDbEntity
  8
0
100
AcDbLine
 62
7
  6
CONTINUOUS
 10
15.532505101
 20
6.8529101764
 11
15.5388988037
 21
6.8370067642
  0
LINE
  5
252
100
AcDbEntity
  8
0
100
AcDbLine
 62
7
  6
CONTINUOUS
 10
15.3236641805
 20
6.8024643275
 11
15.3405648266
 21
6.8053358628
  0
LINE
  5
253
100
AcDbEntity
  8
0
100
AcDbLine
 62
7
  6
CONTINUOUS
 10
15.3992678402
 20
6.8136233508
 11
15.4163029066
 21
6.8155427418
  0
LINE
  5
254
100
AcDbEntity
  8
0
100
AcDbLine
 62
7
  6
CONTINUOUS
 10
15.4753782527
 20
6.8205256879
 11
15.4924941409
 21
6.8214868955
  0
LINE
  5
255
100
AcDbEntity
  8
0
100
AcDbLine
 62
7
  6
CONTINUOUS
 10
15.5517559466
 20
6.8231496214
 11
15.5688988037
 21
6.8231496214
  0
LINE
  5
256
100
AcDbEntity
  8
02___PRT_ALL_AXES
100
AcDbLine
 62
7
  6
CONTINUOUS
 10
15.1020468415
 20
11.1150428308
 11
15.8402114381
 21
11.1150428308
  0
LINE
  5
257
100
AcDbEntity
  8
0
100
AcDbLine
 62
7
  6
CONTINUOUS
 10
14.6854997792
 20
13.3545613548
 11
14.6885282989
 21
13.3643616481
  0
LINE
  5
258
100
AcDbEntity
  8
0
100
AcDbLine
 62
7
  6
CONTINUOUS
 10
14.6354751359
 20
13.1594045837
 11
14.6386902747
 21
13.1744282895
  0
LINE
  5
259
100
AcDbEntity
  8
0
100
AcDbLine
 62
7
  6
CONTINUOUS
 10
14.6503722666
 20
13.2255635249
 11
14.6539103879
 21
13.2401006634
  0
LINE
  5
25A
100
AcDbEntity
  8
0
100
AcDbLine
 62
7
  6
CONTINUOUS
 10
14.6671226409
 20
13.2910452779
 11
14.6705405041
 21
13.3034782527
  0
LINE
  5
25B
100
AcDbEntity
  8
0
100
AcDbLine
 62
7
  6
CONTINUOUS
 10
14.6363724693
 20
13.1923698784
 11
14.6321440973
 21
13.2056325334
  0
LINE
  5
25C
100
AcDbEntity
  8
0
100
AcDbLine
 62
7
  6
CONTINUOUS
 10
14.6519879809
 20
13.2583477563
 11
14.6480558492
 21
13.2721983695
  0
LINE
  5
25D
100
AcDbEntity
  8
0
100
AcDbLine
 62
7
  6
CONTINUOUS
 10
14.6690195441
 20
13.3219734376
 11
14.6653960246
 21
13.3363684296
  0
LINE
  5
25E
100
AcDbEntity
  8
0
100
AcDbLine
 62
7
  6
CONTINUOUS
 10
14.684110065
 20
13.3979408111
 11
14.6874135715
 21
13.3830467322
  0
LINE
  5
25F
100
AcDbEntity
  8
0
100
AcDbLine
 62
7
  6
CONTINUOUS
 10
15.3736397326
 20
13.1594045837
 11
15.3768548713
 21
13.1744282895
  0
LINE
  5
260
100
AcDbEntity
  8
0
100
AcDbLine
 62
7
  6
CONTINUOUS
 10
15.3885368632
 20
13.2255635249
 11
15.3920749845
 21
13.2401006634
  0
LINE
  5
261
100
AcDbEntity
  8
0
100
AcDbLine
 62
7
  6
CONTINUOUS
 10
15.4048551291
 20
13.2894734206
 11
15.4087051007
 21
13.3034782527
  0
LINE
  5
262
100
AcDbEntity
  8
0
100
AcDbLine
 62
7
  6
CONTINUOUS
 10
15.4225431871
 20
13.3509331868
 11
15.4266928955
 21
13.3643616481
  0
LINE
  5
263
100
AcDbEntity
  8
0
100
AcDbLine
 62
7
  6
CONTINUOUS
 10
15.3745370659
 20
13.1923698784
 11
15.370308694
 21
13.2056325334
  0
LINE
  5
264
100
AcDbEntity
  8
0
100
AcDbLine
 62
7
  6
CONTINUOUS
 10
15.3901525775
 20
13.2583477563
 11
15.3862204458
 21
13.2721983695
  0
LINE
  5
265
100
AcDbEntity
  8
0
100
AcDbLine
 62
7
  6
CONTINUOUS
 10
15.4071841407
 20
13.3219734376
 11
15.4035606212
 21
13.3363684296
  0
LINE
  5
266
100
AcDbEntity
  8
0
100
AcDbLine
 62
7
  6
CONTINUOUS
 10
15.4255781681
 20
13.3830467322
 11
15.4222746617
 21
13.3979408111
  0
LINE
  5
267
100
AcDbEntity
  8
0
100
AcDbLine
 62
7
  6
CONTINUOUS
 10
14.6197518834
 20
13.1542895147
 11
15.3579164801
 21
13.1542895147
  0
LINE
  5
268
100
AcDbEntity
  8
0
100
AcDbLine
 62
7
  6
CONTINUOUS
 10
14.6214724802
 20
13.1569030066
 11
15.3596370768
 21
13.1569030066
  0
LINE
  5
269
100
AcDbEntity
  8
0
100
AcDbLine
 62
7
  6
CONTINUOUS
 10
15.3736397326
 20
13.1594045837
 11
14.6354751359
 21
13.1594045837
  0
LINE
  5
26A
100
AcDbEntity
  8
0
100
AcDbLine
 62
7
  6
CONTINUOUS
 10
15.3768548713
 20
13.1744282895
 11
14.6386902747
 21
13.1744282895
  0
LINE
  5
26B
100
AcDbEntity
  8
0
100
AcDbLine
 62
7
  6
CONTINUOUS
 10
15.3598725722
 20
13.1568666064
 11
15.3596370768
 21
13.1569029958
  0
LINE
  5
26C
100
AcDbEntity
  8
0
100
AcDbLine
 62
7
  6
CONTINUOUS
 10
15.3598725722
 20
13.1568666064
 11
15.366499219
 21
13.1548106139
  0
LINE
  5
26D
100
AcDbEntity
  8
0
100
AcDbLine
 62
7
  6
CONTINUOUS
 10
15.3747359447
 20
13.2250118065
 11
15.3813072743
 21
13.22200491
  0
LINE
  5
26E
100
AcDbEntity
  8
0
100
AcDbLine
 62
7
  6
CONTINUOUS
 10
15.3910638754
 20
13.2909096971
 11
15.3975592118
 21
13.2869613573
  0
LINE
  5
26F
100
AcDbEntity
  8
0
100
AcDbLine
 62
7
  6
CONTINUOUS
 10
15.4088049904
 20
13.354352939
 11
15.4152038971
 21
13.3494755789
  0
LINE
  5
270
100
AcDbEntity
  8
0
100
AcDbLine
 62
7
  6
CONTINUOUS
 10
14.631942618
 20
13.211254399
 11
15.3701072146
 21
13.211254399
  0
LINE
  5
271
100
AcDbEntity
  8
0
100
AcDbLine
 62
7
  6
CONTINUOUS
 10
14.6345620628
 20
13.2227204172
 11
15.3727266595
 21
13.2227204172
  0
LINE
  5
272
100
AcDbEntity
  8
0
100
AcDbLine
 62
7
  6
CONTINUOUS
 10
14.6362269353
 20
13.2250899886
 11
15.3743915319
 21
13.2250899886
  0
LINE
  5
273
100
AcDbEntity
  8
0
100
AcDbLine
 62
7
  6
CONTINUOUS
 10
15.3885368632
 20
13.2255635249
 11
14.6503722666
 21
13.2255635249
  0
LINE
  5
274
100
AcDbEntity
  8
0
100
AcDbLine
 62
7
  6
CONTINUOUS
 10
15.3920749845
 20
13.2401006634
 11
14.6539103879
 21
13.2401006634
  0
LINE
  5
275
100
AcDbEntity
  8
0
100
AcDbLine
 62
7
  6
CONTINUOUS
 10
14.6479774394
 20
13.2778404008
 11
15.386142036
 21
13.2778404008
  0
LINE
  5
276
100
AcDbEntity
  8
0
100
AcDbLine
 62
7
  6
CONTINUOUS
 10
14.6508431223
 20
13.2889112197
 11
15.3890077189
 21
13.2889112197
  0
LINE
  5
277
100
AcDbEntity
  8
0
100
AcDbLine
 62
7
  6
CONTINUOUS
 10
15.4048551291
 20
13.2894734206
 11
15.3934266657
 21
13.2894734206
  0
LINE
  5
278
100
AcDbEntity
  8
0
100
AcDbLine
 62
7
  6
CONTINUOUS
 10
14.6524470321
 20
13.2910452779
 11
15.3906116287
 21
13.2910452779
  0
LINE
  5
279
100
AcDbEntity
  8
0
100
AcDbLine
 62
7
  6
CONTINUOUS
 10
15.4087051007
 20
13.3034782527
 11
14.6705405041
 21
13.3034782527
  0
LINE
  5
27A
100
AcDbEntity
  8
0
100
AcDbLine
 62
7
  6
CONTINUOUS
 10
14.6654409311
 20
13.3420128749
 11
15.4036055278
 21
13.3420128749
  0
LINE
  5
27B
100
AcDbEntity
  8
0
100
AcDbLine
 62
7
  6
CONTINUOUS
 10
15.4225431871
 20
13.3509331868
 11
15.4132915723
 21
13.3509331868
  0
LINE
  5
27C
100
AcDbEntity
  8
0
100
AcDbLine
 62
7
  6
CONTINUOUS
 10
14.6685438356
 20
13.3526536616
 11
15.4067084322
 21
13.3526536616
  0
LINE
  5
27D
100
AcDbEntity
  8
0
100
AcDbLine
 62
7
  6
CONTINUOUS
 10
14.6700817363
 20
13.3545613548
 11
15.4082463329
 21
13.3545613548
  0
LINE
  5
27E
100
AcDbEntity
  8
0
100
AcDbLine
 62
7
  6
CONTINUOUS
 10
15.4266928955
 20
13.3643616481
 11
14.6885282989
 21
13.3643616481
  0
LINE
  5
27F
100
AcDbEntity
  8
0
100
AcDbLine
 62
7
  6
CONTINUOUS
 10
14.6842781466
 20
13.4035699107
 11
15.4224427432
 21
13.4035699107
  0
LINE
  5
280
100
AcDbEntity
  8
02___PRT_ALL_AXES
100
AcDbLine
 62
7
  6
CONTINUOUS
 10
15.1020468415
 20
13.9064714022
 11
15.8402114381
 21
13.9064714022
  0
ARC
  5
281
100
AcDbEntity
  8
0
100
AcDbCircle
 62
7
  6
CONTINUOUS
 10
15.5603273751
 20
5.4607353357
 40
1.3957142857
100
AcDbArc
 50
91.3342853711
 51
91.8800003432
  0
ARC
  5
282
100
AcDbEntity
  8
0
100
AcDbCircle
 62
7
  6
CONTINUOUS
 10
15.5603273751
 20
5.4607353357
 40
1.3957142857
100
AcDbArc
 50
94.5485710854
 51
95.0942860575
  0
ARC
  5
283
100
AcDbEntity
  8
0
100
AcDbCircle
 62
7
  6
CONTINUOUS
 10
15.5603273751
 20
5.4607353357
 40
1.3957142857
100
AcDbArc
 50
97.7628567997
 51
98.3085717718
  0
ARC
  5
284
100
AcDbEntity
  8
0
100
AcDbCircle
 62
7
  6
CONTINUOUS
 10
15.5603273751
 20
5.4607353357
 40
1.3957142857
100
AcDbArc
 50
100.977142514
 51
88.6657146289
  0
CIRCLE
  5
285
100
AcDbEntity
  8
LAYER_CHAMFER_FEAT
100
AcDbCircle
 62
7
  6
CONTINUOUS
 10
15.5603273751
 20
5.4607353357
 40
1.1768571429
  0
CIRCLE
  5
286
100
AcDbEntity
  8
LAYER_CHAMFER_FEAT
100
AcDbCircle
 62
7
  6
CONTINUOUS
 10
15.5603273751
 20
5.4607353357
 40
1.1678571429
  0
ARC
  5
287
100
AcDbEntity
  8
02___PRT_ALL_AXES
100
AcDbCircle
 62
7
  6
CONTINUOUS
 10
15.5603273751
 20
5.4607353357
 40
0.6607142857
100
AcDbArc
 50
262.6966675424
 51
359.3033324576
  0
ARC
  5
288
100
AcDbEntity
  8
02___PRT_ALL_AXES
100
AcDbCircle
 62
7
  6
CONTINUOUS
 10
15.5603273751
 20
5.4607353357
 40
0.6607142857
100
AcDbArc
 50
14.6966675424
 51
37.3033324576
  0
ARC
  5
289
100
AcDbEntity
  8
02___PRT_ALL_AXES
100
AcDbCircle
 62
7
  6
CONTINUOUS
 10
15.5603273751
 20
5.4607353357
 40
0.6607142857
100
AcDbArc
 50
224.6966675424
 51
247.3033324576
  0
ARC
  5
28A
100
AcDbEntity
  8
02___PRT_ALL_AXES
100
AcDbCircle
 62
7
  6
CONTINUOUS
 10
15.5603273751
 20
5.4607353357
 40
0.6607142857
100
AcDbArc
 50
142.6966675424
 51
209.3033324576
  0
ARC
  5
28B
100
AcDbEntity
  8
02___PRT_ALL_AXES
100
AcDbCircle
 62
7
  6
CONTINUOUS
 10
15.5603273751
 20
5.4607353357
 40
0.6607142857
100
AcDbArc
 50
52.6966675424
 51
127.3033324576
  0
ARC
  5
28C
100
AcDbEntity
  8
02___PRT_ALL_AXES
100
AcDbCircle
 62
7
  6
CONTINUOUS
 10
15.5603273751
 20
5.4607353357
 40
0.6357404243
100
AcDbArc
 50
37.0168401641
 51
52.9831598359
  0
ARC
  5
28D
100
AcDbEntity
  8
02___PRT_ALL_AXES
100
AcDbCircle
 62
7
  6
CONTINUOUS
 10
15.5603273751
 20
5.4607353357
 40
0.6357404243
100
AcDbArc
 50
209.0168401641
 51
224.9831598359
  0
ARC
  5
28E
100
AcDbEntity
  8
02___PRT_ALL_AXES
100
AcDbCircle
 62
7
  6
CONTINUOUS
 10
15.5603273751
 20
5.4607353357
 40
0.6107665629
100
AcDbArc
 50
14.6242076065
 51
127.3757923935
  0
ARC
  5
28F
100
AcDbEntity
  8
02___PRT_ALL_AXES
100
AcDbCircle
 62
7
  6
CONTINUOUS
 10
15.5603273751
 20
5.4607353357
 40
0.6107665629
100
AcDbArc
 50
142.6242076065
 51
247.3757923935
  0
ARC
  5
290
100
AcDbEntity
  8
02___PRT_ALL_AXES
100
AcDbCircle
 62
7
  6
CONTINUOUS
 10
15.5603273751
 20
5.4607353357
 40
0.6107665629
100
AcDbArc
 50
262.6242076065
 51
359.3757923935
  0
ARC
  5
291
100
AcDbEntity
  8
02___PRT_ALL_AXES
100
AcDbCircle
 62
7
  6
CONTINUOUS
 10
15.3939437033
 20
4.8397830188
 40
0.0892857143
100
AcDbArc
 50
140.1724712515
 51
9.8275287485
  0
ARC
  5
292
100
AcDbEntity
  8
02___PRT_ALL_AXES
100
AcDbCircle
 62
7
  6
CONTINUOUS
 10
15.046918833
 20
5.0738542494
 40
0.0892857143
100
AcDbArc
 50
118.4477947667
 51
315.5522052333
  0
ARC
  5
293
100
AcDbEntity
  8
02___PRT_ALL_AXES
100
AcDbCircle
 62
7
  6
CONTINUOUS
 10
15.1057587301
 20
5.9153039807
 40
0.0892857143
100
AcDbArc
 50
20.1724712515
 51
249.8275287485
  0
ARC
  5
294
100
AcDbEntity
  8
0
100
AcDbCircle
 62
7
  6
CONTINUOUS
 10
15.3311908364
 20
6.8277984713
 40
0.0264285714
100
AcDbArc
 50
211.5446312984
 51
253.4535612569
  0
ARC
  5
295
100
AcDbEntity
  8
0
100
AcDbCircle
 62
7
  6
CONTINUOUS
 10
15.3250932044
 20
6.8267624419
 40
0.0264285714
100
AcDbArc
 50
305.8321530288
 51
347.7410829873
  0
ARC
  5
296
100
AcDbEntity
  8
0
100
AcDbCircle
 62
7
  6
CONTINUOUS
 10
15.408203152
 20
6.8384956163
 40
0.0264285714
100
AcDbArc
 50
208.3303455841
 51
250.2392755426
  0
ARC
  5
297
100
AcDbEntity
  8
0
100
AcDbCircle
 62
7
  6
CONTINUOUS
 10
15.402057022
 20
6.8378031138
 40
0.0264285714
100
AcDbArc
 50
302.6178673145
 51
344.526797273
  0
ARC
  5
298
100
AcDbEntity
  8
0
100
AcDbCircle
 62
7
  6
CONTINUOUS
 10
15.4856941066
 20
6.8448578177
 40
0.0264285714
100
AcDbArc
 50
205.1160598698
 51
247.0249898283
  0
ARC
  5
299
100
AcDbEntity
  8
0
100
AcDbCircle
 62
7
  6
CONTINUOUS
 10
15.4795188167
 20
6.8445110209
 40
0.0264285714
100
AcDbArc
 50
299.4035816003
 51
341.3125115588
  0
ARC
  5
29A
100
AcDbEntity
  8
0
100
AcDbCircle
 62
7
  6
CONTINUOUS
 10
15.5634198852
 20
6.8468650578
 40
0.0264285714
100
AcDbArc
 50
201.9017741555
 51
243.810704114
  0
ARC
  5
29B
100
AcDbEntity
  8
0
100
AcDbCircle
 62
7
  6
CONTINUOUS
 10
15.5572348651
 20
6.8468650578
 40
0.0264285714
100
AcDbArc
 50
296.189295886
 51
338.0982258445
  0
ARC
  5
29C
100
AcDbEntity
  8
0
100
AcDbCircle
 62
7
  6
CONTINUOUS
 10
15.2954036298
 20
6.8259421806
 40
0.0050416052
100
AcDbArc
 50
31.5446312984
 51
99.6428571429
  0
ARC
  5
29D
100
AcDbEntity
  8
0
100
AcDbCircle
 62
7
  6
CONTINUOUS
 10
15.359485246
 20
6.8368300851
 40
0.0050416052
100
AcDbArc
 50
99.6428571428
 51
167.7410829873
  0
ARC
  5
29E
100
AcDbEntity
  8
0
100
AcDbCircle
 62
7
  6
CONTINUOUS
 10
15.3723681622
 20
6.8386488506
 40
0.0050416052
100
AcDbArc
 50
28.3303455841
 51
96.4285714286
  0
ARC
  5
29F
100
AcDbEntity
  8
0
100
AcDbCircle
 62
7
  6
CONTINUOUS
 10
15.4369594559
 20
6.8459265415
 40
0.0050416052
100
AcDbArc
 50
96.4285714286
 51
164.526797273
  0
ARC
  5
2A0
100
AcDbEntity
  8
0
100
AcDbCircle
 62
7
  6
CONTINUOUS
 10
15.4499240839
 20
6.8470200948
 40
0.0050416052
100
AcDbArc
 50
25.1160598698
 51
93.2142857142
  0
ARC
  5
2A1
100
AcDbEntity
  8
0
100
AcDbCircle
 62
7
  6
CONTINUOUS
 10
15.5148218269
 20
6.8506646739
 40
0.0050416052
100
AcDbArc
 50
93.2142857142
 51
161.3125115588
  0
ARC
  5
2A2
100
AcDbEntity
  8
0
100
AcDbCircle
 62
7
  6
CONTINUOUS
 10
15.5278273751
 20
6.8510295744
 40
0.0050416052
100
AcDbArc
 50
21.9017741555
 51
90.0
  0
ARC
  5
2A3
100
AcDbEntity
  8
0
100
AcDbCircle
 62
7
  6
CONTINUOUS
 10
15.5928273751
 20
6.8510295744
 40
0.0050416052
100
AcDbArc
 50
90.0
 51
158.0982258445
  0
ARC
  5
2A4
100
AcDbEntity
  8
02___PRT_ALL_AXES
100
AcDbCircle
 62
7
  6
CONTINUOUS
 10
16.1983927583
 20
5.5390799136
 40
0.0892857143
100
AcDbArc
 50
252.1724712515
 51
121.8275287485
  0
ARC
  5
2A5
100
AcDbEntity
  8
02___PRT_ALL_AXES
100
AcDbCircle
 62
7
  6
CONTINUOUS
 10
16.0148960202
 20
5.9153039807
 40
0.0892857143
100
AcDbArc
 50
306.4477947668
 51
143.5522052332
  0
ARC
  5
2A6
100
AcDbEntity
  8
02___PRT_ALL_AXES
100
AcDbCircle
 62
7
  6
CONTINUOUS
 10
18.0381696195
 20
-23.1077469934
 40
36.288541595
100
AcDbArc
 50
93.4356022667
 51
93.7813677864
  0
ARC
  5
2A7
100
AcDbEntity
  8
02___PRT_ALL_AXES
100
AcDbCircle
 62
7
  6
CONTINUOUS
 10
17.5836681011
 20
42.6489845447
 40
30.7638077762
100
AcDbArc
 50
266.3503490465
 51
266.8331793572
  0
ARC
  5
2A8
100
AcDbEntity
  8
02___PRT_ALL_AXES
100
AcDbCircle
 62
7
  6
CONTINUOUS
 10
14.224042285
 20
36.9372517654
 40
23.9741982711
100
AcDbArc
 50
273.2613613734
 51
274.062112008
  0
ARC
  5
2A9
100
AcDbEntity
  8
02___PRT_ALL_AXES
100
AcDbCircle
 62
7
  6
CONTINUOUS
 10
14.4537183444
 20
-9.9025417154
 40
21.9903841391
100
AcDbArc
 50
86.1257867083
 51
87.0846258093
  0
ARC
  5
2AA
100
AcDbEntity
  8
0
100
AcDbCircle
 62
7
  6
CONTINUOUS
 10
17.0558602165
 20
12.6635356584
 40
2.4850296464
100
AcDbArc
 50
166.9958655978
 51
167.2670416425
  0
ARC
  5
2AB
100
AcDbEntity
  8
0
100
AcDbCircle
 62
7
  6
CONTINUOUS
 10
17.7885738459
 20
12.6647809476
 40
2.4794382589
100
AcDbArc
 50
166.9955598324
 51
167.267347408
  0
ARC
  5
2AC
100
AcDbEntity
  8
0
100
AcDbCircle
 62
7
  6
CONTINUOUS
 10
16.8610428967
 20
12.7108944179
 40
2.2845320015
100
AcDbArc
 50
165.3441089589
 51
165.6309151262
  0
ARC
  5
2AD
100
AcDbEntity
  8
0
100
AcDbCircle
 62
7
  6
CONTINUOUS
 10
17.5936481074
 20
12.7123334657
 40
2.2787894043
100
AcDbArc
 50
165.3437475793
 51
165.6312765057
  0
ARC
  5
2AE
100
AcDbEntity
  8
0
100
AcDbCircle
 62
7
  6
CONTINUOUS
 10
16.6642354382
 20
12.7649276126
 40
2.0804343012
100
AcDbArc
 50
163.5904342209
 51
163.8956903727
  0
ARC
  5
2AF
100
AcDbEntity
  8
0
100
AcDbCircle
 62
7
  6
CONTINUOUS
 10
17.3968390085
 20
12.7665492346
 40
2.0746416823
100
AcDbArc
 50
163.5900080662
 51
163.8961165275
  0
ARC
  5
2B0
100
AcDbEntity
  8
LAYER_CHAMFER_FEAT
100
AcDbCircle
 62
7
  6
CONTINUOUS
 10
16.0097527951
 20
11.7611597417
 40
0.4819804032
100
AcDbArc
 50
220.4864672839
 51
221.1001535338
  0
ARC
  5
2B1
100
AcDbEntity
  8
LAYER_CHAMFER_FEAT
100
AcDbCircle
 62
7
  6
CONTINUOUS
 10
16.0084866391
 20
13.261443202
 40
0.4803105766
100
AcDbArc
 50
138.881439115
 51
139.5893579984
  0
ARC
  5
2B2
100
AcDbEntity
  8
0
100
AcDbCircle
 62
7
  6
CONTINUOUS
 10
14.6373843669
 20
13.2337095657
 40
0.0153311291
100
AcDbArc
 50
325.6601582151
 51
327.9039676129
  0
SPLINE
  5
2B3
100
AcDbEntity
  8
02___PRT_ALL_AXES
100
AcDbSpline
 62
7
  6
CONTINUOUS
 70
0
 71
3
 72
24
 73
20
 74
0
 42
0.0000001
 43
0.0000001
 44
0.0000000001
 40
0.0
 40
0.0
 40
0.0
 40
0.0
 40
0.0168087425
 40
0.0338359932
 40
0.0512900789
 40
0.0693607799
 40
0.1079453071
 40
0.1506525507
 40
0.1980969025
 40
0.2505746419
 40
0.3081410248
 40
0.3706702227
 40
0.4378981976
 40
0.5094531308
 40
0.5848779844
 40
0.6636477577
 40
0.7451834464
 40
0.8288643563
 40
1.0
 40
1.0
 40
1.0
 40
1.0
 10
15.7313208442
 20
13.2386830837
 30
0.0
 10
15.73075799
 20
13.2386830824
 30
0.0
 10
15.7296237249
 20
13.2386120026
 30
0.0
 10
15.7279319776
 20
13.238293384
 30
0.0
 10
15.7262495735
 20
13.2377638468
 30
0.0
 10
15.7239762011
 20
13.2367577694
 30
0.0
 10
15.7211649291
 20
13.2349368718
 30
0.0
 10
15.7179839018
 20
13.2320044799
 30
0.0
 10
15.7149386664
 20
13.2283093222
 30
0.0
 10
15.7120521866
 20
13.2238853294
 30
0.0
 10
15.7093469882
 20
13.2187712636
 30
0.0
 10
15.7068466702
 20
13.2130127309
 30
0.0
 10
15.7045737996
 20
13.2066618543
 30
0.0
 10
15.7025494126
 20
13.1997768586
 30
0.0
 10
15.7007924524
 20
13.1924213495
 30
0.0
 10
15.6993195066
 20
13.184663715
 30
0.0
 10
15.6981443936
 20
13.1765759894
 30
0.0
 10
15.6969814571
 20
13.1653710464
 30
0.0
 10
15.6966004051
 20
13.1568357331
 30
0.0
 10
15.696557711
 20
13.1511052789
 30
0.0
  0
SPLINE
  5
2B4
100
AcDbEntity
  8
0
100
AcDbSpline
 62
7
  6
CONTINUOUS
 70
0
 71
3
 72
11
 73
7
 74
0
 42
0.0000001
 43
0.0000001
 44
0.0000000001
 40
0.0
 40
0.0
 40
0.0
 40
0.0
 40
0.2332605325
 40
0.4902697556
 40
0.7523106374
 40
1.0
 40
1.0
 40
1.0
 40
1.0
 10
14.6842781466
 20
13.4035699107
 30
0.0
 10
14.6841476787
 20
13.4031477165
 30
0.0
 10
14.6839526613
 20
13.4022355441
 30
0.0
 10
14.683830465
 20
13.4008127208
 30
0.0
 10
14.6838699121
 20
13.3993578195
 30
0.0
 10
14.6840084596
 20
13.3983989061
 30
0.0
 10
14.684110065
 20
13.3979408111
 30
0.0
  0
SPLINE
  5
2B5
100
AcDbEntity
  8
0
100
AcDbSpline
 62
7
  6
CONTINUOUS
 70
0
 71
3
 72
11
 73
7
 74
0
 42
0.0000001
 43
0.0000001
 44
0.0000000001
 40
0.0
 40
0.0
 40
0.0
 40
0.0
 40
0.2553265308
 40
0.511876777
 40
0.7624139533
 40
1.0
 40
1.0
 40
1.0
 40
1.0
 10
14.6885282989
 20
13.3643616481
 30
0.0
 10
14.6886629122
 20
13.3659544809
 30
0.0
 10
14.6888140873
 20
13.3691588573
 30
0.0
 10
14.6887028259
 20
13.3739346174
 30
0.0
 10
14.6882601422
 20
13.3785796784
 30
0.0
 10
14.687735659
 20
13.381594579
 30
0.0
 10
14.6874135715
 20
13.3830467322
 30
0.0
  0
SPLINE
  5
2B6
100
AcDbEntity
  8
02___PRT_ALL_AXES
100
AcDbSpline
 62
7
  6
CONTINUOUS
 70
0
 71
3
 72
18
 73
14
 74
0
 42
0.0000001
 43
0.0000001
 44
0.0000000001
 40
0.0
 40
0.0
 40
0.0
 40
0.0
 40
0.0428756878
 40
0.0864796725
 40
0.1314963848
 40
0.1785321105
 40
0.2280960556
 40
0.2805954937
 40
0.3954625348
 40
0.5247480658
 40
0.6688962832
 40
0.8275978995
 40
1.0
 40
1.0
 40
1.0
 40
1.0
 10
15.8905033166
 20
13.1485563779
 30
0.0
 10
15.8898584585
 20
13.1485563799
 30
0.0
 10
15.8885559405
 20
13.1484627332
 30
0.0
 10
15.8866170496
 20
13.1480434952
 30
0.0
 10
15.8846929253
 20
13.1473477098
 30
0.0
 10
15.8827904475
 20
13.1463791336
 30
0.0
 10
15.8809149244
 20
13.1451421057
 30
0.0
 10
15.8783815095
 20
13.1430788946
 30
0.0
 10
15.8753236038
 20
13.1398009387
 30
0.0
 10
15.8719586268
 20
13.1350114127
 30
0.0
 10
15.8688230594
 20
13.129305914
 30
0.0
 10
15.8659524878
 20
13.1227515248
 30
0.0
 10
15.8643013197
 20
13.1180483874
 30
0.0
 10
15.863519065
 20
13.1155762398
 30
0.0
  0
SPLINE
  5
2B7
100
AcDbEntity
  8
0
100
AcDbSpline
 62
7
  6
CONTINUOUS
 70
0
 71
3
 72
11
 73
7
 74
0
 42
0.0000001
 43
0.0000001
 44
0.0000000001
 40
0.0
 40
0.0
 40
0.0
 40
0.0
 40
0.2385313852
 40
0.4974047088
 40
0.757619944
 40
1.0
 40
1.0
 40
1.0
 40
1.0
 10
14.6654409311
 20
13.3420128749
 30
0.0
 10
14.6653208858
 20
13.3415761924
 30
0.0
 10
14.6651463431
 20
13.3406443364
 30
0.0
 10
14.665054228
 20
13.339205974
 30
0.0
 10
14.6651242334
 20
13.33775904
 30
0.0
 10
14.6652836896
 20
13.3368146978
 30
0.0
 10
14.6653960246
 20
13.3363684296
 30
0.0
  0
SPLINE
  5
2B8
100
AcDbEntity
  8
0
100
AcDbSpline
 62
7
  6
CONTINUOUS
 70
0
 71
3
 72
11
 73
7
 74
0
 42
0.0000001
 43
0.0000001
 44
0.0000000001
 40
0.0
 40
0.0
 40
0.0
 40
0.0
 40
0.2586652807
 40
0.5163144187
 40
0.7657025236
 40
1.0
 40
1.0
 40
1.0
 40
1.0
 10
14.6705405041
 20
13.3034782527
 30
0.0
 10
14.6706396889
 20
13.3050808946
 30
0.0
 10
14.6707213051
 20
13.3082881522
 30
0.0
 10
14.6705074075
 20
13.3130404852
 30
0.0
 10
14.6699655693
 20
13.317614545
 30
0.0
 10
14.6693745818
 20
13.3205629957
 30
0.0
 10
14.6690195441
 20
13.3219734376
 30
0.0
  0
SPLINE
  5
2B9
100
AcDbEntity
  8
0
100
AcDbSpline
 62
7
  6
CONTINUOUS
 70
0
 71
3
 72
11
 73
7
 74
0
 42
0.0000001
 43
0.0000001
 44
0.0000000001
 40
0.0
 40
0.0
 40
0.0
 40
0.0
 40
0.2438196096
 40
0.5045327422
 40
0.7629021501
 40
1.0
 40
1.0
 40
1.0
 40
1.0
 10
14.6479774394
 20
13.2778404008
 30
0.0
 10
14.6478680048
 20
13.2773907653
 30
0.0
 10
14.6477142106
 20
13.2764421672
 30
0.0
 10
14.6476524903
 20
13.2749926315
 30
0.0
 10
14.6477528153
 20
13.273558062
 30
0.0
 10
14.6479329516
 20
13.2726312661
 30
0.0
 10
14.6480558492
 20
13.2721983695
 30
0.0
  0
SPLINE
  5
2BA
100
AcDbEntity
  8
0
100
AcDbSpline
 62
7
  6
CONTINUOUS
 70
0
 71
3
 72
11
 73
7
 74
0
 42
0.0000001
 43
0.0000001
 44
0.0000000001
 40
0.0
 40
0.0
 40
0.0
 40
0.0
 40
0.2620506212
 40
0.5208027721
 40
0.7690189814
 40
1.0
 40
1.0
 40
1.0
 40
1.0
 10
14.6539103879
 20
13.2401006634
 30
0.0
 10
14.653974144
 20
13.2417080249
 30
0.0
 10
14.6539865361
 20
13.2449081473
 30
0.0
 10
14.6536706949
 20
13.249622304
 30
0.0
 10
14.6530314593
 20
13.2541112292
 30
0.0
 10
14.6523752146
 20
13.2569837569
 30
0.0
 10
14.6519879809
 20
13.2583477563
 30
0.0
  0
SPLINE
  5
2BB
100
AcDbEntity
  8
0
100
AcDbSpline
 62
7
  6
CONTINUOUS
 70
0
 71
3
 72
11
 73
7
 74
0
 42
0.0000001
 43
0.0000001
 44
0.0000000001
 40
0.0
 40
0.0
 40
0.0
 40
0.0
 40
0.2491386722
 40
0.5116728492
 40
0.7681704889
 40
1.0
 40
1.0
 40
1.0
 40
1.0
 10
14.631942618
 20
13.211254399
 30
0.0
 10
14.6318439533
 20
13.2107933586
 30
0.0
 10
14.631711119
 20
13.2098310048
 30
0.0
 10
14.6316800038
 20
13.2083747023
 30
0.0
 10
14.6318103071
 20
13.206956849
 30
0.0
 10
14.6320108335
 20
13.206050527
 30
0.0
 10
14.6321440973
 20
13.2056325334
 30
0.0
  0
SPLINE
  5
2BC
100
AcDbEntity
  8
0
100
AcDbSpline
 62
7
  6
CONTINUOUS
 70
0
 71
3
 72
11
 73
7
 74
0
 42
0.0000001
 43
0.0000001
 44
0.0000000001
 40
0.0
 40
0.0
 40
0.0
 40
0.0
 40
0.265493368
 40
0.5253548118
 40
0.7723713844
 40
1.0
 40
1.0
 40
1.0
 40
1.0
 10
14.6386902747
 20
13.1744282895
 30
0.0
 10
14.6387187099
 20
13.1760352876
 30
0.0
 10
14.6386624371
 20
13.1792183183
 30
0.0
 10
14.638245675
 20
13.1838796837
 30
0.0
 10
14.6375111118
 20
13.1882696413
 30
0.0
 10
14.6367910492
 20
13.191056966
 30
0.0
 10
14.6363724693
 20
13.1923698784
 30
0.0
  0
LINE
  5
2BD
100
AcDbEntity
  8
0
100
AcDbLine
 62
7
  6
CONTINUOUS
 10
15.366499219
 20
13.1548106139
 11
15.367733708
 21
13.1546197982
  0
LINE
  5
2BE
100
AcDbEntity
  8
0
100
AcDbLine
 62
7
  6
CONTINUOUS
 10
15.3747359447
 20
13.2250118065
 11
15.3743915319
 21
13.2250899905
  0
SPLINE
  5
2BF
100
AcDbEntity
  8
0
100
AcDbSpline
 62
7
  6
CONTINUOUS
 70
0
 71
3
 72
9
 73
5
 74
0
 42
0.0000001
 43
0.0000001
 44
0.0000000001
 40
0.0
 40
0.0
 40
0.0
 40
0.0
 40
0.5102342919
 40
1.0
 40
1.0
 40
1.0
 40
1.0
 10
15.3813072743
 20
13.22200491
 30
0.0
 10
15.3815952844
 20
13.2218731229
 30
0.0
 10
15.3821860577
 20
13.2216670567
 30
0.0
 10
15.3828086953
 20
13.2215950727
 30
0.0
 10
15.383112719
 20
13.2215950714
 30
0.0
  0
LINE
  5
2C0
100
AcDbEntity
  8
0
100
AcDbLine
 62
7
  6
CONTINUOUS
 10
15.3910638754
 20
13.2909096971
 11
15.3906116287
 21
13.2910452778
  0
SPLINE
  5
2C1
100
AcDbEntity
  8
0
100
AcDbSpline
 62
7
  6
CONTINUOUS
 70
0
 71
3
 72
9
 73
5
 74
0
 42
0.0000001
 43
0.0000001
 44
0.0000000001
 40
0.0
 40
0.0
 40
0.0
 40
0.0
 40
0.5171064287
 40
1.0
 40
1.0
 40
1.0
 40
1.0
 10
15.3975592118
 20
13.2869613573
 30
0.0
 10
15.3979272575
 20
13.2867376323
 30
0.0
 10
15.3986907829
 20
13.2863802133
 30
0.0
 10
15.399527719
 20
13.286250624
 30
0.0
 10
15.3999299317
 20
13.2862506369
 30
0.0
  0
LINE
  5
2C2
100
AcDbEntity
  8
0
100
AcDbLine
 62
7
  6
CONTINUOUS
 10
15.4088049904
 20
13.354352939
 11
15.4082463329
 21
13.3545613553
  0
SPLINE
  5
2C3
100
AcDbEntity
  8
0
100
AcDbSpline
 62
7
  6
CONTINUOUS
 70
0
 71
3
 72
10
 73
6
 74
0
 42
0.0000001
 43
0.0000001
 44
0.0000000001
 40
0.0
 40
0.0
 40
0.0
 40
0.0
 40
0.5240814434
 40
0.7653652031
 40
1.0
 40
1.0
 40
1.0
 40
1.0
 10
15.4152038971
 20
13.3494755789
 30
0.0
 10
15.4156449956
 20
13.3491393658
 30
0.0
 10
15.4163565342
 20
13.3487196173
 30
0.0
 10
15.417379202
 20
13.3484305393
 30
0.0
 10
15.4178841242
 20
13.3483830588
 30
0.0
 10
15.4181324329
 20
13.3483830508
 30
0.0
  0
SPLINE
  5
2C4
100
AcDbEntity
  8
0
100
AcDbSpline
 62
7
  6
CONTINUOUS
 70
0
 71
3
 72
26
 73
22
 74
0
 42
0.0000001
 43
0.0000001
 44
0.0000000001
 40
0.0
 40
0.0
 40
0.0
 40
0.0
 40
0.0876656777
 40
0.1720448515
 40
0.2529978932
 40
0.3304095499
 40
0.4041939125
 40
0.4742986155
 40
0.5407104626
 40
0.6034621243
 40
0.6626402592
 40
0.7183951524
 40
0.7709513718
 40
0.8206188119
 40
0.8678019344
 40
0.8906264574
 40
0.9130268333
 40
0.9350804423
 40
0.9568694165
 40
0.9784797212
 40
1.0
 40
1.0
 40
1.0
 40
1.0
 10
14.6842781466
 20
13.4035699107
 30
0.0
 10
14.690514992
 20
13.4228144562
 30
0.0
 10
14.7033610373
 20
13.4603896048
 30
0.0
 10
14.7241776158
 20
13.5149480707
 30
0.0
 10
14.7461245756
 20
13.5665018828
 30
0.0
 10
14.7691365797
 20
13.6148973183
 30
0.0
 10
14.7931456961
 20
13.6599912646
 30
0.0
 10
14.8180816662
 20
13.7016505627
 30
0.0
 10
14.8438723471
 20
13.7397526145
 30
0.0
 10
14.8704442796
 20
13.774185407
 30
0.0
 10
14.8977235008
 20
13.8048474089
 30
0.0
 10
14.9256354112
 20
13.8316469336
 30
0.0
 10
14.9541070313
 20
13.8545015215
 30
0.0
 10
14.9830596386
 20
13.8733344989
 30
0.0
 10
15.0078027849
 20
13.8857573363
 30
0.0
 10
15.027676917
 20
13.8935204248
 30
0.0
 10
15.0424793485
 20
13.8982399293
 30
0.0
 10
15.0573290191
 20
13.9019151131
 30
0.0
 10
15.0722149949
 20
13.9045428079
 30
0.0
 10
15.0871243193
 20
13.9061204399
 30
0.0
 10
15.0970807691
 20
13.9064714059
 30
0.0
 10
15.1020468415
 20
13.906471401
 30
0.0
  0
SPLINE
  5
2C5
100
AcDbEntity
  8
02___PRT_ALL_AXES
100
AcDbSpline
 62
7
  6
CONTINUOUS
 70
0
 71
3
 72
35
 73
31
 74
0
 42
0.0000001
 43
0.0000001
 44
0.0000000001
 40
0.0
 40
0.0
 40
0.0
 40
0.0
 40
0.0194368958
 40
0.0408527481
 40
0.0644367682
 40
0.0902693027
 40
0.1183481614
 40
0.1486072302
 40
0.1809305201
 40
0.2151623086
 40
0.2511148313
 40
0.2885743381
 40
0.3670440569
 40
0.4485322861
 40
0.5308339211
 40
0.6117052439
 40
0.6509263451
 40
0.6889860464
 40
0.7256416134
 40
0.7606693253
 40
0.7938691135
 40
0.8250700712
 40
0.8541373082
 40
0.8809808831
 40
0.9055678943
 40
0.9279390986
 40
0.9482313115
 40
0.9667052854
 40
0.9837718951
 40
1.0
 40
1.0
 40
1.0
 40
1.0
 10
15.5027033687
 20
12.5237923971
 30
0.0
 10
15.5016470013
 20
12.5231045498
 30
0.0
 10
15.4995548858
 20
12.5214575146
 30
0.0
 10
15.4966630219
 20
12.5184263687
 30
0.0
 10
15.4938935674
 20
12.5147502151
 30
0.0
 10
15.4912664136
 20
12.5104581047
 30
0.0
 10
15.4887999727
 20
12.5055825483
 30
0.0
 10
15.4865131515
 20
12.5001612956
 30
0.0
 10
15.4844238066
 20
12.4942367329
 30
0.0
 10
15.482548623
 20
12.4878556688
 30
0.0
 10
15.4809025401
 20
12.4810687367
 30
0.0
 10
15.4790021443
 20
12.4714009208
 30
0.0
 10
15.4773087893
 20
12.4586958465
 30
0.0
 10
15.4763675644
 20
12.4429997806
 30
0.0
 10
15.4765189614
 20
12.4271206836
 30
0.0
 10
15.4775611061
 20
12.4140232926
 30
0.0
 10
15.478951913
 20
12.4038589109
 30
0.0
 10
15.4802430079
 20
12.3965811194
 30
0.0
 10
15.4817818665
 20
12.3896297942
 30
0.0
 10
15.4835561358
 20
12.3830603908
 30
0.0
 10
15.4855514917
 20
12.3769252429
 30
0.0
 10
15.4877519736
 20
12.3712729427
 30
0.0
 10
15.490140193
 20
12.3661479168
 30
0.0
 10
15.4926977213
 20
12.3615900045
 30
0.0
 10
15.4954055968
 20
12.3576341701
 30
0.0
 10
15.4982452235
 20
12.3543105575
 30
0.0
 10
15.5011988968
 20
12.3516453354
 30
0.0
 10
15.5042511445
 20
12.3496630387
 30
0.0
 10
15.5073819309
 20
12.3483898915
 30
0.0
 10
15.5095330309
 20
12.3480279331
 30
0.0
 10
15.5105842316
 20
12.3479762878
 30
0.0
  0
SPLINE
  5
2C6
100
AcDbEntity
  8
02___PRT_ALL_AXES
100
AcDbSpline
 62
7
  6
CONTINUOUS
 70
0
 71
3
 72
23
 73
19
 74
0
 42
0.0000001
 43
0.0000001
 44
0.0000000001
 40
0.0
 40
0.0
 40
0.0
 40
0.0
 40
0.1732358046
 40
0.2572412785
 40
0.3387244244
 40
0.4171476608
 40
0.4920157712
 40
0.5628872231
 40
0.6293868142
 40
0.6912215569
 40
0.7482015543
 40
0.800268437
 40
0.8475347103
 40
0.8903369266
 40
0.9293002563
 40
0.965395786
 40
0.9827973039
 40
1.0
 40
1.0
 40
1.0
 40
1.0
 10
15.7191193045
 20
11.8584143652
 30
0.0
 10
15.7193460482
 20
11.8530792288
 30
0.0
 10
15.7199616553
 20
11.8451641427
 30
0.0
 10
15.7213684766
 20
11.8348163034
 30
0.0
 10
15.7226805704
 20
11.827410819
 30
0.0
 10
15.7242490147
 20
11.8203435201
 30
0.0
 10
15.7260607838
 20
11.813672629
 30
0.0
 10
15.7281007418
 20
11.8074531545
 30
0.0
 10
15.7303520061
 20
11.8017360291
 30
0.0
 10
15.7327962023
 20
11.7965676936
 30
0.0
 10
15.7354138682
 20
11.7919896301
 30
0.0
 10
15.7381851614
 20
11.7880380856
 30
0.0
 10
15.7410905103
 20
11.7847441791
 30
0.0
 10
15.744112408
 20
11.7821351124
 30
0.0
 10
15.7472326103
 20
11.7802367529
 30
0.0
 10
15.7499356054
 20
11.7792594207
 30
0.0
 10
15.752085525
 20
11.7788786026
 30
0.0
 10
15.753153293
 20
11.7788155436
 30
0.0
 10
15.7536835621
 20
11.7788155386
 30
0.0
  0
SPLINE
  5
2C7
100
AcDbEntity
  8
02___PRT_ALL_AXES
100
AcDbSpline
 62
7
  6
CONTINUOUS
 70
0
 71
3
 72
17
 73
13
 74
0
 42
0.0000001
 43
0.0000001
 44
0.0000000001
 40
0.0
 40
0.0
 40
0.0
 40
0.0
 40
0.1695686585
 40
0.3256336687
 40
0.4677618377
 40
0.5960136501
 40
0.7111255489
 40
0.8147311627
 40
0.8631066537
 40
0.9097463747
 40
0.9551818341
 40
1.0
 40
1.0
 40
1.0
 40
1.0
 10
15.8841735444
 20
11.9321554906
 30
0.0
 10
15.8849508572
 20
11.9301049084
 30
0.0
 10
15.8865688382
 20
11.9262124101
 30
0.0
 10
15.8893143039
 20
11.9208143299
 30
0.0
 10
15.8922565285
 20
11.9161388652
 30
0.0
 10
15.8953709685
 20
11.9122296108
 30
0.0
 10
15.8986326366
 20
11.9091241553
 30
0.0
 10
15.9015242637
 20
11.9071915083
 30
0.0
 10
15.9038657247
 20
11.906123603
 30
0.0
 10
15.9055976764
 20
11.9055619073
 30
0.0
 10
15.907339938
 20
11.9052238817
 30
0.0
 10
15.9085085054
 20
11.9051484452
 30
0.0
 10
15.9090881216
 20
11.9051484503
 30
0.0
  0
LINE
  5
2C8
100
AcDbEntity
  8
0
100
AcDbLine
 62
7
  6
CONTINUOUS
 10
14.6337394811
 20
13.1568867934
 11
14.6354751359
 21
13.1594045837
  0
SPLINE
  5
2C9
100
AcDbEntity
  8
LAYER_CHAMFER_FEAT
100
AcDbSpline
 62
7
  6
CONTINUOUS
 70
0
 71
3
 72
11
 73
7
 74
0
 42
0.0000001
 43
0.0000001
 44
0.0000000001
 40
0.0
 40
0.0
 40
0.0
 40
0.0
 40
0.2714757632
 40
0.5286524408
 40
0.771453523
 40
1.0
 40
1.0
 40
1.0
 40
1.0
 10
15.5553339564
 20
11.5888932477
 30
0.0
 10
15.5621636505
 20
11.5749757943
 30
0.0
 10
15.5760922514
 20
11.5481753998
 30
0.0
 10
15.5984473659
 20
11.5101880856
 30
0.0
 10
15.6216324506
 20
11.475614118
 30
0.0
 10
15.6380863264
 20
11.4542780374
 30
0.0
 10
15.646449638
 20
11.4442583692
 30
0.0
  0
SPLINE
  5
2CA
100
AcDbEntity
  8
0
100
AcDbSpline
 62
7
  6
CONTINUOUS
 70
0
 71
3
 72
14
 73
10
 74
0
 42
0.0000001
 43
0.0000001
 44
0.0000000001
 40
0.0
 40
0.0
 40
0.0
 40
0.0
 40
0.0798618753
 40
0.1670373113
 40
0.2668341577
 40
0.3821051763
 40
0.5138220106
 40
0.661652387
 40
1.0
 40
1.0
 40
1.0
 40
1.0
 10
14.6214724802
 20
13.1569029989
 30
0.0
 10
14.6213840664
 20
13.1569030121
 30
0.0
 10
14.6211979649
 20
13.1568694483
 30
0.0
 10
14.6209352757
 20
13.1567263575
 30
0.0
 10
14.6206870671
 20
13.1564982899
 30
0.0
 10
14.6204550467
 20
13.1561904909
 30
0.0
 10
14.6202414804
 20
13.1558078969
 30
0.0
 10
14.6199735878
 20
13.1551774883
 30
0.0
 10
14.6198302701
 20
13.1546558001
 30
0.0
 10
14.6197518834
 20
13.1542895147
 30
0.0
  0
SPLINE
  5
2CB
100
AcDbEntity
  8
0
100
AcDbSpline
 62
7
  6
CONTINUOUS
 70
0
 71
3
 72
14
 73
10
 74
0
 42
0.0000001
 43
0.0000001
 44
0.0000000001
 40
0.0
 40
0.0
 40
0.0
 40
0.0
 40
0.0817150546
 40
0.1702150006
 40
0.2705525592
 40
0.3856226875
 40
0.5165883778
 40
0.6633758057
 40
1.0
 40
1.0
 40
1.0
 40
1.0
 10
14.6362269353
 20
13.2250899905
 30
0.0
 10
14.6361432715
 20
13.2250899898
 30
0.0
 10
14.6359679621
 20
13.2250601938
 30
0.0
 10
14.6357186267
 20
13.2249322012
 30
0.0
 10
14.6354816403
 20
13.2247271162
 30
0.0
 10
14.6352586815
 20
13.2244495146
 30
0.0
 10
14.6350516787
 20
13.2241035203
 30
0.0
 10
14.6347885909
 20
13.2235312123
 30
0.0
 10
14.6346435667
 20
13.2230552933
 30
0.0
 10
14.6345620628
 20
13.2227204172
 30
0.0
  0
SPLINE
  5
2CC
100
AcDbEntity
  8
02___PRT_ALL_AXES
100
AcDbSpline
 62
7
  6
CONTINUOUS
 70
0
 71
3
 72
28
 73
24
 74
0
 42
0.0000001
 43
0.0000001
 44
0.0000000001
 40
0.0
 40
0.0
 40
0.0
 40
0.0
 40
0.0183759624
 40
0.0373489761
 40
0.0569986182
 40
0.0773942869
 40
0.1206268811
 40
0.1435673104
 40
0.1674266282
 40
0.19222639
 40
0.2179811042
 40
0.2446989435
 40
0.2723824104
 40
0.3306240467
 40
0.3926415496
 40
0.4583012672
 40
0.5274198413
 40
0.5997722645
 40
0.675098544
 40
0.7531090732
 40
0.8334892813
 40
0.9159036072
 40
1.0
 40
1.0
 40
1.0
 40
1.0
 10
15.7191193045
 20
11.8584143652
 30
0.0
 10
15.7159983388
 20
11.85970244
 30
0.0
 10
15.7097612429
 20
11.8625849545
 30
0.0
 10
15.7006132711
 20
11.8677017435
 30
0.0
 10
15.6915469621
 20
11.8736672855
 30
0.0
 10
15.6793487311
 20
11.8829197582
 30
0.0
 10
15.667609417
 20
11.8937144222
 30
0.0
 10
15.656335423
 20
11.9058251233
 30
0.0
 10
15.6478499439
 20
11.9158853072
 30
0.0
 10
15.6395139247
 20
11.9267278303
 30
0.0
 10
15.6313373402
 20
11.938339398
 30
0.0
 10
15.623330758
 20
11.950704617
 30
0.0
 10
15.6127163052
 20
11.9684764309
 30
0.0
 10
15.5999848719
 20
11.9925158384
 30
0.0
 10
15.5857965705
 20
12.0236081364
 30
0.0
 10
15.5725214481
 20
12.0572576378
 30
0.0
 10
15.5602290446
 20
12.0932884087
 30
0.0
 10
15.5489836598
 20
12.1315130901
 30
0.0
 10
15.5388445789
 20
12.171731766
 30
0.0
 10
15.5298653389
 20
12.2137337111
 30
0.0
 10
15.5220934391
 20
12.2572985964
 30
0.0
 10
15.5155700853
 20
12.3021970791
 30
0.0
 10
15.512106381
 20
12.3325999185
 30
0.0
 10
15.5105842316
 20
12.3479762878
 30
0.0
  0
SPLINE
  5
2CD
100
AcDbEntity
  8
02___PRT_ALL_AXES
100
AcDbSpline
 62
7
  6
CONTINUOUS
 70
0
 71
3
 72
29
 73
25
 74
0
 42
0.0000001
 43
0.0000001
 44
0.0000000001
 40
0.0
 40
0.0
 40
0.0
 40
0.0
 40
0.0794429299
 40
0.1583318327
 40
0.2362268089
 40
0.3126974297
 40
0.3873276089
 40
0.4597203206
 40
0.5295026618
 40
0.5963314322
 40
0.6598994925
 40
0.6903792324
 40
0.7199491062
 40
0.7485845316
 40
0.7762649396
 40
0.8029742192
 40
0.82870123
 40
0.8534403963
 40
0.8771923973
 40
0.8999649621
 40
0.9217737635
 40
0.9426435106
 40
0.9626088937
 40
1.0
 40
1.0
 40
1.0
 40
1.0
 10
15.5027033687
 20
12.5237923971
 30
0.0
 10
15.5028408457
 20
12.5416828985
 30
0.0
 10
15.5036784202
 20
12.5773374354
 30
0.0
 10
15.5066236084
 20
12.6304643065
 30
0.0
 10
15.5112359637
 20
12.6828014315
 30
0.0
 10
15.5174847687
 20
12.7340027921
 30
0.0
 10
15.5253284245
 20
12.7837309316
 30
0.0
 10
15.5347147243
 20
12.8316580829
 30
0.0
 10
15.5455813007
 20
12.8774692345
 30
0.0
 10
15.5578559953
 20
12.9208624766
 30
0.0
 10
15.5693463674
 20
12.9552399769
 30
0.0
 10
15.5792149437
 20
12.9812748076
 30
0.0
 10
15.5868114425
 20
12.9997491778
 30
0.0
 10
15.5946939474
 20
13.0174153572
 30
0.0
 10
15.6028496301
 20
13.0342443681
 30
0.0
 10
15.6112650875
 20
13.0502085484
 30
0.0
 10
15.6199265758
 20
13.065281708
 30
0.0
 10
15.6288200174
 20
13.0794391546
 30
0.0
 10
15.6379309834
 20
13.0926576774
 30
0.0
 10
15.6472449865
 20
13.1049157641
 30
0.0
 10
15.6567466686
 20
13.1161928989
 30
0.0
 10
15.6664228426
 20
13.1264720434
 30
0.0
 10
15.6792502079
 20
13.1385549142
 30
0.0
 10
15.689506415
 20
13.1465022932
 30
0.0
 10
15.696557711
 20
13.1511052789
 30
0.0
  0
SPLINE
  5
2CE
100
AcDbEntity
  8
0
100
AcDbSpline
 62
7
  6
CONTINUOUS
 70
0
 71
3
 72
13
 73
9
 74
0
 42
0.0000001
 43
0.0000001
 44
0.0000000001
 40
0.0
 40
0.0
 40
0.0
 40
0.0
 40
0.0837533074
 40
0.1737619339
 40
0.2748159983
 40
0.3898245947
 40
0.6654298666
 40
1.0
 40
1.0
 40
1.0
 40
1.0
 10
14.6524470321
 20
13.2910452778
 30
0.0
 10
14.6523680938
 20
13.2910452777
 30
0.0
 10
14.6522034211
 20
13.2910189614
 30
0.0
 10
14.6519675916
 20
13.2909051947
 30
0.0
 10
14.6517421047
 20
13.2907220216
 30
0.0
 10
14.6514394219
 20
13.29036869
 30
0.0
 10
14.6511115813
 20
13.2897615834
 30
0.0
 10
14.6509267082
 20
13.2892152754
 30
0.0
 10
14.6508431223
 20
13.2889112197
 30
0.0
  0
SPLINE
  5
2CF
100
AcDbEntity
  8
0
100
AcDbSpline
 62
7
  6
CONTINUOUS
 70
0
 71
3
 72
49
 73
45
 74
0
 42
0.0000001
 43
0.0000001
 44
0.0000000001
 40
0.0
 40
0.0
 40
0.0
 40
0.0
 40
0.0077604571
 40
0.015565229
 40
0.0234577053
 40
0.0314794997
 40
0.0396697395
 40
0.0480645306
 40
0.0655860605
 40
0.0747766815
 40
0.0842814788
 40
0.0941192144
 40
0.1043055156
 40
0.1148531034
 40
0.1257720266
 40
0.1370698959
 40
0.1487521045
 40
0.1608220307
 40
0.1732812222
 40
0.1861295589
 40
0.1993654043
 40
0.2129857406
 40
0.2269862872
 40
0.2561032073
 40
0.2866626054
 40
0.3185940839
 40
0.3518148184
 40
0.3862312786
 40
0.4217407252
 40
0.4582324781
 40
0.4955890697
 40
0.5336872967
 40
0.5723991812
 40
0.6115929041
 40
0.6511336821
 40
0.6908846269
 40
0.7307075889
 40
0.7704639864
 40
0.8100156374
 40
0.8492255872
 40
0.887958956
 40
0.9260837828
 40
0.9634718876
 40
1.0
 40
1.0
 40
1.0
 40
1.0
 10
15.1020468415
 20
11.1150428375
 30
0.0
 10
15.0962397393
 20
11.1150428437
 30
0.0
 10
15.084586742
 20
11.1155234096
 30
0.0
 10
15.0671482733
 20
11.117682909
 30
0.0
 10
15.0497480822
 20
11.1212786415
 30
0.0
 10
15.0324071226
 20
11.1263054534
 30
0.0
 10
15.0151427711
 20
11.132757149
 30
0.0
 10
14.9919248618
 20
11.1433965522
 30
0.0
 10
14.9692324042
 20
11.1568048993
 30
0.0
 10
14.9472156162
 20
11.1726233751
 30
0.0
 10
14.93059876
 20
11.1860496167
 30
0.0
 10
14.9141629045
 20
11.2008318527
 30
0.0
 10
14.897922301
 20
11.2169557392
 30
0.0
 10
14.8818935232
 20
11.2344043298
 30
0.0
 10
14.8660923064
 20
11.2531598045
 30
0.0
 10
14.8505344335
 20
11.2732029695
 30
0.0
 10
14.8352354628
 20
11.294513392
 30
0.0
 10
14.8202107735
 20
11.3170693621
 30
0.0
 10
14.8054755282
 20
11.3408479066
 30
0.0
 10
14.7910446241
 20
11.3658248006
 30
0.0
 10
14.7769327425
 20
11.3919745542
 30
0.0
 10
14.7631540693
 20
11.4192705934
 30
0.0
 10
14.7450087775
 20
11.457658658
 30
0.0
 10
14.7233112453
 20
11.5083656913
 30
0.0
 10
14.6991503143
 20
11.5725370303
 30
0.0
 10
14.6766337427
 20
11.6405449425
 30
0.0
 10
14.655853841
 20
11.7121115852
 30
0.0
 10
14.6368956515
 20
11.7869458128
 30
0.0
 10
14.6198370577
 20
11.8647422012
 30
0.0
 10
14.6047481669
 20
11.9451830128
 30
0.0
 10
14.591691043
 20
12.0279393879
 30
0.0
 10
14.5807194562
 20
12.1126728018
 30
0.0
 10
14.5718785545
 20
12.1990364726
 30
0.0
 10
14.5652047601
 20
12.2866768302
 30
0.0
 10
14.5607255675
 20
12.3752349912
 30
0.0
 10
14.5584594053
 20
12.4643482549
 30
0.0
 10
14.558415635
 20
12.5536516142
 30
0.0
 10
14.5605944192
 20
12.6427792742
 30
0.0
 10
14.5649867813
 20
12.7313661621
 30
0.0
 10
14.5715746515
 20
12.8190494793
 30
0.0
 10
14.5803308531
 20
12.9054700832
 30
0.0
 10
14.5912193969
 20
12.9902744174
 30
0.0
 10
14.604195252
 20
13.0731144476
 30
0.0
 10
14.614330921
 20
13.1274987012
 30
0.0
 10
14.6197518834
 20
13.1542895147
 30
0.0
  0
SPLINE
  5
2D0
100
AcDbEntity
  8
0
100
AcDbSpline
 62
7
  6
CONTINUOUS
 70
0
 71
3
 72
73
 73
69
 74
0
 42
0.0000001
 43
0.0000001
 44
0.0000000001
 40
0.0
 40
0.0
 40
0.0
 40
0.0
 40
0.0041771608
 40
0.0083683558
 40
0.0125874464
 40
0.0168479537
 40
0.0211629136
 40
0.0255447463
 40
0.0345517547
 40
0.0439565703
 40
0.0538294054
 40
0.0642268201
 40
0.0751925937
 40
0.0867590035
 40
0.0989482154
 40
0.1117736138
 40
0.1252409953
 40
0.139349607
 40
0.1540930221
 40
0.1694598724
 40
0.1854344592
 40
0.2019972756
 40
0.219125446
 40
0.2367931005
 40
0.2549716974
 40
0.2736303133
 40
0.2927359006
 40
0.3122535188
 40
0.3321465445
 40
0.3523768713
 40
0.3729050977
 40
0.3936907041
 40
0.4146922219
 40
0.4571713465
 40
0.4999999998
 40
0.5428286532
 40
0.5853077779
 40
0.6063092951
 40
0.6270949018
 40
0.6476231291
 40
0.6678534556
 40
0.6877464802
 40
0.7072640984
 40
0.7263696872
 40
0.7450283032
 40
0.7632068986
 40
0.7808745525
 40
0.7980027247
 40
0.814565542
 40
0.830540127
 40
0.8459069761
 40
0.860650393
 40
0.8747590062
 40
0.8882263861
 40
0.9010517828
 40
0.9132409959
 40
0.9248074076
 40
0.9357731802
 40
0.9461705932
 40
0.9560434287
 40
0.9654482459
 40
0.9744552541
 40
0.9788370865
 40
0.9831520458
 40
0.9874125539
 40
0.9916316439
 40
0.9958228391
 40
1.0
 40
1.0
 40
1.0
 40
1.0
 10
15.8402114381
 20
11.1150428375
 30
0.0
 10
15.844659835
 20
11.1150428327
 30
0.0
 10
15.8535741148
 20
11.1153242164
 30
0.0
 10
15.8669274362
 20
11.1165893493
 30
0.0
 10
15.8802642082
 20
11.1186969123
 30
0.0
 10
15.8935751925
 20
11.121645212
 30
0.0
 10
15.9068525816
 20
11.1254323938
 30
0.0
 10
15.9246599147
 20
11.1316522038
 30
0.0
 10
15.9468591614
 20
11.1416006144
 30
0.0
 10
15.9729590915
 20
11.1567322622
 30
0.0
 10
15.9987122652
 20
11.175122089
 30
0.0
 10
16.0240597809
 20
11.1967191058
 30
0.0
 10
16.0489474919
 20
11.2214684722
 30
0.0
 10
16.0733205352
 20
11.2493095896
 30
0.0
 10
16.0971245455
 20
11.2801757823
 30
0.0
 10
16.1203054128
 20
11.3139937455
 30
0.0
 10
16.1428096931
 20
11.35068335
 30
0.0
 10
16.1645848646
 20
11.3901576134
 30
0.0
 10
16.1855796408
 20
11.4323227853
 30
0.0
 10
16.2057442293
 20
11.4770785081
 30
0.0
 10
16.2250305824
 20
11.5243180294
 30
0.0
 10
16.2433925682
 20
11.5739284745
 30
0.0
 10
16.2607861461
 20
11.6257911317
 30
0.0
 10
16.2771695104
 20
11.6797817491
 30
0.0
 10
16.2925032425
 20
11.7357708418
 30
0.0
 10
16.3067504094
 20
11.7936240263
 30
0.0
 10
16.319876666
 20
11.8532023613
 30
0.0
 10
16.3318503465
 20
11.9143626939
 30
0.0
 10
16.3426425615
 20
11.9769580005
 30
0.0
 10
16.3522272798
 20
12.0408377845
 30
0.0
 10
16.3605813277
 20
12.1058483274
 30
0.0
 10
16.3676846704
 20
12.1718335305
 30
0.0
 10
16.3754939435
 20
12.2612359935
 30
0.0
 10
16.3819970876
 20
12.3742926703
 30
0.0
 10
16.384597272
 20
12.5107571163
 30
0.0
 10
16.3819970853
 20
12.6472215622
 30
0.0
 10
16.3754939479
 20
12.760278239
 30
0.0
 10
16.3676846659
 20
12.8496807009
 30
0.0
 10
16.3605813253
 20
12.9156659049
 30
0.0
 10
16.3522272842
 20
12.9806764497
 30
0.0
 10
16.3426425642
 20
13.0445562329
 30
0.0
 10
16.3318503433
 20
13.1071515371
 30
0.0
 10
16.3198766622
 20
13.1683118699
 30
0.0
 10
16.306750413
 20
13.2278902083
 30
0.0
 10
16.2925032464
 20
13.285743393
 30
0.0
 10
16.2771695084
 20
13.3417324819
 30
0.0
 10
16.2607861412
 20
13.395723098
 30
0.0
 10
16.2433925704
 20
13.4475857598
 30
0.0
 10
16.2250305873
 20
13.4971962071
 30
0.0
 10
16.2057442286
 20
13.5444357237
 30
0.0
 10
16.1855796353
 20
13.5891914427
 30
0.0
 10
16.164584865
 20
13.6313566198
 30
0.0
 10
16.1428096987
 20
13.6708308884
 30
0.0
 10
16.1203054135
 20
13.7075204878
 30
0.0
 10
16.0971245403
 20
13.7413384443
 30
0.0
 10
16.0733205337
 20
13.7722046413
 30
0.0
 10
16.0489474975
 20
13.8000457682
 30
0.0
 10
16.0240597827
 20
13.8247951303
 30
0.0
 10
15.9987122611
 20
13.8463921366
 30
0.0
 10
15.9729590889
 20
13.8647819647
 30
0.0
 10
15.9468591655
 20
13.8799136283
 30
0.0
 10
15.9246599155
 20
13.8898620343
 30
0.0
 10
15.9068525825
 20
13.8960818425
 30
0.0
 10
15.893575189
 20
13.8998690068
 30
0.0
 10
15.8802642123
 20
13.902817341
 30
0.0
 10
15.8669274339
 20
13.904924867
 30
0.0
 10
15.8535741156
 20
13.9061900242
 30
0.0
 10
15.8446598351
 20
13.9064713966
 30
0.0
 10
15.8402114381
 20
13.906471401
 30
0.0
  0
SPLINE
  5
2D1
100
AcDbEntity
  8
0
100
AcDbSpline
 62
7
  6
CONTINUOUS
 70
0
 71
3
 72
13
 73
9
 74
0
 42
0.0000001
 43
0.0000001
 44
0.0000000001
 40
0.0
 40
0.0
 40
0.0
 40
0.0
 40
0.0859076675
 40
0.1775404594
 40
0.2794089932
 40
0.3944022973
 40
0.6681190727
 40
1.0
 40
1.0
 40
1.0
 40
1.0
 10
14.6700817363
 20
13.3545613553
 30
0.0
 10
14.6700075046
 20
13.3545613538
 30
0.0
 10
14.6698533211
 20
13.3545382709
 30
0.0
 10
14.6696311136
 20
13.354437844
 30
0.0
 10
14.6694174802
 20
13.3542754073
 30
0.0
 10
14.6691296795
 20
13.3539618905
 30
0.0
 10
14.6688123508
 20
13.3534192432
 30
0.0
 10
14.6686285049
 20
13.3529276514
 30
0.0
 10
14.6685438356
 20
13.3526536616
 30
0.0
  0
SPLINE
  5
2D2
100
AcDbEntity
  8
LAYER_CHAMFER_FEAT
100
AcDbSpline
 62
7
  6
CONTINUOUS
 70
0
 71
3
 72
19
 73
15
 74
0
 42
0.0000001
 43
0.0000001
 44
0.0000000001
 40
0.0
 40
0.0
 40
0.0
 40
0.0
 40
0.0547969539
 40
0.1098040079
 40
0.1652283169
 40
0.2212712495
 40
0.2781259551
 40
0.3359752875
 40
0.4552804314
 40
0.5170865092
 40
0.580490664
 40
0.7125105209
 40
0.852154753
 40
1.0
 40
1.0
 40
1.0
 40
1.0
 10
15.8319218892
 20
13.6786142553
 30
0.0
 10
15.8279445084
 20
13.6786142616
 30
0.0
 10
15.8199719052
 20
13.6783452888
 30
0.0
 10
15.8080315487
 20
13.6771361703
 30
0.0
 10
15.7961082217
 20
13.6751220725
 30
0.0
 10
15.7842114302
 20
13.6723048859
 30
0.0
 10
15.7723490391
 20
13.66868667
 30
0.0
 10
15.7564299111
 20
13.6627391947
 30
0.0
 10
15.7407521139
 20
13.6552161183
 30
0.0
 10
15.7254149191
 20
13.6462743082
 30
0.0
 10
15.7097846541
 20
13.636047859
 30
0.0
 10
15.6904475899
 20
13.6212338215
 30
0.0
 10
15.6679634814
 20
13.6006523397
 30
0.0
 10
15.6537016429
 20
13.5853889613
 30
0.0
 10
15.6466444755
 20
13.5773047202
 30
0.0
  0
SPLINE
  5
2D3
100
AcDbEntity
  8
LAYER_CHAMFER_FEAT
100
AcDbSpline
 62
7
  6
CONTINUOUS
 70
0
 71
3
 72
39
 73
35
 74
0
 42
0.0000001
 43
0.0000001
 44
0.0000000001
 40
0.0
 40
0.0
 40
0.0
 40
0.0
 40
0.0206655068
 40
0.0427280498
 40
0.0661977118
 40
0.0910620564
 40
0.1172899111
 40
0.1448343039
 40
0.1736348852
 40
0.2036198216
 40
0.2347074311
 40
0.2668075007
 40
0.299822492
 40
0.333648552
 40
0.3681764859
 40
0.4032926079
 40
0.4388795879
 40
0.4748172226
 40
0.5109832135
 40
0.547253904
 40
0.5835050222
 40
0.6196124114
 40
0.6554527614
 40
0.6909043541
 40
0.7258478047
 40
0.760166847
 40
0.7937491142
 40
0.8264870002
 40
0.8582785291
 40
0.8890283565
 40
0.918648816
 40
0.9470611739
 40
0.9741969678
 40
1.0
 40
1.0
 40
1.0
 40
1.0
 10
15.6464496365
 20
13.5772558718
 30
0.0
 10
15.6373481491
 20
13.5663518218
 30
0.0
 10
15.6194723259
 20
13.5430091899
 30
0.0
 10
15.5944275186
 20
13.5049881648
 30
0.0
 10
15.5703757253
 20
13.4629734771
 30
0.0
 10
15.547412702
 20
13.4171340341
 30
0.0
 10
15.5256279387
 20
13.367650247
 30
0.0
 10
15.5051081686
 20
13.3147191321
 30
0.0
 10
15.4859354879
 20
13.2585517796
 30
0.0
 10
15.4681869475
 20
13.1993729673
 30
0.0
 10
15.4519341727
 20
13.1374199852
 30
0.0
 10
15.4372427965
 20
13.0729416778
 30
0.0
 10
15.4241723176
 20
13.0061973305
 30
0.0
 10
15.412775626
 20
12.9374555953
 30
0.0
 10
15.4030989532
 20
12.8669933403
 30
0.0
 10
15.3951814816
 20
12.7950945112
 30
0.0
 10
15.3890553615
 20
12.722048943
 30
0.0
 10
15.3847453918
 20
12.6481511737
 30
0.0
 10
15.3822690983
 20
12.5736992284
 30
0.0
 10
15.3816364797
 20
12.4989934012
 30
0.0
 10
15.3828501473
 20
12.4243350242
 30
0.0
 10
15.3859051329
 20
12.3500252353
 30
0.0
 10
15.3907890912
 20
12.2763637473
 30
0.0
 10
15.3974821679
 20
12.2036476176
 30
0.0
 10
15.4059572673
 20
12.1321700352
 30
0.0
 10
15.4161799783
 20
12.0622191068
 30
0.0
 10
15.428108911
 20
11.9940766794
 30
0.0
 10
15.4416956829
 20
11.9280171513
 30
0.0
 10
15.456885324
 20
11.864306363
 30
0.0
 10
15.4736163574
 20
11.8032003803
 30
0.0
 10
15.4918211884
 20
11.7449446883
 30
0.0
 10
15.5114266455
 20
11.689772225
 30
0.0
 10
15.5323531893
 20
11.6379054183
 30
0.0
 10
15.5475212099
 20
11.6048139513
 30
0.0
 10
15.5553339564
 20
11.5888932477
 30
0.0
  0
SPLINE
  5
2D4
100
AcDbEntity
  8
LAYER_CHAMFER_FEAT
100
AcDbSpline
 62
7
  6
CONTINUOUS
 70
0
 71
3
 72
19
 73
15
 74
0
 42
0.0000001
 43
0.0000001
 44
0.0000000001
 40
0.0
 40
0.0
 40
0.0
 40
0.0
 40
0.1478620077
 40
0.2875176998
 40
0.4195436726
 40
0.4829489445
 40
0.5447548482
 40
0.6640560763
 40
0.721901862
 40
0.7787521482
 40
0.8347899215
 40
0.8902084721
 40
0.9452093891
 40
1.0
 40
1.0
 40
1.0
 40
1.0
 10
15.6465508565
 20
11.4443167824
 30
0.0
 10
15.6536109985
 20
11.4362242133
 30
0.0
 10
15.6678790049
 20
11.4209451015
 30
0.0
 10
15.6903736626
 20
11.4003419331
 30
0.0
 10
15.7097203701
 20
11.3855120456
 30
0.0
 10
15.725358639
 20
11.375274589
 30
0.0
 10
15.740703509
 20
11.3663233328
 30
0.0
 10
15.7563894416
 20
11.3587921492
 30
0.0
 10
15.7723171162
 20
11.3528382604
 30
0.0
 10
15.7841858025
 20
11.3492161501
 30
0.0
 10
15.7960889454
 20
11.3463959074
 30
0.0
 10
15.8080186787
 20
11.3443796811
 30
0.0
 10
15.819965459
 20
11.3431692124
 30
0.0
 10
15.8279423698
 20
11.3428999839
 30
0.0
 10
15.8319218892
 20
11.3428999777
 30
0.0
  0
SPLINE
  5
2D5
100
AcDbEntity
  8
02___PRT_ALL_AXES
100
AcDbSpline
 62
7
  6
CONTINUOUS
 70
0
 71
3
 72
28
 73
24
 74
0
 42
0.0000001
 43
0.0000001
 44
0.0000000001
 40
0.0
 40
0.0
 40
0.0
 40
0.0
 40
0.0758958458
 40
0.1541888981
 40
0.2338764657
 40
0.3139224371
 40
0.3932829486
 40
0.4709296101
 40
0.5458735985
 40
0.6171908458
 40
0.6840501413
 40
0.7457462739
 40
0.8017422923
 40
0.8275061766
 40
0.8517536776
 40
0.8744971656
 40
0.8957772055
 40
0.9156683122
 40
0.9342853274
 40
0.9517897638
 40
0.968394282
 40
0.9843623799
 40
1.0
 40
1.0
 40
1.0
 40
1.0
 10
15.922322967
 20
13.0232804208
 30
0.0
 10
15.922914539
 20
13.0267293581
 30
0.0
 10
15.9239171188
 20
13.0337715621
 30
0.0
 10
15.9248845584
 20
13.0445156024
 30
0.0
 10
15.925330228
 20
13.055485552
 30
0.0
 10
15.9252471084
 20
13.0665132968
 30
0.0
 10
15.924636528
 20
13.0774303313
 30
0.0
 10
15.9235079865
 20
13.0880697794
 30
0.0
 10
15.9218791086
 20
13.0982693485
 30
0.0
 10
15.9197752345
 20
13.107873787
 30
0.0
 10
15.9172288909
 20
13.1167381677
 30
0.0
 10
15.9142792086
 20
13.1247285541
 30
0.0
 10
15.9114477354
 20
13.1307195847
 30
0.0
 10
15.9089947177
 20
13.1349500532
 30
0.0
 10
15.9071347089
 20
13.1377445596
 30
0.0
 10
15.9052101367
 20
13.1402390712
 30
0.0
 10
15.9032276142
 20
13.1424241877
 30
0.0
 10
15.9011938655
 20
13.1442915206
 30
0.0
 10
15.8991155003
 20
13.1458334821
 30
0.0
 10
15.8969993254
 20
13.1470430333
 30
0.0
 10
15.8948524323
 20
13.1479135075
 30
0.0
 10
15.8926841114
 20
13.1484388475
 30
0.0
 10
15.891224315
 20
13.1485563757
 30
0.0
 10
15.8905033166
 20
13.1485563779
 30
0.0
  0
SPLINE
  5
2D6
100
AcDbEntity
  8
02___PRT_ALL_AXES
100
AcDbSpline
 62
7
  6
CONTINUOUS
 70
0
 71
3
 72
22
 73
18
 74
0
 42
0.0000001
 43
0.0000001
 44
0.0000000001
 40
0.0
 40
0.0
 40
0.0
 40
0.0
 40
0.0350323261
 40
0.0715340244
 40
0.110768299
 40
0.1536832708
 40
0.2009069681
 40
0.2527953936
 40
0.3094903923
 40
0.3709688737
 40
0.4370800458
 40
0.5075726309
 40
0.5821149305
 40
0.6603101423
 40
0.7417082789
 40
0.8258169166
 40
1.0
 40
1.0
 40
1.0
 40
1.0
 10
15.7536835621
 20
11.7788155386
 30
0.0
 10
15.7547116121
 20
11.7788155289
 30
0.0
 10
15.7568179109
 20
11.779059418
 30
0.0
 10
15.7599079056
 20
11.7801382582
 30
0.0
 10
15.7629281825
 20
11.7819082278
 30
0.0
 10
15.7658581472
 20
11.7843441699
 30
0.0
 10
15.7686829063
 20
11.7874228486
 30
0.0
 10
15.7713859003
 20
11.7911201965
 30
0.0
 10
15.7739496191
 20
11.7954088738
 30
0.0
 10
15.7763559962
 20
11.800257178
 30
0.0
 10
15.7785872727
 20
11.8056288361
 30
0.0
 10
15.7806265236
 20
11.8114831891
 30
0.0
 10
15.7824580581
 20
11.8177755586
 30
0.0
 10
15.7840676296
 20
11.8244575829
 30
0.0
 10
15.7854427886
 20
11.8314779476
 30
0.0
 10
15.7869666767
 20
11.8413310958
 30
0.0
 10
15.7876977477
 20
11.8488844376
 30
0.0
 10
15.78801582
 20
11.8539860657
 30
0.0
  0
SPLINE
  5
2D7
100
AcDbEntity
  8
0
100
AcDbSpline
 62
7
  6
CONTINUOUS
 70
0
 71
3
 72
14
 73
10
 74
0
 42
0.0000001
 43
0.0000001
 44
0.0000000001
 40
0.0
 40
0.0
 40
0.0
 40
0.0
 40
0.0798618753
 40
0.1670373113
 40
0.2668341577
 40
0.3821051763
 40
0.5138220106
 40
0.661652387
 40
1.0
 40
1.0
 40
1.0
 40
1.0
 10
15.3596370768
 20
13.1569029989
 30
0.0
 10
15.359548663
 20
13.1569030121
 30
0.0
 10
15.3593625615
 20
13.1568694483
 30
0.0
 10
15.3590998723
 20
13.1567263575
 30
0.0
 10
15.3588516637
 20
13.1564982899
 30
0.0
 10
15.3586196433
 20
13.1561904909
 30
0.0
 10
15.358406077
 20
13.1558078969
 30
0.0
 10
15.3581381844
 20
13.1551774883
 30
0.0
 10
15.3579948668
 20
13.1546558001
 30
0.0
 10
15.3579164801
 20
13.1542895147
 30
0.0
  0
SPLINE
  5
2D8
100
AcDbEntity
  8
LAYER_CHAMFER_FEAT
100
AcDbSpline
 62
7
  6
CONTINUOUS
 70
0
 71
3
 72
38
 73
34
 74
0
 42
0.0000001
 43
0.0000001
 44
0.0000000001
 40
0.0
 40
0.0
 40
0.0
 40
0.0
 40
0.0439520349
 40
0.0865589055
 40
0.1278089142
 40
0.1676981496
 40
0.2062279109
 40
0.243406948
 40
0.2792517263
 40
0.3137873928
 40
0.3470486972
 40
0.3790809862
 40
0.4099412498
 40
0.4396991467
 40
0.4962204669
 40
0.523228228
 40
0.5495530675
 40
0.5753349449
 40
0.6007254734
 40
0.6258852474
 40
0.6509804028
 40
0.6761786619
 40
0.7016452244
 40
0.7275388991
 40
0.7540088219
 40
0.7811919892
 40
0.8092116715
 40
0.8381766494
 40
0.8681811298
 40
0.8993051606
 40
0.9316153999
 40
0.965166072
 40
1.0
 40
1.0
 40
1.0
 40
1.0
 10
16.1250889199
 20
13.4326209853
 30
0.0
 10
16.121010261
 20
13.4409324183
 30
0.0
 10
16.112750891
 20
13.4571909585
 30
0.0
 10
16.0998450411
 20
13.4808228564
 30
0.0
 10
16.0866282092
 20
13.5032955444
 30
0.0
 10
16.0731162718
 20
13.5245819876
 30
0.0
 10
16.0593249885
 20
13.5446570462
 30
0.0
 10
16.0452705765
 20
13.5634968277
 30
0.0
 10
16.030969394
 20
13.581078968
 30
0.0
 10
16.0164380788
 20
13.5973825146
 30
0.0
 10
16.0016932095
 20
13.6123880807
 30
0.0
 10
15.9867522814
 20
13.6260772781
 30
0.0
 10
15.9716302043
 20
13.6384345859
 30
0.0
 10
15.9516013288
 20
13.6528625324
 30
0.0
 10
15.9309033222
 20
13.6649264602
 30
0.0
 10
15.9097012172
 20
13.6742451172
 30
0.0
 10
15.8939461964
 20
13.6797340893
 30
0.0
 10
15.8781209832
 20
13.6838176147
 30
0.0
 10
15.8622449591
 20
13.6864895052
 30
0.0
 10
15.8463392675
 20
13.6877450006
 30
0.0
 10
15.8304252602
 20
13.6875818975
 30
0.0
 10
15.8145245079
 20
13.6860004779
 30
0.0
 10
15.7986583322
 20
13.6830035446
 30
0.0
 10
15.7828475124
 20
13.678596233
 30
0.0
 10
15.7671120886
 20
13.6727857346
 30
0.0
 10
15.7514713324
 20
13.6655809746
 30
0.0
 10
15.7359438254
 20
13.656992373
 30
0.0
 10
15.7205476028
 20
13.6470316932
 30
0.0
 10
15.7053002953
 20
13.6357119681
 30
0.0
 10
15.6902192734
 20
13.6230475549
 30
0.0
 10
15.6753216031
 20
13.6090539866
 30
0.0
 10
15.6606246328
 20
13.59374866
 30
0.0
 10
15.651151545
 20
13.582889
 30
0.0
 10
15.6464496365
 20
13.5772558718
 30
0.0
  0
SPLINE
  5
2D9
100
AcDbEntity
  8
LAYER_CHAMFER_FEAT
100
AcDbSpline
 62
7
  6
CONTINUOUS
 70
0
 71
3
 72
23
 73
19
 74
0
 42
0.0000001
 43
0.0000001
 44
0.0000000001
 40
0.0
 40
0.0
 40
0.0
 40
0.0
 40
0.0835165334
 40
0.1639189051
 40
0.241182653
 40
0.3153038612
 40
0.3863015223
 40
0.4542207509
 40
0.5191362134
 40
0.581156043
 40
0.6404260191
 40
0.6971338078
 40
0.7515128203
 40
0.8038450177
 40
0.8544617516
 40
0.9037415901
 40
0.9521042155
 40
1.0
 40
1.0
 40
1.0
 40
1.0
 10
16.114620774
 20
13.4255710431
 30
0.0
 10
16.1097329
 20
13.4355314832
 30
0.0
 10
16.0998121607
 20
13.4549228824
 30
0.0
 10
16.084181137
 20
13.4829009021
 30
0.0
 10
16.0681065342
 20
13.5091752979
 30
0.0
 10
16.0516161794
 20
13.5336999961
 30
0.0
 10
16.0347381379
 20
13.5564325307
 30
0.0
 10
16.0175009629
 20
13.5773333733
 30
0.0
 10
15.9999334986
 20
13.5963660864
 30
0.0
 10
15.98206483
 20
13.613497204
 30
0.0
 10
15.9639242446
 20
13.6286961111
 30
0.0
 10
15.9455412847
 20
13.6419348609
 30
0.0
 10
15.9269459737
 20
13.6531879844
 30
0.0
 10
15.9081690893
 20
13.6624323733
 30
0.0
 10
15.8892430773
 20
13.6696473771
 30
0.0
 10
15.8702013019
 20
13.6748152514
 30
0.0
 10
15.8510831941
 20
13.6779220442
 30
0.0
 10
15.8382848145
 20
13.6786142453
 30
0.0
 10
15.8319218892
 20
13.6786142553
 30
0.0
  0
SPLINE
  5
2DA
100
AcDbEntity
  8
0
100
AcDbSpline
 62
7
  6
CONTINUOUS
 70
0
 71
3
 72
13
 73
9
 74
0
 42
0.0000001
 43
0.0000001
 44
0.0000000001
 40
0.0
 40
0.0
 40
0.0
 40
0.0
 40
0.1023361444
 40
0.2073670941
 40
0.4342901379
 40
0.5603660411
 40
0.6962883703
 40
1.0
 40
1.0
 40
1.0
 40
1.0
 10
15.383112719
 20
13.2215950714
 30
0.0
 10
15.3833515097
 20
13.2215950704
 30
0.0
 10
15.3838364645
 20
13.2216389101
 30
0.0
 10
15.3848185652
 20
13.2219056145
 30
0.0
 10
15.3857644375
 20
13.2224404734
 30
0.0
 10
15.3866400964
 20
13.2231733266
 30
0.0
 10
15.3875573907
 20
13.2241258349
 30
0.0
 10
15.3881599987
 20
13.2249633586
 30
0.0
 10
15.3885368632
 20
13.2255635249
 30
0.0
  0
SPLINE
  5
2DB
100
AcDbEntity
  8
0
100
AcDbSpline
 62
7
  6
CONTINUOUS
 70
0
 71
3
 72
11
 73
7
 74
0
 42
0.0000001
 43
0.0000001
 44
0.0000000001
 40
0.0
 40
0.0
 40
0.0
 40
0.0
 40
0.2586652807
 40
0.5163144187
 40
0.7657025236
 40
1.0
 40
1.0
 40
1.0
 40
1.0
 10
15.4087051007
 20
13.3034782527
 30
0.0
 10
15.4088042856
 20
13.3050808946
 30
0.0
 10
15.4088859017
 20
13.3082881522
 30
0.0
 10
15.4086720041
 20
13.3130404852
 30
0.0
 10
15.4081301659
 20
13.317614545
 30
0.0
 10
15.4075391784
 20
13.3205629957
 30
0.0
 10
15.4071841407
 20
13.3219734376
 30
0.0
  0
SPLINE
  5
2DC
100
AcDbEntity
  8
0
100
AcDbSpline
 62
7
  6
CONTINUOUS
 70
0
 71
3
 72
14
 73
10
 74
0
 42
0.0000001
 43
0.0000001
 44
0.0000000001
 40
0.0
 40
0.0
 40
0.0
 40
0.0
 40
0.0817150546
 40
0.1702150006
 40
0.2705525592
 40
0.3856226875
 40
0.5165883778
 40
0.6633758057
 40
1.0
 40
1.0
 40
1.0
 40
1.0
 10
15.3743915319
 20
13.2250899905
 30
0.0
 10
15.3743078681
 20
13.2250899898
 30
0.0
 10
15.3741325587
 20
13.2250601938
 30
0.0
 10
15.3738832233
 20
13.2249322012
 30
0.0
 10
15.3736462369
 20
13.2247271162
 30
0.0
 10
15.3734232781
 20
13.2244495146
 30
0.0
 10
15.3732162754
 20
13.2241035203
 30
0.0
 10
15.3729531875
 20
13.2235312123
 30
0.0
 10
15.3728081633
 20
13.2230552933
 30
0.0
 10
15.3727266595
 20
13.2227204172
 30
0.0
  0
SPLINE
  5
2DD
100
AcDbEntity
  8
0
100
AcDbSpline
 62
7
  6
CONTINUOUS
 70
0
 71
3
 72
11
 73
7
 74
0
 42
0.0000001
 43
0.0000001
 44
0.0000000001
 40
0.0
 40
0.0
 40
0.0
 40
0.0
 40
0.2385313852
 40
0.4974047088
 40
0.757619944
 40
1.0
 40
1.0
 40
1.0
 40
1.0
 10
15.4036055278
 20
13.3420128749
 30
0.0
 10
15.4034854824
 20
13.3415761924
 30
0.0
 10
15.4033109398
 20
13.3406443364
 30
0.0
 10
15.4032188247
 20
13.339205974
 30
0.0
 10
15.40328883
 20
13.33775904
 30
0.0
 10
15.4034482862
 20
13.3368146978
 30
0.0
 10
15.4035606212
 20
13.3363684296
 30
0.0
  0
SPLINE
  5
2DE
100
AcDbEntity
  8
0
100
AcDbSpline
 62
7
  6
CONTINUOUS
 70
0
 71
3
 72
12
 73
8
 74
0
 42
0.0000001
 43
0.0000001
 44
0.0000000001
 40
0.0
 40
0.0
 40
0.0
 40
0.0
 40
0.1054580512
 40
0.2131674815
 40
0.4428638245
 40
0.7026349932
 40
1.0
 40
1.0
 40
1.0
 40
1.0
 10
15.3999299317
 20
13.2862506369
 30
0.0
 10
15.4001444664
 20
13.2862506438
 30
0.0
 10
15.4005789049
 20
13.2862858337
 30
0.0
 10
15.4014573953
 20
13.2864995992
 30
0.0
 10
15.4025571952
 20
13.2870537302
 30
0.0
 10
15.4037830658
 20
13.2880991219
 30
0.0
 10
15.404503447
 20
13.2889812168
 30
0.0
 10
15.4048551291
 20
13.2894734206
 30
0.0
  0
SPLINE
  5
2DF
100
AcDbEntity
  8
02___PRT_ALL_AXES
100
AcDbSpline
 62
7
  6
CONTINUOUS
 70
0
 71
3
 72
32
 73
28
 74
0
 42
0.0000001
 43
0.0000001
 44
0.0000000001
 40
0.0
 40
0.0
 40
0.0
 40
0.0
 40
0.0247164199
 40
0.0504844582
 40
0.077267976
 40
0.1050237968
 40
0.1337030481
 40
0.1632516026
 40
0.193610748
 40
0.224717699
 40
0.2565060803
 40
0.2889063654
 40
0.3552471181
 40
0.4231401772
 40
0.4919551232
 40
0.5610464073
 40
0.6297639957
 40
0.6974639262
 40
0.7635189806
 40
0.7957431986
 40
0.8273343532
 40
0.858223819
 40
0.8883462531
 40
0.9176400253
 40
0.9460477905
 40
0.9735167778
 40
1.0
 40
1.0
 40
1.0
 40
1.0
 10
15.922322967
 20
13.0232804208
 30
0.0
 10
15.925905884
 20
13.015795097
 30
0.0
 10
15.9328980993
 20
13.0003481658
 30
0.0
 10
15.9426846327
 20
12.9763159318
 30
0.0
 10
15.951965862
 20
12.9509944527
 30
0.0
 10
15.960715878
 20
12.9244540042
 30
0.0
 10
15.9689105352
 20
12.8967676782
 30
0.0
 10
15.9765270836
 20
12.8680119765
 30
0.0
 10
15.983544394
 20
12.8382663729
 30
0.0
 10
15.989942935
 20
12.8076132
 30
0.0
 10
15.99570504
 20
12.7761371467
 30
0.0
 10
16.0025711754
 20
12.7328491296
 30
0.0
 10
16.0094229047
 20
12.6773016968
 30
0.0
 10
16.0148416682
 20
12.6093232252
 30
0.0
 10
16.0174594064
 20
12.540255112
 30
0.0
 10
16.0172468593
 20
12.4708614316
 30
0.0
 10
16.0142064182
 20
12.4019081752
 30
0.0
 10
16.0083720771
 20
12.3341581241
 30
0.0
 10
16.0011785948
 20
12.2788753563
 30
0.0
 10
15.9940445823
 20
12.2358548792
 30
0.0
 10
15.9880897859
 20
12.2046165559
 30
0.0
 10
15.9815037126
 20
12.1742268161
 30
0.0
 10
15.9743045375
 20
12.1447696021
 30
0.0
 10
15.9665123084
 20
12.1163264523
 30
0.0
 10
15.9581485886
 20
12.0889758747
 30
0.0
 10
15.949236751
 20
12.0627938037
 30
0.0
 10
15.9428257084
 20
12.0458468531
 30
0.0
 10
15.9395264237
 20
12.037589755
 30
0.0
  0
SPLINE
  5
2E0
100
AcDbEntity
  8
0
100
AcDbSpline
 62
7
  6
CONTINUOUS
 70
0
 71
3
 72
11
 73
7
 74
0
 42
0.0000001
 43
0.0000001
 44
0.0000000001
 40
0.0
 40
0.0
 40
0.0
 40
0.0
 40
0.265493368
 40
0.5253548118
 40
0.7723713844
 40
1.0
 40
1.0
 40
1.0
 40
1.0
 10
15.3768548713
 20
13.1744282895
 30
0.0
 10
15.3768833065
 20
13.1760352876
 30
0.0
 10
15.3768270337
 20
13.1792183183
 30
0.0
 10
15.3764102716
 20
13.1838796837
 30
0.0
 10
15.3756757084
 20
13.1882696413
 30
0.0
 10
15.3749556459
 20
13.191056966
 30
0.0
 10
15.3745370659
 20
13.1923698784
 30
0.0
  0
SPLINE
  5
2E1
100
AcDbEntity
  8
0
100
AcDbSpline
 62
7
  6
CONTINUOUS
 70
0
 71
3
 72
11
 73
7
 74
0
 42
0.0000001
 43
0.0000001
 44
0.0000000001
 40
0.0
 40
0.0
 40
0.0
 40
0.0
 40
0.2491386722
 40
0.5116728492
 40
0.7681704889
 40
1.0
 40
1.0
 40
1.0
 40
1.0
 10
15.3701072146
 20
13.211254399
 30
0.0
 10
15.3700085499
 20
13.2107933586
 30
0.0
 10
15.3698757157
 20
13.2098310048
 30
0.0
 10
15.3698446004
 20
13.2083747023
 30
0.0
 10
15.3699749037
 20
13.206956849
 30
0.0
 10
15.3701754301
 20
13.206050527
 30
0.0
 10
15.370308694
 20
13.2056325334
 30
0.0
  0
SPLINE
  5
2E2
100
AcDbEntity
  8
02___PRT_ALL_AXES
100
AcDbSpline
 62
7
  6
CONTINUOUS
 70
0
 71
3
 72
15
 73
11
 74
0
 42
0.0000001
 43
0.0000001
 44
0.0000000001
 40
0.0
 40
0.0
 40
0.0
 40
0.0
 40
0.1487024273
 40
0.2898211715
 40
0.4235978244
 40
0.5503911659
 40
0.67069713
 40
0.7851640024
 40
0.8946042445
 40
1.0
 40
1.0
 40
1.0
 40
1.0
 10
15.8841735444
 20
11.9321554906
 30
0.0
 10
15.8805631233
 20
11.9270438786
 30
0.0
 10
15.873258192
 20
11.9172664398
 30
0.0
 10
15.8617331722
 20
11.9036505315
 30
0.0
 10
15.849955243
 20
11.8915037715
 30
0.0
 10
15.8379508705
 20
11.8808565032
 30
0.0
 10
15.8257465107
 20
11.8717356932
 30
0.0
 10
15.8133681506
 20
11.8641659067
 30
0.0
 10
15.8008460687
 20
11.8581703239
 30
0.0
 10
15.7922850692
 20
11.8551892172
 30
0.0
 10
15.78801582
 20
11.8539860657
 30
0.0
  0
SPLINE
  5
2E3
100
AcDbEntity
  8
02___PRT_ALL_AXES
100
AcDbSpline
 62
7
  6
CONTINUOUS
 70
0
 71
3
 72
16
 73
12
 74
0
 42
0.0000001
 43
0.0000001
 44
0.0000000001
 40
0.0
 40
0.0
 40
0.0
 40
0.0
 40
0.109784892
 40
0.2216116864
 40
0.336835157
 40
0.4566623627
 40
0.5186510218
 40
0.5821623219
 40
0.7141127465
 40
0.8532215609
 40
1.0
 40
1.0
 40
1.0
 40
1.0
 10
15.7650237289
 20
13.1713428027
 30
0.0
 10
15.7692710173
 20
13.1711275808
 30
0.0
 10
15.7778261231
 20
13.1701453593
 30
0.0
 10
15.7905348059
 20
13.1670575707
 30
0.0
 10
15.8031555569
 20
13.1623615695
 30
0.0
 10
15.8134550385
 20
13.1571810013
 30
0.0
 10
15.8216055363
 20
13.1522884071
 30
0.0
 10
15.8299031502
 20
13.1467497958
 30
0.0
 10
15.8401730248
 20
13.1388145752
 30
0.0
 10
15.8521368214
 20
13.1278904782
 30
0.0
 10
15.8597495757
 20
13.1198328562
 30
0.0
 10
15.863519065
 20
13.1155762398
 30
0.0
  0
SPLINE
  5
2E4
100
AcDbEntity
  8
0
100
AcDbSpline
 62
7
  6
CONTINUOUS
 70
0
 71
3
 72
11
 73
7
 74
0
 42
0.0000001
 43
0.0000001
 44
0.0000000001
 40
0.0
 40
0.0
 40
0.0
 40
0.0
 40
0.2553265308
 40
0.511876777
 40
0.7624139533
 40
1.0
 40
1.0
 40
1.0
 40
1.0
 10
15.4266928955
 20
13.3643616481
 30
0.0
 10
15.4268275088
 20
13.3659544809
 30
0.0
 10
15.4269786839
 20
13.3691588573
 30
0.0
 10
15.4268674225
 20
13.3739346174
 30
0.0
 10
15.4264247389
 20
13.3785796784
 30
0.0
 10
15.4259002556
 20
13.381594579
 30
0.0
 10
15.4255781681
 20
13.3830467322
 30
0.0
  0
SPLINE
  5
2E5
100
AcDbEntity
  8
0
100
AcDbSpline
 62
7
  6
CONTINUOUS
 70
0
 71
3
 72
13
 73
9
 74
0
 42
0.0000001
 43
0.0000001
 44
0.0000000001
 40
0.0
 40
0.0
 40
0.0
 40
0.0
 40
0.0837533074
 40
0.1737619339
 40
0.2748159983
 40
0.3898245947
 40
0.6654298666
 40
1.0
 40
1.0
 40
1.0
 40
1.0
 10
15.3906116287
 20
13.2910452778
 30
0.0
 10
15.3905326904
 20
13.2910452777
 30
0.0
 10
15.3903680177
 20
13.2910189614
 30
0.0
 10
15.3901321882
 20
13.2909051947
 30
0.0
 10
15.3899067013
 20
13.2907220216
 30
0.0
 10
15.3896040185
 20
13.29036869
 30
0.0
 10
15.3892761779
 20
13.2897615834
 30
0.0
 10
15.3890913048
 20
13.2892152754
 30
0.0
 10
15.3890077189
 20
13.2889112197
 30
0.0
  0
SPLINE
  5
2E6
100
AcDbEntity
  8
0
100
AcDbSpline
 62
7
  6
CONTINUOUS
 70
0
 71
3
 72
11
 73
7
 74
0
 42
0.0000001
 43
0.0000001
 44
0.0000000001
 40
0.0
 40
0.0
 40
0.0
 40
0.0
 40
0.2332605325
 40
0.4902697556
 40
0.7523106374
 40
1.0
 40
1.0
 40
1.0
 40
1.0
 10
15.4224427432
 20
13.4035699107
 30
0.0
 10
15.4223122753
 20
13.4031477165
 30
0.0
 10
15.4221172579
 20
13.4022355441
 30
0.0
 10
15.4219950616
 20
13.4008127208
 30
0.0
 10
15.4220345088
 20
13.3993578195
 30
0.0
 10
15.4221730562
 20
13.3983989061
 30
0.0
 10
15.4222746617
 20
13.3979408111
 30
0.0
  0
SPLINE
  5
2E7
100
AcDbEntity
  8
02___PRT_ALL_AXES
100
AcDbSpline
 62
7
  6
CONTINUOUS
 70
0
 71
3
 72
29
 73
25
 74
0
 42
0.0000001
 43
0.0000001
 44
0.0000000001
 40
0.0
 40
0.0
 40
0.0
 40
0.0
 40
0.0155276867
 40
0.0314131858
 40
0.0479854679
 40
0.0655242374
 40
0.0842511914
 40
0.1043307307
 40
0.1258759006
 40
0.1489560608
 40
0.1736042901
 40
0.1998237465
 40
0.2275928905
 40
0.256869616
 40
0.319680655
 40
0.3876332349
 40
0.4599121818
 40
0.5355740708
 40
0.6135836147
 40
0.6928452003
 40
0.7722321238
 40
0.8506145256
 40
0.9268872723
 40
1.0
 40
1.0
 40
1.0
 40
1.0
 10
15.9090881216
 20
11.9051484503
 30
0.0
 10
15.9098418202
 20
11.905148457
 30
0.0
 10
15.9113695015
 20
11.9052771187
 30
0.0
 10
15.9136363145
 20
11.9058518036
 30
0.0
 10
15.9158782752
 20
11.9068032815
 30
0.0
 10
15.9180849591
 20
11.908124246
 30
0.0
 10
15.9202485137
 20
11.9098068194
 30
0.0
 10
15.9223613556
 20
11.9118427564
 30
0.0
 10
15.9244160455
 20
11.9142231563
 30
0.0
 10
15.9264050125
 20
11.9169381297
 30
0.0
 10
15.9283206408
 20
11.919976575
 30
0.0
 10
15.9301553356
 20
11.9233260728
 30
0.0
 10
15.9319017752
 20
11.9269728944
 30
0.0
 10
15.9341558311
 20
11.9323382975
 30
0.0
 10
15.9366787696
 20
11.9396954448
 30
0.0
 10
15.9391850263
 20
11.9492343343
 30
0.0
 10
15.9411949347
 20
11.959525687
 30
0.0
 10
15.9426744308
 20
11.9703984467
 30
0.0
 10
15.9435982933
 20
11.9816721197
 30
0.0
 10
15.9439507767
 20
11.993158749
 30
0.0
 10
15.9437258683
 20
12.0046666314
 30
0.0
 10
15.9429273691
 20
12.0160038685
 30
0.0
 10
15.9415690146
 20
12.0269808515
 30
0.0
 10
15.940272392
 20
12.034120223
 30
0.0
 10
15.9395264237
 20
12.037589755
 30
0.0
  0
SPLINE
  5
2E8
100
AcDbEntity
  8
0
100
AcDbSpline
 62
7
  6
CONTINUOUS
 70
0
 71
3
 72
13
 73
9
 74
0
 42
0.0000001
 43
0.0000001
 44
0.0000000001
 40
0.0
 40
0.0
 40
0.0
 40
0.0
 40
0.0993123575
 40
0.2017762856
 40
0.3102010546
 40
0.4268391499
 40
0.6903783685
 40
1.0
 40
1.0
 40
1.0
 40
1.0
 10
15.367733708
 20
13.1546197982
 30
0.0
 10
15.3679968099
 20
13.1546197977
 30
0.0
 10
15.3685327558
 20
13.1546732182
 30
0.0
 10
15.3693240406
 20
13.1549108903
 30
0.0
 10
15.3701026352
 20
13.1553027455
 30
0.0
 10
15.3711603222
 20
13.1560561654
 30
0.0
 10
15.3724196593
 20
13.1574035287
 30
0.0
 10
15.3732412781
 20
13.1586876025
 30
0.0
 10
15.3736397326
 20
13.1594045837
 30
0.0
  0
SPLINE
  5
2E9
100
AcDbEntity
  8
0
100
AcDbSpline
 62
7
  6
CONTINUOUS
 70
0
 71
3
 72
11
 73
7
 74
0
 42
0.0000001
 43
0.0000001
 44
0.0000000001
 40
0.0
 40
0.0
 40
0.0
 40
0.0
 40
0.218567832
 40
0.4512684462
 40
0.7093204576
 40
1.0
 40
1.0
 40
1.0
 40
1.0
 10
15.4181324329
 20
13.3483830508
 30
0.0
 10
15.4185153381
 20
13.3483830385
 30
0.0
 10
15.4193097907
 20
13.3484999397
 30
0.0
 10
15.4204565602
 20
13.349009444
 30
0.0
 10
15.4215601845
 20
13.3498344274
 30
0.0
 10
15.4222200631
 20
13.3505395973
 30
0.0
 10
15.4225431871
 20
13.3509331868
 30
0.0
  0
LINE
  5
2EA
100
AcDbEntity
  8
02___PRT_ALL_AXES
100
AcDbLine
 62
7
  6
CONTINUOUS
 10
15.716837517
 20
11.8595226701
 11
15.78801582
 21
11.8539860657
  0
LINE
  5
2EB
100
AcDbEntity
  8
02___PRT_ALL_AXES
100
AcDbLine
 62
7
  6
CONTINUOUS
 10
15.7650237289
 20
13.1713428027
 11
15.6972213905
 21
13.1661360633
  0
SPLINE
  5
2EC
100
AcDbEntity
  8
0
100
AcDbSpline
 62
7
  6
CONTINUOUS
 70
0
 71
3
 72
49
 73
45
 74
0
 42
0.0000001
 43
0.0000001
 44
0.0000000001
 40
0.0
 40
0.0
 40
0.0
 40
0.0
 40
0.0365281124
 40
0.0739162172
 40
0.112041044
 40
0.1507744128
 40
0.1899843626
 40
0.2295360136
 40
0.2692924111
 40
0.3091153731
 40
0.3488663179
 40
0.3884070959
 40
0.4276008188
 40
0.4663127033
 40
0.5044109303
 40
0.5417675219
 40
0.5782592748
 40
0.6137687214
 40
0.6481851816
 40
0.6814059161
 40
0.7133373946
 40
0.7438967927
 40
0.7730137128
 40
0.7870142594
 40
0.8006345957
 40
0.8138704411
 40
0.8267187778
 40
0.8391779693
 40
0.8512478955
 40
0.8629301041
 40
0.8742279734
 40
0.8851468966
 40
0.8956944844
 40
0.9058807856
 40
0.9157185212
 40
0.9252233185
 40
0.9344139395
 40
0.9519354694
 40
0.9603302605
 40
0.9685205003
 40
0.9765422947
 40
0.984434771
 40
0.9922395429
 40
1.0
 40
1.0
 40
1.0
 40
1.0
 10
15.3579164801
 20
13.1542895147
 30
0.0
 10
15.3524955176
 20
13.1274987012
 30
0.0
 10
15.3423598486
 20
13.0731144476
 30
0.0
 10
15.3293839935
 20
12.9902744174
 30
0.0
 10
15.3184954497
 20
12.9054700832
 30
0.0
 10
15.3097392481
 20
12.8190494793
 30
0.0
 10
15.3031513779
 20
12.7313661621
 30
0.0
 10
15.2987590158
 20
12.6427792742
 30
0.0
 10
15.2965802316
 20
12.5536516142
 30
0.0
 10
15.2966240019
 20
12.4643482549
 30
0.0
 10
15.2988901642
 20
12.3752349912
 30
0.0
 10
15.3033693567
 20
12.2866768302
 30
0.0
 10
15.3100431511
 20
12.1990364726
 30
0.0
 10
15.3188840529
 20
12.1126728018
 30
0.0
 10
15.3298556396
 20
12.0279393879
 30
0.0
 10
15.3429127635
 20
11.9451830128
 30
0.0
 10
15.3580016543
 20
11.8647422012
 30
0.0
 10
15.3750602481
 20
11.7869458128
 30
0.0
 10
15.3940184377
 20
11.7121115852
 30
0.0
 10
15.4147983393
 20
11.6405449425
 30
0.0
 10
15.4373149109
 20
11.5725370303
 30
0.0
 10
15.4614758419
 20
11.5083656913
 30
0.0
 10
15.4831733741
 20
11.457658658
 30
0.0
 10
15.5013186659
 20
11.4192705934
 30
0.0
 10
15.5150973392
 20
11.3919745542
 30
0.0
 10
15.5292092207
 20
11.3658248006
 30
0.0
 10
15.5436401248
 20
11.3408479066
 30
0.0
 10
15.5583753702
 20
11.3170693621
 30
0.0
 10
15.5734000594
 20
11.294513392
 30
0.0
 10
15.5886990301
 20
11.2732029695
 30
0.0
 10
15.604256903
 20
11.2531598045
 30
0.0
 10
15.6200581198
 20
11.2344043298
 30
0.0
 10
15.6360868976
 20
11.2169557392
 30
0.0
 10
15.6523275011
 20
11.2008318527
 30
0.0
 10
15.6687633567
 20
11.1860496167
 30
0.0
 10
15.6853802129
 20
11.1726233751
 30
0.0
 10
15.7073970009
 20
11.1568048993
 30
0.0
 10
15.7300894584
 20
11.1433965522
 30
0.0
 10
15.7533073677
 20
11.132757149
 30
0.0
 10
15.7705717192
 20
11.1263054534
 30
0.0
 10
15.7879126789
 20
11.1212786415
 30
0.0
 10
15.8053128699
 20
11.117682909
 30
0.0
 10
15.8227513387
 20
11.1155234096
 30
0.0
 10
15.8344043359
 20
11.1150428437
 30
0.0
 10
15.8402114381
 20
11.1150428375
 30
0.0
  0
SPLINE
  5
2ED
100
AcDbEntity
  8
0
100
AcDbSpline
 62
7
  6
CONTINUOUS
 70
0
 71
3
 72
13
 73
9
 74
0
 42
0.0000001
 43
0.0000001
 44
0.0000000001
 40
0.0
 40
0.0
 40
0.0
 40
0.0
 40
0.0859076675
 40
0.1775404594
 40
0.2794089932
 40
0.3944022973
 40
0.6681190727
 40
1.0
 40
1.0
 40
1.0
 40
1.0
 10
15.4082463329
 20
13.3545613553
 30
0.0
 10
15.4081721012
 20
13.3545613538
 30
0.0
 10
15.4080179178
 20
13.3545382709
 30
0.0
 10
15.4077957102
 20
13.354437844
 30
0.0
 10
15.4075820769
 20
13.3542754073
 30
0.0
 10
15.4072942761
 20
13.3539618905
 30
0.0
 10
15.4069769474
 20
13.3534192432
 30
0.0
 10
15.4067931015
 20
13.3529276514
 30
0.0
 10
15.4067084322
 20
13.3526536616
 30
0.0
  0
SPLINE
  5
2EE
100
AcDbEntity
  8
0
100
AcDbSpline
 62
7
  6
CONTINUOUS
 70
0
 71
3
 72
26
 73
22
 74
0
 42
0.0000001
 43
0.0000001
 44
0.0000000001
 40
0.0
 40
0.0
 40
0.0
 40
0.0
 40
0.0215202788
 40
0.0431305835
 40
0.0649195577
 40
0.0869731667
 40
0.1093735426
 40
0.1321980656
 40
0.1793811881
 40
0.2290486282
 40
0.2816048476
 40
0.3373597408
 40
0.3965378757
 40
0.4592895374
 40
0.5257013845
 40
0.5958060875
 40
0.6695904501
 40
0.7470021068
 40
0.8279551485
 40
0.9123343223
 40
1.0
 40
1.0
 40
1.0
 40
1.0
 10
15.8402114381
 20
13.906471401
 30
0.0
 10
15.8352453657
 20
13.9064714059
 30
0.0
 10
15.825288916
 20
13.9061204399
 30
0.0
 10
15.8103795915
 20
13.9045428079
 30
0.0
 10
15.7954936157
 20
13.9019151131
 30
0.0
 10
15.7806439451
 20
13.8982399293
 30
0.0
 10
15.7658415136
 20
13.8935204248
 30
0.0
 10
15.7459673815
 20
13.8857573363
 30
0.0
 10
15.7212242352
 20
13.8733344989
 30
0.0
 10
15.6922716279
 20
13.8545015215
 30
0.0
 10
15.6638000078
 20
13.8316469336
 30
0.0
 10
15.6358880975
 20
13.8048474089
 30
0.0
 10
15.6086088762
 20
13.774185407
 30
0.0
 10
15.5820369437
 20
13.7397526145
 30
0.0
 10
15.5562462628
 20
13.7016505627
 30
0.0
 10
15.5313102927
 20
13.6599912646
 30
0.0
 10
15.5073011763
 20
13.6148973183
 30
0.0
 10
15.4842891722
 20
13.5665018828
 30
0.0
 10
15.4623422124
 20
13.5149480707
 30
0.0
 10
15.4415256339
 20
13.4603896048
 30
0.0
 10
15.4286795886
 20
13.4228144562
 30
0.0
 10
15.4224427432
 20
13.4035699107
 30
0.0
  0
SPLINE
  5
2EF
100
AcDbEntity
  8
02___PRT_ALL_AXES
100
AcDbSpline
 62
7
  6
CONTINUOUS
 70
0
 71
3
 72
22
 73
18
 74
0
 42
0.0000001
 43
0.0000001
 44
0.0000000001
 40
0.0
 40
0.0
 40
0.0
 40
0.0
 40
0.1754281755
 40
0.2595627577
 40
0.3406925793
 40
0.4184034236
 40
0.492323224
 40
0.5621317449
 40
0.6275714684
 40
0.6884617948
 40
0.7447176568
 40
0.7963745059
 40
0.8436215918
 40
0.8868440911
 40
0.9266693233
 40
0.9639999215
 40
1.0
 40
1.0
 40
1.0
 40
1.0
 10
15.7650237289
 20
13.1713428027
 30
0.0
 10
15.7645629638
 20
13.1760090702
 30
0.0
 10
15.7636535593
 20
13.1828948067
 30
0.0
 10
15.7619550171
 20
13.1918429635
 30
0.0
 10
15.7604909593
 20
13.1981721862
 30
0.0
 10
15.7588293683
 20
13.2041697102
 30
0.0
 10
15.7569814814
 20
13.2097951826
 30
0.0
 10
15.7549598589
 20
13.215010732
 30
0.0
 10
15.7527780703
 20
13.2197815055
 30
0.0
 10
15.7504505219
 20
13.2240758788
 30
0.0
 10
15.7479921298
 20
13.2278656778
 30
0.0
 10
15.7454179157
 20
13.2311262293
 30
0.0
 10
15.7427423975
 20
13.2338360722
 30
0.0
 10
15.7399794925
 20
13.2359760088
 30
0.0
 10
15.7371422816
 20
13.2375273501
 30
0.0
 10
15.7342489892
 20
13.2384704772
 30
0.0
 10
15.7322830783
 20
13.2386830859
 30
0.0
 10
15.7313208442
 20
13.2386830837
 30
0.0
  0
SPLINE
  5
2F0
100
AcDbEntity
  8
0
100
AcDbSpline
 62
7
  6
CONTINUOUS
 70
0
 71
3
 72
11
 73
7
 74
0
 42
0.0000001
 43
0.0000001
 44
0.0000000001
 40
0.0
 40
0.0
 40
0.0
 40
0.0
 40
0.2620506212
 40
0.5208027721
 40
0.7690189814
 40
1.0
 40
1.0
 40
1.0
 40
1.0
 10
15.3920749845
 20
13.2401006634
 30
0.0
 10
15.3921387406
 20
13.2417080249
 30
0.0
 10
15.3921511327
 20
13.2449081473
 30
0.0
 10
15.3918352915
 20
13.249622304
 30
0.0
 10
15.3911960559
 20
13.2541112292
 30
0.0
 10
15.3905398113
 20
13.2569837569
 30
0.0
 10
15.3901525775
 20
13.2583477563
 30
0.0
  0
SPLINE
  5
2F1
100
AcDbEntity
  8
LAYER_CHAMFER_FEAT
100
AcDbSpline
 62
7
  6
CONTINUOUS
 70
0
 71
3
 72
54
 73
50
 74
0
 42
0.0000001
 43
0.0000001
 44
0.0000000001
 40
0.0
 40
0.0
 40
0.0
 40
0.0
 40
0.0077262343
 40
0.0155164109
 40
0.0234325496
 40
0.0315330499
 40
0.039871384
 40
0.0484952514
 40
0.0574461769
 40
0.0667594737
 40
0.0764644697
 40
0.0865848959
 40
0.0971393569
 40
0.1081418265
 40
0.1196021297
 40
0.1315263908
 40
0.1439174381
 40
0.156775162
 40
0.1700968297
 40
0.1838773584
 40
0.1981095541
 40
0.2127843183
 40
0.2278908289
 40
0.243416699
 40
0.2593481175
 40
0.2756699742
 40
0.3094169136
 40
0.3445166778
 40
0.3808117973
 40
0.4181327238
 40
0.4563000352
 40
0.4951264614
 40
0.5344187888
 40
0.5739796829
 40
0.6136094621
 40
0.6531078452
 40
0.6922756945
 40
0.7309167703
 40
0.7688395172
 40
0.8058589079
 40
0.8417983784
 40
0.8764919039
 40
0.9097862789
 40
0.9258660886
 40
0.9415458711
 40
0.9568113324
 40
0.9716494862
 40
0.9860490157
 40
1.0
 40
1.0
 40
1.0
 40
1.0
 10
15.8319218892
 20
11.3428999777
 30
0.0
 10
15.8377801268
 20
11.3428999685
 30
0.0
 10
15.8495533067
 20
11.3434859224
 30
0.0
 10
15.8671517386
 20
11.346116894
 30
0.0
 10
15.8846917853
 20
11.3504949977
 30
0.0
 10
15.9021427272
 20
11.3566105758
 30
0.0
 10
15.9194782109
 20
11.3644511314
 30
0.0
 10
15.9366723906
 20
11.3740018611
 30
0.0
 10
15.9537006586
 20
11.3852460004
 30
0.0
 10
15.9705390358
 20
11.398164957
 30
0.0
 10
15.9871639934
 20
11.4127382985
 30
0.0
 10
16.0035522667
 20
11.428943665
 30
0.0
 10
16.0196807862
 20
11.4467566632
 30
0.0
 10
16.035526663
 20
11.4661507781
 30
0.0
 10
16.0510672193
 20
11.4870973099
 30
0.0
 10
16.0662800393
 20
11.5095653424
 30
0.0
 10
16.0811430302
 20
11.5335217364
 30
0.0
 10
16.0956344837
 20
11.5589311461
 30
0.0
 10
16.109733136
 20
11.5857560507
 30
0.0
 10
16.1234182218
 20
11.613956799
 30
0.0
 10
16.1366695267
 20
11.6434916631
 30
0.0
 10
16.1494674281
 20
11.6743168959
 30
0.0
 10
16.1617929525
 20
11.7063868088
 30
0.0
 10
16.1736277556
 20
11.7396537913
 30
0.0
 10
16.184954384
 20
11.7740685771
 30
0.0
 10
16.1995178443
 20
11.8219494452
 30
0.0
 10
16.2162811228
 20
11.8843340812
 30
0.0
 10
16.2339047497
 20
11.9621021423
 30
0.0
 10
16.249148313
 20
12.0431297275
 30
0.0
 10
16.2619205754
 20
12.1269352685
 30
0.0
 10
16.2721450749
 20
12.2130217764
 30
0.0
 10
16.2797605602
 20
12.3008778969
 30
0.0
 10
16.284721398
 20
12.3899816277
 30
0.0
 10
16.2869978557
 20
12.4798033505
 30
0.0
 10
16.2865762863
 20
12.5698090964
 30
0.0
 10
16.2834592134
 20
12.6594637757
 30
0.0
 10
16.2776653234
 20
12.7482344331
 30
0.0
 10
16.2692293422
 20
12.8355934732
 30
0.0
 10
16.2582018169
 20
12.9210219203
 30
0.0
 10
16.2446488043
 20
13.004012427
 30
0.0
 10
16.2286514156
 20
13.0840730074
 30
0.0
 10
16.2103053715
 20
13.1607279545
 30
0.0
 10
16.1929555282
 20
13.2220859452
 30
0.0
 10
16.1779398401
 20
13.2690744412
 30
0.0
 10
16.16629368
 20
13.3027782137
 30
0.0
 10
16.1541502695
 20
13.3353030799
 30
0.0
 10
16.1415274512
 20
13.3666010716
 30
0.0
 10
16.1284441774
 20
13.3966252675
 30
0.0
 10
16.1192808391
 20
13.4160748289
 30
0.0
 10
16.114620774
 20
13.4255710431
 30
0.0
  0
SPLINE
  5
2F2
100
AcDbEntity
  8
LAYER_CHAMFER_FEAT
100
AcDbSpline
 62
7
  6
CONTINUOUS
 70
0
 71
3
 72
62
 73
58
 74
0
 42
0.0000001
 43
0.0000001
 44
0.0000000001
 40
0.0
 40
0.0
 40
0.0
 40
0.0
 40
0.0113889548
 40
0.0222293116
 40
0.0325483333
 40
0.0375242885
 40
0.0423843242
 40
0.0517792745
 40
0.060792008
 40
0.0694900984
 40
0.0779513802
 40
0.0862623624
 40
0.0945155422
 40
0.1028058283
 40
0.1112265739
 40
0.119865864
 40
0.1288036056
 40
0.1381096978
 40
0.1478432626
 40
0.1580527136
 40
0.1687763735
 40
0.1800433814
 40
0.1918746998
 40
0.2042841011
 40
0.2172790737
 40
0.2308616214
 40
0.2450289533
 40
0.2597740718
 40
0.2750862726
 40
0.2909515684
 40
0.3073530511
 40
0.3242712027
 40
0.3416841651
 40
0.3595679771
 40
0.3778967846
 40
0.3966430292
 40
0.4157776205
 40
0.4550866823
 40
0.4955686156
 40
0.5369504247
 40
0.5789477859
 40
0.6212688169
 40
0.6636177186
 40
0.7056983561
 40
0.7472178353
 40
0.7878901288
 40
0.8274398161
 40
0.8467125786
 40
0.8656082932
 40
0.8840973349
 40
0.9021515503
 40
0.919744423
 40
0.9368512584
 40
0.9534493756
 40
0.9695183661
 40
0.9850402566
 40
1.0
 40
1.0
 40
1.0
 40
1.0
 10
15.646449638
 20
11.4442583692
 30
0.0
 10
15.6525859693
 20
11.4369067354
 30
0.0
 10
15.6649745475
 20
11.4228929263
 30
0.0
 10
15.6843924442
 20
11.4035806342
 30
0.0
 10
15.7010493798
 20
11.3892122251
 30
0.0
 10
15.7145194401
 20
11.3789216844
 30
0.0
 10
15.7277638798
 20
11.3696391351
 30
0.0
 10
15.7444921108
 20
11.35944011
 30
0.0
 10
15.7650116077
 20
11.3494391962
 30
0.0
 10
15.7857081093
 20
11.3418420936
 30
0.0
 10
15.8065363959
 20
11.3366726077
 30
0.0
 10
15.8274484257
 20
11.3339483544
 30
0.0
 10
15.8483926806
 20
11.3336794987
 30
0.0
 10
15.8693162404
 20
11.3358670666
 30
0.0
 10
15.8901671239
 20
11.3405028243
 30
0.0
 10
15.9108963016
 20
11.3475705297
 30
0.0
 10
15.9314584959
 20
11.3570479089
 30
0.0
 10
15.9518118194
 20
11.3689084072
 30
0.0
 10
15.9719167984
 20
11.3831221947
 30
0.0
 10
15.9917353675
 20
11.3996564387
 30
0.0
 10
16.0112301508
 20
11.4184751215
 30
0.0
 10
16.0303640865
 20
11.4395386948
 30
0.0
 10
16.049100319
 20
11.462803751
 30
0.0
 10
16.0674022538
 20
11.4882227891
 30
0.0
 10
16.0852336934
 20
11.5157440864
 30
0.0
 10
16.1025590003
 20
11.5453116605
 30
0.0
 10
16.119343259
 20
11.5768653016
 30
0.0
 10
16.1355524259
 20
11.6103406515
 30
0.0
 10
16.1511534624
 20
11.6456693163
 30
0.0
 10
16.1661144519
 20
11.6827790019
 30
0.0
 10
16.180404703
 20
11.7215936647
 30
0.0
 10
16.1939948407
 20
11.7620336759
 30
0.0
 10
16.2068568833
 20
11.8040159882
 30
0.0
 10
16.2189643317
 20
11.8474543347
 30
0.0
 10
16.2302921684
 20
11.8922593382
 30
0.0
 10
16.2408171739
 20
11.9383389965
 30
0.0
 10
16.2538672792
 20
12.0019207898
 30
0.0
 10
16.26796936
 20
12.083921574
 30
0.0
 10
16.2812434923
 20
12.1849624018
 30
0.0
 10
16.2909071428
 20
12.2886821464
 30
0.0
 10
16.2968800611
 20
12.3942272536
 30
0.0
 10
16.2991125638
 20
12.500730559
 30
0.0
 10
16.2975860932
 20
12.6073163068
 30
0.0
 10
16.2923133352
 20
12.713108048
 30
0.0
 10
16.2833381527
 20
12.8172365157
 30
0.0
 10
16.2707350762
 20
12.9188447306
 30
0.0
 10
16.2571826265
 20
13.0014226423
 30
0.0
 10
16.2445613471
 20
13.0655436017
 30
0.0
 10
16.2343438912
 20
13.1120779588
 30
0.0
 10
16.2233152332
 20
13.1573730138
 30
0.0
 10
16.2114979852
 20
13.2013357415
 30
0.0
 10
16.1989165732
 20
13.2438756647
 30
0.0
 10
16.1855969182
 20
13.2849053574
 30
0.0
 10
16.1715664856
 20
13.3243404965
 30
0.0
 10
16.1568540428
 20
13.3621003012
 30
0.0
 10
16.1414901187
 20
13.3981067419
 30
0.0
 10
16.1306302691
 20
13.4213289028
 30
0.0
 10
16.1250889199
 20
13.4326209853
 30
0.0
  0
SPLINE
  5
2F3
100
AcDbEntity
  8
0
100
AcDbSpline
 62
7
  6
CONTINUOUS
 70
0
 71
3
 72
11
 73
7
 74
0
 42
0.0000001
 43
0.0000001
 44
0.0000000001
 40
0.0
 40
0.0
 40
0.0
 40
0.0
 40
0.2438196096
 40
0.5045327422
 40
0.7629021501
 40
1.0
 40
1.0
 40
1.0
 40
1.0
 10
15.386142036
 20
13.2778404008
 30
0.0
 10
15.3860326015
 20
13.2773907653
 30
0.0
 10
15.3858788073
 20
13.2764421672
 30
0.0
 10
15.3858170869
 20
13.2749926315
 30
0.0
 10
15.3859174119
 20
13.273558062
 30
0.0
 10
15.3860975482
 20
13.2726312661
 30
0.0
 10
15.3862204458
 20
13.2721983695
 30
0.0
  0
ENDSEC
  0
SECTION
  2
OBJECTS
  0
DICTIONARY
  5
C
100
AcDbDictionary
280
0
281
1
  3
ACAD_GROUP
350
D
  3
ACAD_MLINESTYLE
350
17
  3
ACAD_LAYOUT
350
1A
  3
ACAD_PLOTSETTINGS
350
19
  3
ACAD_PLOTSTYLENAME
350
E
  0
DICTIONARY
  5
D
102
{ACAD_REACTORS
330
C
102
}
100
AcDbDictionary
280
0
281
1
  0
ACDBDICTIONARYWDFLT
  5
E
102
{ACAD_REACTORS
330
C
102
}
100
AcDbDictionary
281
1
  3
Normal
350
F
100
AcDbDictionaryWithDefault
340
F
  0
DICTIONARY
  5
17
102
{ACAD_REACTORS
330
C
102
}
100
AcDbDictionary
280
0
281
1
  3
Standard
350
18
  0
DICTIONARY
  5
19
102
{ACAD_REACTORS
330
C
102
}
100
AcDbDictionary
281
1
  0
DICTIONARY
  5
1A
102
{ACAD_REACTORS
330
C
102
}
100
AcDbDictionary
281
1
  3
Model
350
2F4
  3
Layout1
350
2F5
  0
ACDBPLACEHOLDER
  5
F
102
{ACAD_REACTORS
330
E
102
}
  0
MLINESTYLE
  5
18
102
{ACAD_REACTORS
330
17
102
}
100
AcDbMlineStyle
  2
STANDARD
 70
0
  3

 62
256
 51
90.0
 52
90.0
 71
2
 49
0.5
 62
256
  6
BYLAYER
 49
-0.5
 62
256
  6
BYLAYER
  0
LAYOUT
  5
2F4
102
{ACAD_REACTORS
330
1A
102
}
100
AcDbPlotSettings
  1

  2
none_device
  4
ANSI_C_(22.00_x_17.00_Inches)
  6

 40
0.0
 41
0.0
 42
0.0
 43
0.0
 44
558.8
 45
431.8
 46
0.0
 47
0.0
 48
0.0
 49
0.0
140
0.0
141
0.0
142
1.0
143
1.0
 70
1024
 72
0
 73
0
 74
0
  7

 75
0
147
1.0
148
0.0
149
0.0
100
AcDbLayout
  1
Model
 70
0
 71
0
 10
0.0
 20
0.0
 11
22.0
 21
17.0
 12
0.0
 22
0.0
 32
0.0
 14
0.0
 24
0.0
 34
0.0
 15
0.0
 25
0.0
 35
0.0
146
0.0
 13
0.0
 23
0.0
 33
0.0
 16
1.0
 26
0.0
 36
0.0
 17
0.0
 27
1.0
 37
0.0
 76
0
330
222
345
0
346
0
  0
LAYOUT
  5
2F5
102
{ACAD_REACTORS
330
1A
102
}
100
AcDbPlotSettings
  1

  2
none_device
  4
ANSI_C_(22.00_x_17.00_Inches)
  6

 40
0.0
 41
0.0
 42
0.0
 43
0.0
 44
558.8
 45
431.8
 46
0.0
 47
0.0
 48
0.0
 49
0.0
140
0.0
141
0.0
142
1.0
143
1.0
 70
0
 72
0
 73
0
 74
0
  7

 75
0
147
1.0
148
0.0
149
0.0
100
AcDbLayout
  1
Layout1
 70
0
 71
1
 10
0.0
 20
0.0
 11
22.0
 21
17.0
 12
0.0
 22
0.0
 32
0.0
 14
0.0
 24
0.0
 34
0.0
 15
0.0
 25
0.0
 35
0.0
146
0.0
 13
0.0
 23
0.0
 33
0.0
 16
1.0
 26
0.0
 36
0.0
 17
0.0
 27
1.0
 37
0.0
 76
0
330
223
345
0
346
0
  0
ENDSEC
  0
EOF