999
DXF file: _cgs_temp_output.dxf
999
Pro/ENGINEER 2016360 by Parametric Technology Corporation
  0
SECTION
  2
HEADER
  9
$ACADVER
  1
AC1021
  9
$DWGCODEPAGE
  3
ANSI_1252
  9
$EXTMAX
 10
22.0
 20
17.0
 30
0.0
  9
$EXTMIN
 10
0.0
 20
0.0
 30
0.0
  9
$LIMMIN
 10
0.0
 20
0.0
  9
$LIMMAX
 10
22.0
 20
17.0
  9
$VIEWCTR
 10
11.0
 20
8.5
  9
$VIEWSIZE
 40
17.0
  9
$CLAYER
  8
0
  9
$LTSCALE
 40
1.21
  9
$CELTYPE
  6
BYLAYER
  9
$DIMSCALE
 40
1.0
  9
$DIMASZ
 40
0.1875
  9
$DIMEXO
 40
0.0625
  9
$DIMDLI
 40
0.836
  9
$DIMEXE
 40
0.125
  9
$DIMCEN
 40
0.198
  9
$DIMLFAC
 40
1.0
  9
$DIMBLK
  1
_CLOSED
  9
$DIMALT
 70
0
  9
$DIMALTF
 40
25.4
  9
$DIMTXT
 40
0.15625
  9
$DIMTOL
 70
0
  9
$DIMLIM
 70
0
  9
$DIMTFAC
 40
1.0
  9
$DIMGAP
 40
0.09
  9
$DIMDSEP
 70
46
  9
$AUNITS
 70
0
  9
$PDMODE
 70
3
  9
$PDSIZE
 40
0.3125
  9
$HANDSEED
  5
3AB
  9
$TILEMODE
 70
1
  9
$MEASUREMENT
 70
0
  9
$INSUNITS
 70
1
  0
ENDSEC
  0
SECTION
  2
CLASSES
  0
CLASS
  1
ACDBDICTIONARYWDFLT
  2
AcDbDictionaryWithDefault
  3
AutoCAD 2000
 90
0
 91
1
280
0
281
0
  0
CLASS
  1
ACDBPLACEHOLDER
  2
AcDbPlaceHolder
  3
AutoCAD 2000
 90
0
 91
1
280
0
281
0
  0
CLASS
  1
LAYOUT
  2
AcDbLayout
  3
AutoCAD 2000
 90
0
 91
0
280
0
281
0
  0
ENDSEC
  0
SECTION
  2
TABLES
  0
TABLE
  2
VPORT
  5
8
100
AcDbSymbolTable
 70
2
  0
VPORT
  5
1F4
100
AcDbSymbolTableRecord
100
AcDbViewportTableRecord
  2
*ACTIVE
 70
0
 10
0.0
 20
0.0
 11
1.0
 21
1.0
 12
11.0
 22
8.5
 13
0.0
 23
0.0
 14
1.0
 24
1.0
 15
0.0
 25
0.0
 16
0.0
 26
0.0
 36
1.0
 17
0.0
 27
0.0
 37
0.0
 40
17.0
 41
1.2941176471
 42
50.0
 43
0.0
 44
0.0
 50
0.0
 51
0.0
 71
0
 72
100
 73
1
 74
1
 75
0
 76
0
 77
0
 78
0
  0
ENDTAB
  0
TABLE
  2
LTYPE
  5
5
100
AcDbSymbolTable
 70
6
  0
LTYPE
  5
14
100
AcDbSymbolTableRecord
100
AcDbLinetypeTableRecord
  2
BYBLOCK
 70
0
  3

 72
65
 73
0
 40
0.0
  0
LTYPE
  5
15
100
AcDbSymbolTableRecord
100
AcDbLinetypeTableRecord
  2
BYLAYER
 70
0
  3

 72
65
 73
0
 40
0.0
  0
LTYPE
  5
16
100
AcDbSymbolTableRecord
100
AcDbLinetypeTableRecord
  2
CONTINUOUS
 70
64
  3
Solid line
 72
65
 73
0
 40
0.0
  0
LTYPE
  5
1F5
100
AcDbSymbolTableRecord
100
AcDbLinetypeTableRecord
  2
CENTER
 70
64
  3
____ _ ____ _ ____ _ ____ _ ____ _ ____ _ ____
 72
65
 73
4
 40
0.6
 49
0.375
 74
0
 49
-0.075
 74
0
 49
0.075
 74
0
 49
-0.075
 74
0
  0
LTYPE
  5
1F6
100
AcDbSymbolTableRecord
100
AcDbLinetypeTableRecord
  2
HIDDEN
 70
64
  3
- - - - - - - - - - - - - - - - - - - -
 72
65
 73
2
 40
0.2
 49
0.1
 74
0
 49
-0.1
 74
0
  0
LTYPE
  5
1F7
100
AcDbSymbolTableRecord
100
AcDbLinetypeTableRecord
  2
PHANTOM
 70
64
  3
_____ _ _ _____ _ _ _____ _ _ _____
 72
65
 73
6
 40
0.8
 49
0.45
 74
0
 49
-0.05
 74
0
 49
0.1
 74
0
 49
-0.05
 74
0
 49
0.1
 74
0
 49
-0.05
 74
0
  0
LTYPE
  5
1F8
100
AcDbSymbolTableRecord
100
AcDbLinetypeTableRecord
  2
DOT
 70
64
  3
. . . . . . . . . . . . . . . . . . . .
 72
65
 73
2
 40
0.2
 49
0.1
 74
0
 49
-0.1
 74
0
  0
LTYPE
  5
1F9
100
AcDbSymbolTableRecord
100
AcDbLinetypeTableRecord
  2
DASHED
 70
64
  3
- - - - - - - - - - - - - - - - - - - -
 72
65
 73
2
 40
0.2
 49
0.1
 74
0
 49
-0.1
 74
0
  0
ENDTAB
  0
TABLE
  2
LAYER
  5
2
100
AcDbSymbolTable
 70
36
  0
LAYER
  5
10
100
AcDbSymbolTableRecord
100
AcDbLayerTableRecord
  2
0
 70
0
 62
7
  6
CONTINUOUS
370
-3
390
F
  0
LAYER
  5
1FA
100
AcDbSymbolTableRecord
100
AcDbLayerTableRecord
  2
DEFAULT_1
 70
0
 62
7
  6
CENTER
370
-3
390
F
  0
LAYER
  5
1FB
100
AcDbSymbolTableRecord
100
AcDbLayerTableRecord
  2
DEFAULT_2
 70
0
 62
8
  6
HIDDEN
370
-3
390
F
  0
LAYER
  5
1FC
100
AcDbSymbolTableRecord
100
AcDbLayerTableRecord
  2
DEFAULT_3
 70
0
 62
7
  6
PHANTOM
370
-3
390
F
  0
LAYER
  5
1FD
100
AcDbSymbolTableRecord
100
AcDbLayerTableRecord
  2
01_ALL_DTM_PLN
 70
0
 62
7
  6
CONTINUOUS
370
-3
390
F
  0
LAYER
  5
1FE
100
AcDbSymbolTableRecord
100
AcDbLayerTableRecord
  2
01__ASM_ALL_DTM_PLN
 70
0
 62
7
  6
CONTINUOUS
370
-3
390
F
  0
LAYER
  5
1FF
100
AcDbSymbolTableRecord
100
AcDbLayerTableRecord
  2
01__ASM_DEF_DTM_PLN
 70
0
 62
7
  6
CONTINUOUS
370
-3
390
F
  0
LAYER
  5
200
100
AcDbSymbolTableRecord
100
AcDbLayerTableRecord
  2
01___PRT_ALL_DTM_PLN
 70
0
 62
7
  6
CONTINUOUS
370
-3
390
F
  0
LAYER
  5
201
100
AcDbSymbolTableRecord
100
AcDbLayerTableRecord
  2
01___PRT_DEF_DTM_PLN
 70
0
 62
7
  6
CONTINUOUS
370
-3
390
F
  0
LAYER
  5
202
100
AcDbSymbolTableRecord
100
AcDbLayerTableRecord
  2
02_ALL_AXES
 70
0
 62
7
  6
CONTINUOUS
370
-3
390
F
  0
LAYER
  5
203
100
AcDbSymbolTableRecord
100
AcDbLayerTableRecord
  2
02__ASM_ALL_AXES
 70
0
 62
7
  6
CONTINUOUS
370
-3
390
F
  0
LAYER
  5
204
100
AcDbSymbolTableRecord
100
AcDbLayerTableRecord
  2
02___PRT_ALL_AXES
 70
0
 62
7
  6
CONTINUOUS
370
-3
390
F
  0
LAYER
  5
205
100
AcDbSymbolTableRecord
100
AcDbLayerTableRecord
  2
03_ALL_CURVES
 70
0
 62
7
  6
CONTINUOUS
370
-3
390
F
  0
LAYER
  5
206
100
AcDbSymbolTableRecord
100
AcDbLayerTableRecord
  2
03__ASM_ALL_CURVES
 70
0
 62
7
  6
CONTINUOUS
370
-3
390
F
  0
LAYER
  5
207
100
AcDbSymbolTableRecord
100
AcDbLayerTableRecord
  2
03___PRT_ALL_CURVES
 70
0
 62
7
  6
CONTINUOUS
370
-3
390
F
  0
LAYER
  5
208
100
AcDbSymbolTableRecord
100
AcDbLayerTableRecord
  2
04_ALL_DTM_PNT
 70
0
 62
7
  6
CONTINUOUS
370
-3
390
F
  0
LAYER
  5
209
100
AcDbSymbolTableRecord
100
AcDbLayerTableRecord
  2
04__ASM_ALL_DTM_PNT
 70
0
 62
7
  6
CONTINUOUS
370
-3
390
F
  0
LAYER
  5
20A
100
AcDbSymbolTableRecord
100
AcDbLayerTableRecord
  2
04___PRT_ALL_DTM_PNT
 70
0
 62
7
  6
CONTINUOUS
370
-3
390
F
  0
LAYER
  5
20B
100
AcDbSymbolTableRecord
100
AcDbLayerTableRecord
  2
05_ALL_DTM_CSYS
 70
0
 62
7
  6
CONTINUOUS
370
-3
390
F
  0
LAYER
  5
20C
100
AcDbSymbolTableRecord
100
AcDbLayerTableRecord
  2
05__ASM_ALL_DTM_CSYS
 70
0
 62
7
  6
CONTINUOUS
370
-3
390
F
  0
LAYER
  5
20D
100
AcDbSymbolTableRecord
100
AcDbLayerTableRecord
  2
05__ASM_DEF_DTM_CSYS
 70
0
 62
7
  6
CONTINUOUS
370
-3
390
F
  0
LAYER
  5
20E
100
AcDbSymbolTableRecord
100
AcDbLayerTableRecord
  2
05___PRT_ALL_DTM_CSYS
 70
0
 62
7
  6
CONTINUOUS
370
-3
390
F
  0
LAYER
  5
20F
100
AcDbSymbolTableRecord
100
AcDbLayerTableRecord
  2
05___PRT_DEF_DTM_CSYS
 70
0
 62
7
  6
CONTINUOUS
370
-3
390
F
  0
LAYER
  5
210
100
AcDbSymbolTableRecord
100
AcDbLayerTableRecord
  2
06_ALL_SURFS
 70
0
 62
7
  6
CONTINUOUS
370
-3
390
F
  0
LAYER
  5
211
100
AcDbSymbolTableRecord
100
AcDbLayerTableRecord
  2
06__ASM_ALL_SURFS
 70
0
 62
7
  6
CONTINUOUS
370
-3
390
F
  0
LAYER
  5
212
100
AcDbSymbolTableRecord
100
AcDbLayerTableRecord
  2
06___PRT_ALL_SURFS
 70
0
 62
7
  6
CONTINUOUS
370
-3
390
F
  0
LAYER
  5
213
100
AcDbSymbolTableRecord
100
AcDbLayerTableRecord
  2
07__ASM_ALL_SKELETONS
 70
0
 62
7
  6
CONTINUOUS
370
-3
390
F
  0
LAYER
  5
214
100
AcDbSymbolTableRecord
100
AcDbLayerTableRecord
  2
LAYER_AXIS
 70
0
 62
7
  6
CONTINUOUS
370
-3
390
F
  0
LAYER
  5
215
100
AcDbSymbolTableRecord
100
AcDbLayerTableRecord
  2
LAYER_CHAMFER_FEAT
 70
0
 62
7
  6
CONTINUOUS
370
-3
390
F
  0
LAYER
  5
216
100
AcDbSymbolTableRecord
100
AcDbLayerTableRecord
  2
LAYER_CUT_FEAT
 70
0
 62
7
  6
CONTINUOUS
370
-3
390
F
  0
LAYER
  5
217
100
AcDbSymbolTableRecord
100
AcDbLayerTableRecord
  2
LAYER_DATUM
 70
0
 62
7
  6
CONTINUOUS
370
-3
390
F
  0
LAYER
  5
218
100
AcDbSymbolTableRecord
100
AcDbLayerTableRecord
  2
LAYER_DIM
 70
0
 62
7
  6
CONTINUOUS
370
-3
390
F
  0
LAYER
  5
219
100
AcDbSymbolTableRecord
100
AcDbLayerTableRecord
  2
LAYER_FEATURE
 70
0
 62
7
  6
CONTINUOUS
370
-3
390
F
  0
LAYER
  5
21A
100
AcDbSymbolTableRecord
100
AcDbLayerTableRecord
  2
LAYER_GEOM_FEAT
 70
0
 62
7
  6
CONTINUOUS
370
-3
390
F
  0
LAYER
  5
21B
100
AcDbSymbolTableRecord
100
AcDbLayerTableRecord
  2
LAYER_NOGEOM_FEAT
 70
0
 62
7
  6
CONTINUOUS
370
-3
390
F
  0
LAYER
  5
21C
100
AcDbSymbolTableRecord
100
AcDbLayerTableRecord
  2
LAYER_PARAMETER_DIM
 70
0
 62
7
  6
CONTINUOUS
370
-3
390
F
  0
LAYER
  5
21D
100
AcDbSymbolTableRecord
100
AcDbLayerTableRecord
  2
LAYER_PROTRUSION_FEAT
 70
0
 62
7
  6
CONTINUOUS
370
-3
390
F
  0
LAYER
  5
21E
100
AcDbSymbolTableRecord
100
AcDbLayerTableRecord
  2
LAYER_QUILT
 70
0
 62
7
  6
CONTINUOUS
370
-3
390
F
  0
LAYER
  5
21F
100
AcDbSymbolTableRecord
100
AcDbLayerTableRecord
  2
LAYER_ROUND_FEAT
 70
0
 62
7
  6
CONTINUOUS
370
-3
390
F
  0
ENDTAB
  0
TABLE
  2
STYLE
  5
3
100
AcDbSymbolTable
 70
1
  0
STYLE
  5
11
100
AcDbSymbolTableRecord
100
AcDbTextStyleTableRecord
  2
STANDARD
 70
0
 40
0.0
 41
0.8
 50
0.0
 71
0
 42
0.2
  3
txt
  4

  0
STYLE
  5
220
100
AcDbSymbolTableRecord
100
AcDbTextStyleTableRecord
  2
TEXTSTYLE_1
 70
0
 40
0.0
 41
0.8
 50
0.0
 71
0
 42
0.2
  3
gdt
  4

  0
ENDTAB
  0
TABLE
  2
VIEW
  5
6
100
AcDbSymbolTable
 70
0
  0
ENDTAB
  0
TABLE
  2
UCS
  5
7
100
AcDbSymbolTable
 70
0
  0
ENDTAB
  0
TABLE
  2
APPID
  5
9
100
AcDbSymbolTable
 70
1
  0
APPID
  5
221
100
AcDbSymbolTableRecord
100
AcDbRegAppTableRecord
  2
ACAD
 70
0
  0
ENDTAB
  0
TABLE
  2
BLOCK_RECORD
  5
1
100
AcDbSymbolTable
 70
0
  0
BLOCK_RECORD
  5
222
100
AcDbSymbolTableRecord
100
AcDbBlockTableRecord
  2
*Model_Space
  0
BLOCK_RECORD
  5
223
100
AcDbSymbolTableRecord
100
AcDbBlockTableRecord
  2
*Paper_Space
  0
ENDTAB
  0
TABLE
  2
DIMSTYLE
  5
A
100
AcDbSymbolTable
 70
1
100
AcDbDimStyleTable
 71
0
  0
DIMSTYLE
105
224
100
AcDbSymbolTableRecord
100
AcDbDimStyleTableRecord
  2
STANDARD
 70
0
  3

  4

 40
1.0
 41
0.1875
 42
0.0625
 43
0.38
 44
0.125
 45
0.0
 46
0.0
 47
0.0001
 48
0.0001
140
0.15625
141
0.09
142
0.0
143
25.4
144
1.0
145
0.0
146
1.0
147
0.09
 71
0.0
 72
0.0
 73
1
 74
1
 75
0
 76
0
 77
0
 78
4
 79
1
170
0
171
3
172
0
173
0
174
0
175
0
176
0
177
0
178
0
270
2
179
4
271
4
272
4
273
2
274
2
275
0
280
0
281
0
282
0
283
1
284
4
285
0
286
0
287
3
288
0
340
11
278
46
  0
ENDTAB
  0
ENDSEC
  0
SECTION
  2
BLOCKS
  0
BLOCK
  5
20
100
AcDbEntity
  8
0
100
AcDbBlockBegin
  2
*Model_Space
 70
0
 10
0.0
 20
0.0
 30
0.0
  3
*Model_Space
  1

  0
ENDBLK
  5
21
100
AcDbEntity
  8
0
100
AcDbBlockEnd
  0
BLOCK
  5
1C
100
AcDbEntity
  8
0
100
AcDbBlockBegin
  2
*Paper_Space
 70
0
 10
0.0
 20
0.0
 30
0.0
  3
*Paper_Space
  1

  0
ENDBLK
  5
1D
100
AcDbEntity
  8
0
100
AcDbBlockEnd
  0
ENDSEC
  0
SECTION
  2
ENTITIES
  0
MTEXT
  5
225
100
AcDbEntity
  8
0
100
AcDbMText
 62
7
  6
CONTINUOUS
  7
STANDARD
 71
1
 72
1
 10
15.9560215477
 20
0.9479130325
 30
0.0
 11
1.0
 21
0.0
 31
0.0
 44
0.9
  1
SCALE: 1:0.071
 40
0.3
 41
3.36
  0
LINE
  5
226
100
AcDbEntity
  8
0
100
AcDbLine
 62
7
  6
CONTINUOUS
 10
0.0
 20
0.0
 11
0.0
 21
17.0
  0
LINE
  5
227
100
AcDbEntity
  8
0
100
AcDbLine
 62
7
  6
CONTINUOUS
 10
0.0
 20
0.0
 11
22.0
 21
0.0
  0
LINE
  5
228
100
AcDbEntity
  8
0
100
AcDbLine
 62
7
  6
CONTINUOUS
 10
0.0
 20
17.0
 11
22.0
 21
17.0
  0
LINE
  5
229
100
AcDbEntity
  8
0
100
AcDbLine
 62
7
  6
CONTINUOUS
 10
22.0
 20
0.0
 11
22.0
 21
17.0
  0
LINE
  5
22A
100
AcDbEntity
  8
02___PRT_ALL_AXES
100
AcDbLine
 62
7
  6
CONTINUOUS
 10
6.0400101333
 20
4.2709021786
 11
6.1392958476
 21
4.2709021786
  0
LINE
  5
22B
100
AcDbEntity
  8
02___PRT_ALL_AXES
100
AcDbLine
 62
7
  6
CONTINUOUS
 10
6.216224419
 20
5.2076521786
 11
6.1392958476
 21
5.2076521786
  0
LINE
  5
22C
100
AcDbEntity
  8
0
100
AcDbLine
 62
7
  6
CONTINUOUS
 10
6.0400101333
 20
4.270902208
 11
6.0400101333
 21
6.7692964857
  0
LINE
  5
22D
100
AcDbEntity
  8
0
100
AcDbLine
 62
7
  6
CONTINUOUS
 10
6.1392958476
 20
4.270902208
 11
6.1392958476
 21
6.7692964857
  0
LINE
  5
22E
100
AcDbEntity
  8
02___PRT_ALL_AXES
100
AcDbLine
 62
7
  6
CONTINUOUS
 10
6.216224419
 20
5.8326521786
 11
6.216224419
 21
5.2076521786
  0
LINE
  5
22F
100
AcDbEntity
  8
02___PRT_ALL_AXES
100
AcDbLine
 62
7
  6
CONTINUOUS
 10
6.220724419
 20
5.8281521786
 11
6.220724419
 21
5.2121521786
  0
LINE
  5
230
100
AcDbEntity
  8
02___PRT_ALL_AXES
100
AcDbLine
 62
7
  6
CONTINUOUS
 10
6.220724419
 20
5.2121521786
 11
6.216224419
 21
5.2076521786
  0
LINE
  5
231
100
AcDbEntity
  8
02___PRT_ALL_AXES
100
AcDbLine
 62
7
  6
CONTINUOUS
 10
6.216224419
 20
5.8326521786
 11
6.1392958476
 21
5.8326521786
  0
LINE
  5
232
100
AcDbEntity
  8
02___PRT_ALL_AXES
100
AcDbLine
 62
7
  6
CONTINUOUS
 10
6.220724419
 20
5.8281521786
 11
6.216224419
 21
5.8326521786
  0
LINE
  5
233
100
AcDbEntity
  8
0
100
AcDbLine
 62
7
  6
CONTINUOUS
 10
6.0400101333
 20
6.7622234789
 11
6.1392958476
 21
6.7622234789
  0
LINE
  5
234
100
AcDbEntity
  8
0
100
AcDbLine
 62
7
  6
CONTINUOUS
 10
6.0400101333
 20
6.7622344458
 11
6.1392958476
 21
6.7622344458
  0
LINE
  5
235
100
AcDbEntity
  8
0
100
AcDbLine
 62
7
  6
CONTINUOUS
 10
6.0400101333
 20
6.7652819991
 11
6.1392958476
 21
6.7652819991
  0
LINE
  5
236
100
AcDbEntity
  8
0
100
AcDbLine
 62
7
  6
CONTINUOUS
 10
6.0400101333
 20
6.7658112388
 11
6.1392958476
 21
6.7658112388
  0
LINE
  5
237
100
AcDbEntity
  8
0
100
AcDbLine
 62
7
  6
CONTINUOUS
 10
6.0400101333
 20
6.7678519307
 11
6.1392958476
 21
6.7678519307
  0
LINE
  5
238
100
AcDbEntity
  8
0
100
AcDbLine
 62
7
  6
CONTINUOUS
 10
6.0400101333
 20
6.7681696835
 11
6.1392958476
 21
6.7681696835
  0
LINE
  5
239
100
AcDbEntity
  8
0
100
AcDbLine
 62
7
  6
CONTINUOUS
 10
6.0400101333
 20
6.7691905332
 11
6.1392958476
 21
6.7691905332
  0
LINE
  5
23A
100
AcDbEntity
  8
0
100
AcDbLine
 62
7
  6
CONTINUOUS
 10
6.0400101333
 20
6.7692964857
 11
6.1392958476
 21
6.7692964857
  0
LINE
  5
23B
100
AcDbEntity
  8
02___PRT_ALL_AXES
100
AcDbLine
 62
7
  6
CONTINUOUS
 10
5.980514941
 20
11.3506906828
 11
6.0798006553
 21
11.3506906828
  0
LINE
  5
23C
100
AcDbEntity
  8
02___PRT_ALL_AXES
100
AcDbLine
 62
7
  6
CONTINUOUS
 10
6.0798006553
 20
12.2874406828
 11
6.1567292267
 21
12.2874406828
  0
LINE
  5
23D
100
AcDbEntity
  8
0
100
AcDbLine
 62
7
  6
CONTINUOUS
 10
5.980514941
 20
11.3506907503
 11
5.980514941
 21
13.8491906788
  0
LINE
  5
23E
100
AcDbEntity
  8
0
100
AcDbLine
 62
7
  6
CONTINUOUS
 10
5.980514941
 20
12.466207937
 11
6.0798006553
 21
12.466207937
  0
LINE
  5
23F
100
AcDbEntity
  8
0
100
AcDbLine
 62
7
  6
CONTINUOUS
 10
6.0798006553
 20
12.4796760817
 11
5.980514941
 21
12.4796760817
  0
LINE
  5
240
100
AcDbEntity
  8
0
100
AcDbLine
 62
7
  6
CONTINUOUS
 10
6.0798006553
 20
12.4882094699
 11
5.980514941
 21
12.4882094699
  0
LINE
  5
241
100
AcDbEntity
  8
0
100
AcDbLine
 62
7
  6
CONTINUOUS
 10
5.980514941
 20
12.4985637009
 11
6.0798006553
 21
12.4985637009
  0
LINE
  5
242
100
AcDbEntity
  8
0
100
AcDbLine
 62
7
  6
CONTINUOUS
 10
5.980514941
 20
12.5052883284
 11
6.0798006553
 21
12.5052883284
  0
LINE
  5
243
100
AcDbEntity
  8
0
100
AcDbLine
 62
7
  6
CONTINUOUS
 10
6.0798006553
 20
12.518267831
 11
5.980514941
 21
12.518267831
  0
LINE
  5
244
100
AcDbEntity
  8
0
100
AcDbLine
 62
7
  6
CONTINUOUS
 10
6.0798006553
 20
12.5268223458
 11
5.980514941
 21
12.5268223458
  0
LINE
  5
245
100
AcDbEntity
  8
0
100
AcDbLine
 62
7
  6
CONTINUOUS
 10
6.0798006553
 20
11.3506907503
 11
6.0798006553
 21
13.8491906788
  0
LINE
  5
246
100
AcDbEntity
  8
0
100
AcDbLine
 62
7
  6
CONTINUOUS
 10
5.980514941
 20
12.5377241971
 11
6.0798006553
 21
12.5377241971
  0
LINE
  5
247
100
AcDbEntity
  8
0
100
AcDbLine
 62
7
  6
CONTINUOUS
 10
5.980514941
 20
12.5444621303
 11
6.0798006553
 21
12.5444621303
  0
LINE
  5
248
100
AcDbEntity
  8
0
100
AcDbLine
 62
7
  6
CONTINUOUS
 10
6.0798006553
 20
12.5569401816
 11
5.980514941
 21
12.5569401816
  0
LINE
  5
249
100
AcDbEntity
  8
0
100
AcDbLine
 62
7
  6
CONTINUOUS
 10
6.0798006553
 20
12.5655073807
 11
5.980514941
 21
12.5655073807
  0
LINE
  5
24A
100
AcDbEntity
  8
0
100
AcDbLine
 62
7
  6
CONTINUOUS
 10
5.980514941
 20
12.5769460935
 11
6.0798006553
 21
12.5769460935
  0
LINE
  5
24B
100
AcDbEntity
  8
0
100
AcDbLine
 62
7
  6
CONTINUOUS
 10
5.980514941
 20
12.5836906828
 11
6.0798006553
 21
12.5836906828
  0
LINE
  5
24C
100
AcDbEntity
  8
0
100
AcDbLine
 62
7
  6
CONTINUOUS
 10
6.0798006553
 20
12.5956549685
 11
5.980514941
 21
12.5956549685
  0
LINE
  5
24D
100
AcDbEntity
  8
0
100
AcDbLine
 62
7
  6
CONTINUOUS
 10
6.0798006553
 20
12.6042263971
 11
5.980514941
 21
12.6042263971
  0
LINE
  5
24E
100
AcDbEntity
  8
02___PRT_ALL_AXES
100
AcDbLine
 62
7
  6
CONTINUOUS
 10
6.1567292267
 20
12.2874406828
 11
6.1567292267
 21
12.9124406828
  0
LINE
  5
24F
100
AcDbEntity
  8
02___PRT_ALL_AXES
100
AcDbLine
 62
7
  6
CONTINUOUS
 10
6.1612292267
 20
12.2919406828
 11
6.1612292267
 21
12.9079406828
  0
LINE
  5
250
100
AcDbEntity
  8
0
100
AcDbLine
 62
7
  6
CONTINUOUS
 10
5.980514941
 20
12.6161906828
 11
6.0798006553
 21
12.6161906828
  0
LINE
  5
251
100
AcDbEntity
  8
02___PRT_ALL_AXES
100
AcDbLine
 62
7
  6
CONTINUOUS
 10
6.1567292267
 20
12.2874406828
 11
6.1612292267
 21
12.2919406828
  0
LINE
  5
252
100
AcDbEntity
  8
02___PRT_ALL_AXES
100
AcDbLine
 62
7
  6
CONTINUOUS
 10
6.0798006553
 20
12.9124406828
 11
6.1567292267
 21
12.9124406828
  0
LINE
  5
253
100
AcDbEntity
  8
02___PRT_ALL_AXES
100
AcDbLine
 62
7
  6
CONTINUOUS
 10
6.1567292267
 20
12.9124406828
 11
6.1612292267
 21
12.9079406828
  0
LINE
  5
254
100
AcDbEntity
  8
02___PRT_ALL_AXES
100
AcDbLine
 62
7
  6
CONTINUOUS
 10
5.980514941
 20
13.8491906828
 11
6.0798006553
 21
13.8491906828
  0
LINE
  5
255
100
AcDbEntity
  8
0
100
AcDbLine
 62
7
  6
CONTINUOUS
 10
15.4542649505
 20
6.6956927894
 11
15.4567344024
 21
6.7040285712
  0
LINE
  5
256
100
AcDbEntity
  8
0
100
AcDbLine
 62
7
  6
CONTINUOUS
 10
15.4931106589
 20
6.6984123868
 11
15.4958407255
 21
6.7066664881
  0
LINE
  5
257
100
AcDbEntity
  8
0
100
AcDbLine
 62
7
  6
CONTINUOUS
 10
15.5320226239
 20
6.699910469
 11
15.5350106109
 21
6.7080747439
  0
LINE
  5
258
100
AcDbEntity
  8
0
100
AcDbLine
 62
7
  6
CONTINUOUS
 10
15.5709624441
 20
6.7001855577
 11
15.5742054028
 21
6.7082519491
  0
LINE
  5
259
100
AcDbEntity
  8
LAYER_CUT_FEAT
100
AcDbLine
 62
7
  6
CONTINUOUS
 10
15.5348607633
 20
5.8102613975
 11
15.7706348969
 21
6.487312484
  0
LINE
  5
25A
100
AcDbEntity
  8
LAYER_CUT_FEAT
100
AcDbLine
 62
7
  6
CONTINUOUS
 10
14.6674640655
 20
4.9118212601
 11
15.2230444724
 21
5.3649415832
  0
LINE
  5
25B
100
AcDbEntity
  8
LAYER_CUT_FEAT
100
AcDbLine
 62
7
  6
CONTINUOUS
 10
16.6051232075
 20
5.3799090926
 11
15.8893117732
 21
5.3398890203
  0
LINE
  5
25C
100
AcDbEntity
  8
LAYER_CUT_FEAT
100
AcDbLine
 62
7
  6
CONTINUOUS
 10
15.2199094684
 20
5.5445458432
 11
14.6488538349
 21
5.978000661
  0
LINE
  5
25D
100
AcDbEntity
  8
LAYER_CUT_FEAT
100
AcDbLine
 62
7
  6
CONTINUOUS
 10
15.8063364951
 20
4.4419692906
 11
15.5470772466
 21
5.1103795372
  0
LINE
  5
25E
100
AcDbEntity
  8
LAYER_CUT_FEAT
100
AcDbLine
 62
7
  6
CONTINUOUS
 10
15.8094142071
 20
6.4820821634
 11
15.6141516757
 21
5.8434072013
  0
LINE
  5
25F
100
AcDbEntity
  8
LAYER_CUT_FEAT
100
AcDbLine
 62
7
  6
CONTINUOUS
 10
15.2190166944
 20
5.2790959653
 11
14.6856422645
 21
4.8771695035
  0
LINE
  5
260
100
AcDbEntity
  8
LAYER_CUT_FEAT
100
AcDbLine
 62
7
  6
CONTINUOUS
 10
15.9430291022
 20
5.4069721155
 11
16.6107845272
 21
5.4186278298
  0
LINE
  5
261
100
AcDbEntity
  8
LAYER_CUT_FEAT
100
AcDbLine
 62
7
  6
CONTINUOUS
 10
14.6658116312
 20
6.0132657187
 11
15.2128881751
 21
5.6301985987
  0
LINE
  5
262
100
AcDbEntity
  8
LAYER_CUT_FEAT
100
AcDbLine
 62
7
  6
CONTINUOUS
 10
15.627476629
 20
5.0800211379
 11
15.8449096465
 21
4.4485498035
  0
LINE
  5
263
100
AcDbEntity
  8
LAYER_CUT_FEAT
100
AcDbLine
 62
7
  6
CONTINUOUS
 10
15.7295913213
 20
5.8081137598
 11
15.9248538526
 21
6.4467887219
  0
LINE
  5
264
100
AcDbEntity
  8
LAYER_CUT_FEAT
100
AcDbLine
 62
7
  6
CONTINUOUS
 10
14.7582899351
 20
4.7807627883
 11
15.291664365
 21
5.1826892502
  0
LINE
  5
265
100
AcDbEntity
  8
LAYER_CUT_FEAT
100
AcDbLine
 62
7
  6
CONTINUOUS
 10
16.6086777724
 20
5.5393237302
 11
15.9409223474
 21
5.5276680159
  0
LINE
  5
266
100
AcDbEntity
  8
LAYER_CUT_FEAT
100
AcDbLine
 62
7
  6
CONTINUOUS
 10
15.2821270449
 20
5.7290819527
 11
14.7350505011
 21
6.1121490727
  0
LINE
  5
267
100
AcDbEntity
  8
LAYER_CUT_FEAT
100
AcDbLine
 62
7
  6
CONTINUOUS
 10
15.9590472459
 20
4.4878505307
 11
15.7416142285
 21
5.1193218651
  0
LINE
  5
268
100
AcDbEntity
  8
LAYER_CUT_FEAT
100
AcDbLine
 62
7
  6
CONTINUOUS
 10
15.959928116
 20
6.4294397391
 11
15.7767915685
 21
5.7362957276
  0
LINE
  5
269
100
AcDbEntity
  8
LAYER_CUT_FEAT
100
AcDbLine
 62
7
  6
CONTINUOUS
 10
15.3752946753
 20
5.1628987398
 11
14.7865887508
 21
4.7537374634
  0
LINE
  5
26A
100
AcDbEntity
  8
LAYER_CUT_FEAT
100
AcDbLine
 62
7
  6
CONTINUOUS
 10
15.8848965753
 20
5.5928355382
 11
16.601668637
 21
5.5778213038
  0
LINE
  5
26B
100
AcDbEntity
  8
LAYER_CUT_FEAT
100
AcDbLine
 62
7
  6
CONTINUOUS
 10
14.7623889076
 20
6.1401455489
 11
15.365015731
 21
5.7517790629
  0
LINE
  5
26C
100
AcDbEntity
  8
LAYER_CUT_FEAT
100
AcDbLine
 62
7
  6
CONTINUOUS
 10
15.7862793095
 20
5.1927434126
 11
15.9934946722
 21
4.5064130191
  0
LINE
  5
26D
100
AcDbEntity
  8
0
100
AcDbLine
 62
7
  6
CONTINUOUS
 10
15.428943799
 20
6.7014015858
 11
15.4329314799
 21
6.6936761827
  0
LINE
  5
26E
100
AcDbEntity
  8
0
100
AcDbLine
 62
7
  6
CONTINUOUS
 10
15.4679813195
 20
6.7049137228
 11
15.4717243719
 21
6.6970668756
  0
LINE
  5
26F
100
AcDbEntity
  8
0
100
AcDbLine
 62
7
  6
CONTINUOUS
 10
15.5071098962
 20
6.7071979287
 11
15.5106046262
 21
6.6992373813
  0
LINE
  5
270
100
AcDbEntity
  8
0
100
AcDbLine
 62
7
  6
CONTINUOUS
 10
15.5462909139
 20
6.7082519491
 11
15.5495338726
 21
6.7001855577
  0
LINE
  5
271
100
AcDbEntity
  8
0
100
AcDbLine
 62
7
  6
CONTINUOUS
 10
15.4399835572
 20
6.6873833425
 11
15.4485169455
 21
6.6881899852
  0
LINE
  5
272
100
AcDbEntity
  8
0
100
AcDbLine
 62
7
  6
CONTINUOUS
 10
15.4785753066
 20
6.6905556295
 11
15.4871298214
 21
6.6910938339
  0
LINE
  5
273
100
AcDbEntity
  8
0
100
AcDbLine
 62
7
  6
CONTINUOUS
 10
15.5172476572
 20
6.692514155
 11
15.5258148563
 21
6.6927833901
  0
LINE
  5
274
100
AcDbEntity
  8
0
100
AcDbLine
 62
7
  6
CONTINUOUS
 10
15.5559624441
 20
6.6932569863
 11
15.5645338726
 21
6.6932569863
  0
LINE
  5
275
100
AcDbEntity
  8
02___PRT_ALL_AXES
100
AcDbLine
 62
7
  6
CONTINUOUS
 10
15.4253513166
 20
11.2615494749
 11
15.5167995153
 21
11.2615494749
  0
LINE
  5
276
100
AcDbEntity
  8
0
100
AcDbLine
 62
7
  6
CONTINUOUS
 10
15.0488901133
 20
13.2754860086
 11
15.0503941389
 21
13.2803530371
  0
LINE
  5
277
100
AcDbEntity
  8
0
100
AcDbLine
 62
7
  6
CONTINUOUS
 10
15.0220649302
 20
13.1792509422
 11
15.0238559954
 21
13.1863241577
  0
LINE
  5
278
100
AcDbEntity
  8
0
100
AcDbLine
 62
7
  6
CONTINUOUS
 10
15.0305972755
 20
13.2120294442
 11
15.0323170768
 21
13.2183757238
  0
LINE
  5
279
100
AcDbEntity
  8
0
100
AcDbLine
 62
7
  6
CONTINUOUS
 10
15.0395413948
 20
13.2441183557
 11
15.0411660356
 21
13.2497289976
  0
LINE
  5
27A
100
AcDbEntity
  8
0
100
AcDbLine
 62
7
  6
CONTINUOUS
 10
15.1397674834
 20
13.2736388065
 11
15.1418423376
 21
13.2803530371
  0
LINE
  5
27B
100
AcDbEntity
  8
0
100
AcDbLine
 62
7
  6
CONTINUOUS
 10
15.1134846079
 20
13.1791383079
 11
15.115304194
 21
13.1863241577
  0
LINE
  5
27C
100
AcDbEntity
  8
0
100
AcDbLine
 62
7
  6
CONTINUOUS
 10
15.1218586904
 20
13.2113401889
 11
15.1237652755
 21
13.2183757238
  0
LINE
  5
27D
100
AcDbEntity
  8
0
100
AcDbLine
 62
7
  6
CONTINUOUS
 10
15.1306225319
 20
13.2428507208
 11
15.1326142343
 21
13.2497289976
  0
LINE
  5
27E
100
AcDbEntity
  8
02___PRT_ALL_AXES
100
AcDbLine
 62
7
  6
CONTINUOUS
 10
15.5140363323
 20
12.1982994749
 11
15.5876554218
 21
12.1982994749
  0
LINE
  5
27F
100
AcDbEntity
  8
02___PRT_ALL_AXES
100
AcDbLine
 62
7
  6
CONTINUOUS
 10
15.594326365
 20
12.3323459136
 11
15.5897443051
 21
12.3323061097
  0
LINE
  5
280
100
AcDbEntity
  8
02___PRT_ALL_AXES
100
AcDbLine
 62
7
  6
CONTINUOUS
 10
15.594326365
 20
12.3323459136
 11
15.5897652584
 21
12.3326825499
  0
LINE
  5
281
100
AcDbEntity
  8
0
100
AcDbLine
 62
7
  6
CONTINUOUS
 10
15.0229587244
 20
13.1954905426
 11
15.0210137331
 21
13.2026065358
  0
LINE
  5
282
100
AcDbEntity
  8
0
100
AcDbLine
 62
7
  6
CONTINUOUS
 10
15.0315323711
 20
13.2276099602
 11
15.0296753819
 21
13.2348793264
  0
LINE
  5
283
100
AcDbEntity
  8
0
100
AcDbLine
 62
7
  6
CONTINUOUS
 10
15.0404946696
 20
13.2590219723
 11
15.038727515
 21
13.2664375376
  0
LINE
  5
284
100
AcDbEntity
  8
0
100
AcDbLine
 62
7
  6
CONTINUOUS
 10
15.0498367752
 20
13.2896955792
 11
15.0481611992
 21
13.2972500253
  0
LINE
  5
285
100
AcDbEntity
  8
LAYER_CUT_FEAT
100
AcDbLine
 62
7
  6
CONTINUOUS
 10
15.3786299302
 20
11.4702959122
 11
15.3748965675
 21
12.187161105
  0
LINE
  5
286
100
AcDbEntity
  8
LAYER_CUT_FEAT
100
AcDbLine
 62
7
  6
CONTINUOUS
 10
15.47447901
 20
12.8748234814
 11
15.643677823
 21
13.3994026678
  0
LINE
  5
287
100
AcDbEntity
  8
LAYER_CUT_FEAT
100
AcDbLine
 62
7
  6
CONTINUOUS
 10
15.0847280373
 20
12.3586315511
 11
15.2912614012
 21
12.5388330458
  0
LINE
  5
288
100
AcDbEntity
  8
LAYER_CUT_FEAT
100
AcDbLine
 62
7
  6
CONTINUOUS
 10
15.1124447961
 20
12.3081917175
 11
15.3767884935
 21
12.5388330458
  0
LINE
  5
289
100
AcDbEntity
  8
02___PRT_ALL_AXES
100
AcDbLine
 62
7
  6
CONTINUOUS
 10
15.594326365
 20
12.3323459136
 11
15.5854304196
 21
12.3330030611
  0
LINE
  5
28A
100
AcDbEntity
  8
LAYER_CUT_FEAT
100
AcDbLine
 62
7
  6
CONTINUOUS
 10
15.7976371138
 20
12.0703406651
 11
15.6214746862
 21
12.2106660433
  0
LINE
  5
28B
100
AcDbEntity
  8
LAYER_CUT_FEAT
100
AcDbLine
 62
7
  6
CONTINUOUS
 10
15.8831642061
 20
12.0703406651
 11
15.6562335457
 21
12.2511064004
  0
LINE
  5
28C
100
AcDbEntity
  8
0
100
AcDbLine
 62
7
  6
CONTINUOUS
 10
15.1144069231
 20
13.1954905426
 11
15.1124619318
 21
13.2026065358
  0
LINE
  5
28D
100
AcDbEntity
  8
0
100
AcDbLine
 62
7
  6
CONTINUOUS
 10
15.1229805698
 20
13.2276099602
 11
15.1211235805
 21
13.2348793264
  0
LINE
  5
28E
100
AcDbEntity
  8
LAYER_CUT_FEAT
100
AcDbLine
 62
7
  6
CONTINUOUS
 10
15.3145356032
 20
12.7082304322
 11
15.1848697581
 21
13.2335968922
  0
LINE
  5
28F
100
AcDbEntity
  8
0
100
AcDbLine
 62
7
  6
CONTINUOUS
 10
15.1319428683
 20
13.2590219723
 11
15.1301757137
 21
13.2664375376
  0
LINE
  5
290
100
AcDbEntity
  8
0
100
AcDbLine
 62
7
  6
CONTINUOUS
 10
15.1412849739
 20
13.2896955792
 11
15.1396093979
 21
13.2972500253
  0
LINE
  5
291
100
AcDbEntity
  8
LAYER_CUT_FEAT
100
AcDbLine
 62
7
  6
CONTINUOUS
 10
15.4641570225
 20
11.4702959122
 11
15.4604236598
 21
12.187161105
  0
LINE
  5
292
100
AcDbEntity
  8
LAYER_CUT_FEAT
100
AcDbLine
 62
7
  6
CONTINUOUS
 10
15.7426449627
 20
13.3809626366
 11
15.5845593428
 21
12.850646535
  0
LINE
  5
293
100
AcDbEntity
  8
LAYER_CUT_FEAT
100
AcDbLine
 62
7
  6
CONTINUOUS
 10
15.5511185675
 20
12.8472688215
 11
15.7292049153
 21
13.3994026678
  0
LINE
  5
294
100
AcDbEntity
  8
LAYER_CUT_FEAT
100
AcDbLine
 62
7
  6
CONTINUOUS
 10
15.3636475028
 20
12.4597953575
 11
15.1143671859
 21
12.2693739193
  0
LINE
  5
295
100
AcDbEntity
  8
LAYER_CUT_FEAT
100
AcDbLine
 62
7
  6
CONTINUOUS
 10
15.6781338318
 20
12.2970481402
 11
15.8904941351
 21
12.1046465649
  0
LINE
  5
296
100
AcDbEntity
  8
LAYER_CUT_FEAT
100
AcDbLine
 62
7
  6
CONTINUOUS
 10
15.4000626955
 20
12.7082304322
 11
15.2506067459
 21
13.31378036
  0
LINE
  5
297
100
AcDbEntity
  8
LAYER_CUT_FEAT
100
AcDbLine
 62
7
  6
CONTINUOUS
 10
15.4856351778
 20
12.1306435463
 11
15.4791275888
 21
11.4629955072
  0
LINE
  5
298
100
AcDbEntity
  8
LAYER_CUT_FEAT
100
AcDbLine
 62
7
  6
CONTINUOUS
 10
15.5261212277
 20
11.4599750074
 11
15.5326288167
 21
12.1276230465
  0
LINE
  5
299
100
AcDbEntity
  8
LAYER_CUT_FEAT
100
AcDbLine
 62
7
  6
CONTINUOUS
 10
15.5589098327
 20
12.1808309405
 11
15.5412152735
 21
11.4653430199
  0
LINE
  5
29A
100
AcDbEntity
  8
LAYER_CUT_FEAT
100
AcDbLine
 62
7
  6
CONTINUOUS
 10
15.6298289593
 20
12.8039145142
 11
15.7799722398
 21
13.3075871396
  0
LINE
  5
29B
100
AcDbEntity
  8
LAYER_CUT_FEAT
100
AcDbLine
 62
7
  6
CONTINUOUS
 10
15.1277703501
 20
12.1536703709
 11
15.377050667
 21
12.3440918091
  0
LINE
  5
29C
100
AcDbEntity
  8
LAYER_CUT_FEAT
100
AcDbLine
 62
7
  6
CONTINUOUS
 10
15.906134637
 20
12.2184833418
 11
15.7039457827
 21
12.4016694338
  0
LINE
  5
29D
100
AcDbEntity
  8
LAYER_CUT_FEAT
100
AcDbLine
 62
7
  6
CONTINUOUS
 10
15.2615893777
 20
13.3409060178
 11
15.4091454972
 21
12.7909448996
  0
LINE
  5
29E
100
AcDbEntity
  8
LAYER_CUT_FEAT
100
AcDbLine
 62
7
  6
CONTINUOUS
 10
15.4478555251
 20
12.8594331254
 11
15.3002994056
 21
13.4093942435
  0
LINE
  5
29F
100
AcDbEntity
  8
LAYER_CUT_FEAT
100
AcDbLine
 62
7
  6
CONTINUOUS
 10
15.7904126608
 20
13.2790845225
 11
15.6522510478
 21
12.7767674155
  0
LINE
  5
2A0
100
AcDbEntity
  8
LAYER_CUT_FEAT
100
AcDbLine
 62
7
  6
CONTINUOUS
 10
15.4048779621
 20
12.2963491703
 11
15.1344227577
 21
12.1184657613
  0
LINE
  5
2A1
100
AcDbEntity
  8
LAYER_CUT_FEAT
100
AcDbLine
 62
7
  6
CONTINUOUS
 10
15.7100415782
 20
12.4594459322
 11
15.9088108628
 21
12.2570055656
  0
LINE
  5
2A2
100
AcDbEntity
  8
LAYER_CUT_FEAT
100
AcDbLine
 62
7
  6
CONTINUOUS
 10
15.3140818696
 20
13.4260845572
 11
15.481188622
 21
12.8517635444
  0
LINE
  5
2A3
100
AcDbEntity
  8
02___PRT_ALL_AXES
100
AcDbLine
 62
7
  6
CONTINUOUS
 10
15.639106495
 20
12.2276037928
 11
15.642510374
 21
12.2316818106
  0
LINE
  5
2A4
100
AcDbEntity
  8
02___PRT_ALL_AXES
100
AcDbLine
 62
7
  6
CONTINUOUS
 10
15.6390228278
 20
12.2276759786
 11
15.6392047411
 21
12.2278765159
  0
LINE
  5
2A5
100
AcDbEntity
  8
02___PRT_ALL_AXES
100
AcDbLine
 62
7
  6
CONTINUOUS
 10
15.6390211429
 20
12.2276860806
 11
15.6392047411
 21
12.2278765159
  0
LINE
  5
2A6
100
AcDbEntity
  8
02___PRT_ALL_AXES
100
AcDbLine
 62
7
  6
CONTINUOUS
 10
15.5140363323
 20
12.8232994749
 11
15.5876554218
 21
12.8232994749
  0
LINE
  5
2A7
100
AcDbEntity
  8
LAYER_CUT_FEAT
100
AcDbLine
 62
7
  6
CONTINUOUS
 10
15.492357452
 20
12.8322280463
 11
15.512852111
 21
12.8322280463
  0
LINE
  5
2A8
100
AcDbEntity
  8
02___PRT_ALL_AXES
100
AcDbLine
 62
7
  6
CONTINUOUS
 10
15.639106495
 20
12.793995157
 11
15.642510374
 21
12.7899171392
  0
LINE
  5
2A9
100
AcDbEntity
  8
0
100
AcDbLine
 62
7
  6
CONTINUOUS
 10
15.1065361031
 20
13.179204448
 11
15.1098579578
 21
13.1775259181
  0
LINE
  5
2AA
100
AcDbEntity
  8
0
100
AcDbLine
 62
7
  6
CONTINUOUS
 10
15.1149144234
 20
13.2119667677
 11
15.1182141072
 21
13.2100211229
  0
LINE
  5
2AB
100
AcDbEntity
  8
0
100
AcDbLine
 62
7
  6
CONTINUOUS
 10
15.1236893556
 20
13.2440371199
 11
15.1269636123
 21
13.2418262803
  0
LINE
  5
2AC
100
AcDbEntity
  8
0
100
AcDbLine
 62
7
  6
CONTINUOUS
 10
15.1328522402
 20
13.275383855
 11
15.1360978384
 21
13.2729100025
  0
LINE
  5
2AD
100
AcDbEntity
  8
0
100
AcDbLine
 62
7
  6
CONTINUOUS
 10
15.0140953746
 20
13.1781269181
 11
15.1055435733
 21
13.1781269181
  0
LINE
  5
2AE
100
AcDbEntity
  8
0
100
AcDbLine
 62
7
  6
CONTINUOUS
 10
15.1134846079
 20
13.1791383079
 11
15.1066669961
 21
13.1791383079
  0
LINE
  5
2AF
100
AcDbEntity
  8
0
100
AcDbLine
 62
7
  6
CONTINUOUS
 10
15.0149021138
 20
13.1792509422
 11
15.1063503125
 21
13.1792509422
  0
LINE
  5
2B0
100
AcDbEntity
  8
0
100
AcDbLine
 62
7
  6
CONTINUOUS
 10
15.115304194
 20
13.1863241577
 11
15.0238559954
 21
13.1863241577
  0
LINE
  5
2B1
100
AcDbEntity
  8
0
100
AcDbLine
 62
7
  6
CONTINUOUS
 10
15.0209946387
 20
13.2053732652
 11
15.1124428373
 21
13.2053732652
  0
LINE
  5
2B2
100
AcDbEntity
  8
0
100
AcDbLine
 62
7
  6
CONTINUOUS
 10
15.0224610043
 20
13.2109698276
 11
15.113909203
 21
13.2109698276
  0
LINE
  5
2B3
100
AcDbEntity
  8
0
100
AcDbLine
 62
7
  6
CONTINUOUS
 10
15.1218586904
 20
13.2113401889
 11
15.1159770592
 21
13.2113401889
  0
LINE
  5
2B4
100
AcDbEntity
  8
0
100
AcDbLine
 62
7
  6
CONTINUOUS
 10
15.0232508679
 20
13.2120294442
 11
15.1146990666
 21
13.2120294442
  0
LINE
  5
2B5
100
AcDbEntity
  8
0
100
AcDbLine
 62
7
  6
CONTINUOUS
 10
15.1237652755
 20
13.2183757238
 11
15.0323170768
 21
13.2183757238
  0
LINE
  5
2B6
100
AcDbEntity
  8
0
100
AcDbLine
 62
7
  6
CONTINUOUS
 10
15.0296901393
 20
13.2376462308
 11
15.121138338
 21
13.2376462308
  0
LINE
  5
2B7
100
AcDbEntity
  8
0
100
AcDbLine
 62
7
  6
CONTINUOUS
 10
15.1306225319
 20
13.2428507208
 11
15.1254464144
 21
13.2428507208
  0
LINE
  5
2B8
100
AcDbEntity
  8
0
100
AcDbLine
 62
7
  6
CONTINUOUS
 10
15.0312242381
 20
13.2431217535
 11
15.1226724368
 21
13.2431217535
  0
LINE
  5
2B9
100
AcDbEntity
  8
0
100
AcDbLine
 62
7
  6
CONTINUOUS
 10
15.0319964467
 20
13.2441183557
 11
15.1234446454
 21
13.2441183557
  0
LINE
  5
2BA
100
AcDbEntity
  8
0
100
AcDbLine
 62
7
  6
CONTINUOUS
 10
15.1326142343
 20
13.2497289976
 11
15.0411660356
 21
13.2497289976
  0
LINE
  5
2BB
100
AcDbEntity
  8
0
100
AcDbLine
 62
7
  6
CONTINUOUS
 10
15.0387761097
 20
13.2692018863
 11
15.1302243084
 21
13.2692018863
  0
LINE
  5
2BC
100
AcDbEntity
  8
0
100
AcDbLine
 62
7
  6
CONTINUOUS
 10
15.1397674834
 20
13.2736388065
 11
15.135141676
 21
13.2736388065
  0
LINE
  5
2BD
100
AcDbEntity
  8
0
100
AcDbLine
 62
7
  6
CONTINUOUS
 10
15.0403764277
 20
13.2745509657
 11
15.1318246264
 21
13.2745509657
  0
LINE
  5
2BE
100
AcDbEntity
  8
0
100
AcDbLine
 62
7
  6
CONTINUOUS
 10
15.0411302193
 20
13.2754860086
 11
15.132578418
 21
13.2754860086
  0
LINE
  5
2BF
100
AcDbEntity
  8
0
100
AcDbLine
 62
7
  6
CONTINUOUS
 10
15.1418423376
 20
13.2803530371
 11
15.0503941389
 21
13.2803530371
  0
LINE
  5
2C0
100
AcDbEntity
  8
0
100
AcDbLine
 62
7
  6
CONTINUOUS
 10
15.0482435832
 20
13.3000090903
 11
15.1396917819
 21
13.3000090903
  0
LINE
  5
2C1
100
AcDbEntity
  8
02___PRT_ALL_AXES
100
AcDbLine
 62
7
  6
CONTINUOUS
 10
15.4253513166
 20
13.7600494749
 11
15.5167995153
 21
13.7600494749
  0
ARC
  5
2C2
100
AcDbEntity
  8
LAYER_CUT_FEAT
100
AcDbCircle
 62
7
  6
CONTINUOUS
 10
14.7219660998
 20
4.8289661459
 40
0.0603571429
100
AcDbArc
 50
127.0
 51
307.0
  0
ARC
  5
2C3
100
AcDbEntity
  8
LAYER_CUT_FEAT
100
AcDbCircle
 62
7
  6
CONTINUOUS
 10
14.8171626919
 20
4.7097473272
 40
0.0535714286
100
AcDbArc
 50
124.8
 51
225.3000606267
  0
ARC
  5
2C4
100
AcDbEntity
  8
LAYER_CUT_FEAT
100
AcDbCircle
 62
7
  6
CONTINUOUS
 10
14.6336053529
 20
4.9533361434
 40
0.0535714286
100
AcDbArc
 50
208.6999393733
 51
309.2
  0
ARC
  5
2C5
100
AcDbEntity
  8
LAYER_CUT_FEAT
100
AcDbCircle
 62
7
  6
CONTINUOUS
 10
15.4971313287
 20
5.0910067924
 40
0.0535714286
100
AcDbArc
 50
21.2
 51
80.3103367482
  0
ARC
  5
2C6
100
AcDbEntity
  8
LAYER_CUT_FEAT
100
AcDbCircle
 62
7
  6
CONTINUOUS
 10
15.4058686164
 20
5.1189086036
 40
0.0535714286
100
AcDbArc
 50
65.6896632518
 51
124.8
  0
ARC
  5
2C7
100
AcDbEntity
  8
LAYER_CUT_FEAT
100
AcDbCircle
 62
7
  6
CONTINUOUS
 10
15.2553405297
 20
5.2308926078
 40
0.0603571429
100
AcDbArc
 50
307.0
 51
127.0
  0
ARC
  5
2C8
100
AcDbEntity
  8
LAYER_CUT_FEAT
100
AcDbCircle
 62
7
  6
CONTINUOUS
 10
15.1891857598
 20
5.4064564665
 40
0.0535714286
100
AcDbArc
 50
309.2
 51
8.3103367482
  0
ARC
  5
2C9
100
AcDbEntity
  8
LAYER_CUT_FEAT
100
AcDbCircle
 62
7
  6
CONTINUOUS
 10
15.1875202301
 20
5.5018745975
 40
0.0535714286
100
AcDbArc
 50
353.6896632518
 51
52.8
  0
ARC
  5
2CA
100
AcDbEntity
  8
02___PRT_ALL_AXES
100
AcDbCircle
 62
7
  6
CONTINUOUS
 10
15.4404195895
 20
5.3365708707
 40
0.0178571429
100
AcDbArc
 50
132.2398670304
 51
319.7601329696
  0
ARC
  5
2CB
100
AcDbEntity
  8
LAYER_CUT_FEAT
100
AcDbCircle
 62
7
  6
CONTINUOUS
 10
15.5452137927
 20
5.2888134008
 40
0.0178571429
100
AcDbArc
 50
150.642888934
 51
19.357111066
  0
ARC
  5
2CC
100
AcDbEntity
  8
0
100
AcDbCircle
 62
7
  6
CONTINUOUS
 10
15.5602481584
 20
5.4606569863
 40
1.24925
100
AcDbArc
 50
90.7453133283
 51
91.0546866717
  0
ARC
  5
2CD
100
AcDbEntity
  8
0
100
AcDbCircle
 62
7
  6
CONTINUOUS
 10
15.5602481584
 20
5.4606569863
 40
1.24925
100
AcDbArc
 50
92.5453133283
 51
92.8546866717
  0
ARC
  5
2CE
100
AcDbEntity
  8
0
100
AcDbCircle
 62
7
  6
CONTINUOUS
 10
15.5602481584
 20
5.4606569863
 40
1.24925
100
AcDbArc
 50
94.3453133283
 51
94.6546866717
  0
ARC
  5
2CF
100
AcDbEntity
  8
0
100
AcDbCircle
 62
7
  6
CONTINUOUS
 10
15.5602481584
 20
5.4606569863
 40
1.24925
100
AcDbArc
 50
96.1453133283
 51
89.2546866717
  0
CIRCLE
  5
2D0
100
AcDbEntity
  8
02___PRT_ALL_AXES
100
AcDbCircle
 62
7
  6
CONTINUOUS
 10
15.5602481584
 20
5.4606569863
 40
1.1248571429
  0
CIRCLE
  5
2D1
100
AcDbEntity
  8
02___PRT_ALL_AXES
100
AcDbCircle
 62
7
  6
CONTINUOUS
 10
15.5602481584
 20
5.4606569863
 40
1.1235714286
  0
ARC
  5
2D2
100
AcDbEntity
  8
LAYER_CUT_FEAT
100
AcDbCircle
 62
7
  6
CONTINUOUS
 10
15.5602481584
 20
5.4606569863
 40
1.11
100
AcDbArc
 50
225.3000606267
 51
280.6999393733
  0
ARC
  5
2D3
100
AcDbEntity
  8
LAYER_CUT_FEAT
100
AcDbCircle
 62
7
  6
CONTINUOUS
 10
15.5602481584
 20
5.4606569863
 40
1.11
100
AcDbArc
 50
153.3000606267
 51
208.6999393733
  0
ARC
  5
2D4
100
AcDbEntity
  8
LAYER_CUT_FEAT
100
AcDbCircle
 62
7
  6
CONTINUOUS
 10
15.5602481584
 20
5.4606569863
 40
1.11
100
AcDbArc
 50
81.3000606267
 51
136.6999393733
  0
ARC
  5
2D5
100
AcDbEntity
  8
LAYER_CUT_FEAT
100
AcDbCircle
 62
7
  6
CONTINUOUS
 10
15.5602481584
 20
5.4606569863
 40
1.11
100
AcDbArc
 50
9.3000606267
 51
64.6999393733
  0
ARC
  5
2D6
100
AcDbEntity
  8
LAYER_CUT_FEAT
100
AcDbCircle
 62
7
  6
CONTINUOUS
 10
15.5602481584
 20
5.4606569863
 40
1.11
100
AcDbArc
 50
297.3000606267
 51
352.6999393733
  0
ARC
  5
2D7
100
AcDbEntity
  8
LAYER_CUT_FEAT
100
AcDbCircle
 62
7
  6
CONTINUOUS
 10
15.5602481584
 20
5.4606569863
 40
0.3214285714
100
AcDbArc
 50
245.6896632518
 51
260.3103367482
  0
ARC
  5
2D8
100
AcDbEntity
  8
LAYER_CUT_FEAT
100
AcDbCircle
 62
7
  6
CONTINUOUS
 10
15.5602481584
 20
5.4606569863
 40
0.3214285714
100
AcDbArc
 50
173.6896632518
 51
188.3103367482
  0
ARC
  5
2D9
100
AcDbEntity
  8
LAYER_CUT_FEAT
100
AcDbCircle
 62
7
  6
CONTINUOUS
 10
15.5602481584
 20
5.4606569863
 40
0.3214285714
100
AcDbArc
 50
101.6896632518
 51
116.3103367482
  0
ARC
  5
2DA
100
AcDbEntity
  8
LAYER_CUT_FEAT
100
AcDbCircle
 62
7
  6
CONTINUOUS
 10
15.5602481584
 20
5.4606569863
 40
0.3214285714
100
AcDbArc
 50
29.6896632518
 51
44.3103367482
  0
ARC
  5
2DB
100
AcDbEntity
  8
LAYER_CUT_FEAT
100
AcDbCircle
 62
7
  6
CONTINUOUS
 10
15.5602481584
 20
5.4606569863
 40
0.3214285714
100
AcDbArc
 50
317.6896632518
 51
332.3103367482
  0
CIRCLE
  5
2DC
100
AcDbEntity
  8
02___PRT_ALL_AXES
100
AcDbCircle
 62
7
  6
CONTINUOUS
 10
15.5602481584
 20
5.4606569863
 40
0.3125
  0
CIRCLE
  5
2DD
100
AcDbEntity
  8
02___PRT_ALL_AXES
100
AcDbCircle
 62
7
  6
CONTINUOUS
 10
15.5602481584
 20
5.4606569863
 40
0.308
  0
ARC
  5
2DE
100
AcDbEntity
  8
02___PRT_ALL_AXES
100
AcDbCircle
 62
7
  6
CONTINUOUS
 10
15.5602481584
 20
5.4606569863
 40
0.1785714286
100
AcDbArc
 50
61.4843384185
 51
139.5156615815
  0
ARC
  5
2DF
100
AcDbEntity
  8
02___PRT_ALL_AXES
100
AcDbCircle
 62
7
  6
CONTINUOUS
 10
15.5602481584
 20
5.4606569863
 40
0.1785714286
100
AcDbArc
 50
22.4843384185
 51
50.5156615815
  0
ARC
  5
2E0
100
AcDbEntity
  8
02___PRT_ALL_AXES
100
AcDbCircle
 62
7
  6
CONTINUOUS
 10
15.5602481584
 20
5.4606569863
 40
0.1785714286
100
AcDbArc
 50
231.4843384185
 51
259.5156615815
  0
ARC
  5
2E1
100
AcDbEntity
  8
02___PRT_ALL_AXES
100
AcDbCircle
 62
7
  6
CONTINUOUS
 10
15.5602481584
 20
5.4606569863
 40
0.1785714286
100
AcDbArc
 50
150.4843384185
 51
220.5156615815
  0
ARC
  5
2E2
100
AcDbEntity
  8
02___PRT_ALL_AXES
100
AcDbCircle
 62
7
  6
CONTINUOUS
 10
15.5602481584
 20
5.4606569863
 40
0.1785714286
100
AcDbArc
 50
270.4843384185
 51
11.5156615815
  0
ARC
  5
2E3
100
AcDbEntity
  8
02___PRT_ALL_AXES
100
AcDbCircle
 62
7
  6
CONTINUOUS
 10
15.5602481584
 20
5.4606569863
 40
0.1722530416
100
AcDbArc
 50
50.0624207273
 51
61.9375792727
  0
ARC
  5
2E4
100
AcDbEntity
  8
02___PRT_ALL_AXES
100
AcDbCircle
 62
7
  6
CONTINUOUS
 10
15.5602481584
 20
5.4606569863
 40
0.1722530416
100
AcDbArc
 50
220.0624207273
 51
231.9375792727
  0
ARC
  5
2E5
100
AcDbEntity
  8
02___PRT_ALL_AXES
100
AcDbCircle
 62
7
  6
CONTINUOUS
 10
15.5602481584
 20
5.4606569863
 40
0.1659346547
100
AcDbArc
 50
22.6261398793
 51
139.3738601207
  0
ARC
  5
2E6
100
AcDbEntity
  8
LAYER_CUT_FEAT
100
AcDbCircle
 62
7
  6
CONTINUOUS
 10
15.5602481584
 20
5.4606569863
 40
0.1659346547
100
AcDbArc
 50
150.6261398793
 51
259.3738601207
  0
ARC
  5
2E7
100
AcDbEntity
  8
02___PRT_ALL_AXES
100
AcDbCircle
 62
7
  6
CONTINUOUS
 10
15.5602481584
 20
5.4606569863
 40
0.1659346547
100
AcDbArc
 50
270.6261398793
 51
11.3738601207
  0
ARC
  5
2E8
100
AcDbEntity
  8
02___PRT_ALL_AXES
100
AcDbCircle
 62
7
  6
CONTINUOUS
 10
15.4189444307
 20
5.5595989215
 40
0.0178571429
100
AcDbArc
 50
30.642888934
 51
259.357111066
  0
ARC
  5
2E9
100
AcDbEntity
  8
LAYER_CUT_FEAT
100
AcDbCircle
 62
7
  6
CONTINUOUS
 10
14.7004310662
 20
6.0627073957
 40
0.0603571429
100
AcDbArc
 50
55.0
 51
235.0
  0
ARC
  5
2EA
100
AcDbEntity
  8
LAYER_CUT_FEAT
100
AcDbCircle
 62
7
  6
CONTINUOUS
 10
15.24750761
 20
5.6796402757
 40
0.0603571429
100
AcDbArc
 50
235.0
 51
55.0
  0
ARC
  5
2EB
100
AcDbEntity
  8
LAYER_CUT_FEAT
100
AcDbCircle
 62
7
  6
CONTINUOUS
 10
14.6164645966
 20
5.9353294154
 40
0.0535714286
100
AcDbArc
 50
52.8
 51
153.3000606267
  0
ARC
  5
2EC
100
AcDbEntity
  8
LAYER_CUT_FEAT
100
AcDbCircle
 62
7
  6
CONTINUOUS
 10
14.7914089903
 20
6.1851759026
 40
0.0535714286
100
AcDbArc
 50
136.6999393733
 51
237.2
  0
ARC
  5
2ED
100
AcDbEntity
  8
LAYER_CUT_FEAT
100
AcDbCircle
 62
7
  6
CONTINUOUS
 10
15.3940358137
 20
5.7968094167
 40
0.0535714286
100
AcDbArc
 50
237.2
 51
296.3103367482
  0
ARC
  5
2EE
100
AcDbEntity
  8
LAYER_CUT_FEAT
100
AcDbCircle
 62
7
  6
CONTINUOUS
 10
15.484269172
 20
5.8278792536
 40
0.0535714286
100
AcDbArc
 50
281.6896632518
 51
340.8
  0
ARC
  5
2EF
100
AcDbEntity
  8
0
100
AcDbCircle
 62
7
  6
CONTINUOUS
 10
15.4446737342
 20
6.6997372725
 40
0.0132142857
100
AcDbArc
 50
207.3017741555
 51
249.210704114
  0
ARC
  5
2F0
100
AcDbEntity
  8
0
100
AcDbCircle
 62
7
  6
CONTINUOUS
 10
15.4415949488
 20
6.6994462416
 40
0.0132142857
100
AcDbArc
 50
301.589295886
 51
343.4982258445
  0
ARC
  5
2F1
100
AcDbEntity
  8
0
100
AcDbCircle
 62
7
  6
CONTINUOUS
 10
15.4836512155
 20
6.7027561416
 40
0.0132142857
100
AcDbArc
 50
205.5017741555
 51
247.410704114
  0
ARC
  5
2F2
100
AcDbEntity
  8
0
100
AcDbCircle
 62
7
  6
CONTINUOUS
 10
15.4805648079
 20
6.7025619613
 40
0.0132142857
100
AcDbArc
 50
299.789295886
 51
341.6982258445
  0
ARC
  5
2F3
100
AcDbEntity
  8
0
100
AcDbCircle
 62
7
  6
CONTINUOUS
 10
15.5227042888
 20
6.7045492087
 40
0.0132142857
100
AcDbArc
 50
203.7017741555
 51
245.610704114
  0
ARC
  5
2F4
100
AcDbEntity
  8
0
100
AcDbCircle
 62
7
  6
CONTINUOUS
 10
15.5196133048
 20
6.7044520707
 40
0.0132142857
100
AcDbArc
 50
297.989295886
 51
339.8982258445
  0
ARC
  5
2F5
100
AcDbEntity
  8
0
100
AcDbCircle
 62
7
  6
CONTINUOUS
 10
15.5617944134
 20
6.7051147045
 40
0.0132142857
100
AcDbArc
 50
201.9017741555
 51
243.810704114
  0
ARC
  5
2F6
100
AcDbEntity
  8
0
100
AcDbCircle
 62
7
  6
CONTINUOUS
 10
15.5587019033
 20
6.7051147045
 40
0.0132142857
100
AcDbArc
 50
296.189295886
 51
338.0982258445
  0
ARC
  5
2F7
100
AcDbEntity
  8
0
100
AcDbCircle
 62
7
  6
CONTINUOUS
 10
15.4267479645
 20
6.7002681449
 40
0.0024711086
100
AcDbArc
 50
27.3017741555
 51
95.4000000001
  0
ARC
  5
2F8
100
AcDbEntity
  8
0
100
AcDbCircle
 62
7
  6
CONTINUOUS
 10
15.4591037283
 20
6.7033266651
 40
0.0024711086
100
AcDbArc
 50
95.4
 51
163.4982258445
  0
ARC
  5
2F9
100
AcDbEntity
  8
0
100
AcDbCircle
 62
7
  6
CONTINUOUS
 10
15.4657509662
 20
6.7038498141
 40
0.0024711086
100
AcDbArc
 50
25.5017741555
 51
93.5999999994
  0
ARC
  5
2FA
100
AcDbEntity
  8
0
100
AcDbCircle
 62
7
  6
CONTINUOUS
 10
15.4981868349
 20
6.705890506
 40
0.0024711086
100
AcDbArc
 50
93.6000000005
 51
161.6982258445
  0
ARC
  5
2FB
100
AcDbEntity
  8
0
100
AcDbCircle
 62
7
  6
CONTINUOUS
 10
15.5048472253
 20
6.706204602
 40
0.0024711086
100
AcDbArc
 50
23.7017741555
 51
91.8000000005
  0
ARC
  5
2FC
100
AcDbEntity
  8
0
100
AcDbCircle
 62
7
  6
CONTINUOUS
 10
15.5373311885
 20
6.7072254517
 40
0.0024711086
100
AcDbArc
 50
91.8000000003
 51
159.8982258444
  0
ARC
  5
2FD
100
AcDbEntity
  8
0
100
AcDbCircle
 62
7
  6
CONTINUOUS
 10
15.5439981584
 20
6.7073301848
 40
0.0024711086
100
AcDbArc
 50
21.9017741555
 51
89.9999999999
  0
ARC
  5
2FE
100
AcDbEntity
  8
0
100
AcDbCircle
 62
7
  6
CONTINUOUS
 10
15.5764981584
 20
6.7073301848
 40
0.0024711086
100
AcDbArc
 50
90.0000000001
 51
158.0982258444
  0
ARC
  5
2FF
100
AcDbEntity
  8
LAYER_CUT_FEAT
100
AcDbCircle
 62
7
  6
CONTINUOUS
 10
15.9019784462
 20
4.4682001671
 40
0.0603571429
100
AcDbArc
 50
199.0
 51
19.0
  0
ARC
  5
300
100
AcDbEntity
  8
LAYER_CUT_FEAT
100
AcDbCircle
 62
7
  6
CONTINUOUS
 10
15.6845454288
 20
5.0996715015
 40
0.0603571429
100
AcDbArc
 50
19.0
 51
199.0
  0
ARC
  5
301
100
AcDbEntity
  8
LAYER_CUT_FEAT
100
AcDbCircle
 62
7
  6
CONTINUOUS
 10
16.6097311498
 20
5.47897578
 40
0.0603571429
100
AcDbArc
 50
271.0
 51
91.0
  0
ARC
  5
302
100
AcDbEntity
  8
LAYER_CUT_FEAT
100
AcDbCircle
 62
7
  6
CONTINUOUS
 10
15.9419757248
 20
5.4673200657
 40
0.0603571429
100
AcDbArc
 50
91.0
 51
271.0
  0
ARC
  5
303
100
AcDbEntity
  8
LAYER_CUT_FEAT
100
AcDbCircle
 62
7
  6
CONTINUOUS
 10
15.7563905772
 20
4.4225965458
 40
0.0535714286
100
AcDbArc
 50
280.6999393733
 51
21.2
  0
ARC
  5
304
100
AcDbEntity
  8
LAYER_CUT_FEAT
100
AcDbCircle
 62
7
  6
CONTINUOUS
 10
16.0447796453
 20
4.5218968653
 40
0.0535714286
100
AcDbArc
 50
196.8
 51
297.3000606267
  0
ARC
  5
305
100
AcDbEntity
  8
LAYER_CUT_FEAT
100
AcDbCircle
 62
7
  6
CONTINUOUS
 10
16.6081136453
 20
5.3264211945
 40
0.0535714286
100
AcDbArc
 50
352.6999393733
 51
93.2
  0
ARC
  5
306
100
AcDbEntity
  8
LAYER_CUT_FEAT
100
AcDbCircle
 62
7
  6
CONTINUOUS
 10
15.892302211
 20
5.2864011222
 40
0.0535714286
100
AcDbArc
 50
93.2
 51
152.3103367482
  0
ARC
  5
307
100
AcDbEntity
  8
LAYER_CUT_FEAT
100
AcDbCircle
 62
7
  6
CONTINUOUS
 10
15.8375642826
 20
5.2082272589
 40
0.0535714286
100
AcDbArc
 50
137.6896632518
 51
196.8
  0
ARC
  5
308
100
AcDbEntity
  8
02___PRT_ALL_AXES
100
AcDbCircle
 62
7
  6
CONTINUOUS
 10
15.7252107288
 20
5.5110911053
 40
0.0178571429
100
AcDbArc
 50
262.642888934
 51
131.357111066
  0
ARC
  5
309
100
AcDbEntity
  8
LAYER_CUT_FEAT
100
AcDbCircle
 62
7
  6
CONTINUOUS
 10
15.8671340299
 20
6.4644354426
 40
0.0603571429
100
AcDbArc
 50
343.0
 51
163.0
  0
ARC
  5
30A
100
AcDbEntity
  8
LAYER_CUT_FEAT
100
AcDbCircle
 62
7
  6
CONTINUOUS
 10
15.6718714985
 20
5.8257604806
 40
0.0603571429
100
AcDbArc
 50
163.0
 51
343.0
  0
ARC
  5
30B
100
AcDbEntity
  8
LAYER_CUT_FEAT
100
AcDbCircle
 62
7
  6
CONTINUOUS
 10
15.7200433056
 20
6.5049303401
 40
0.0535714286
100
AcDbArc
 50
340.8
 51
81.3000606267
  0
ARC
  5
30C
100
AcDbEntity
  8
LAYER_CUT_FEAT
100
AcDbCircle
 62
7
  6
CONTINUOUS
 10
16.6027905524
 20
5.6313809833
 40
0.0535714286
100
AcDbArc
 50
268.8
 51
9.3000606267
  0
ARC
  5
30D
100
AcDbEntity
  8
LAYER_CUT_FEAT
100
AcDbCircle
 62
7
  6
CONTINUOUS
 10
16.0117222261
 20
6.4157551449
 40
0.0535714286
100
AcDbArc
 50
64.6999393733
 51
165.2
  0
ARC
  5
30E
100
AcDbEntity
  8
LAYER_CUT_FEAT
100
AcDbCircle
 62
7
  6
CONTINUOUS
 10
15.8285856786
 20
5.7226111334
 40
0.0535714286
100
AcDbArc
 50
165.2
 51
224.3103367482
  0
ARC
  5
30F
100
AcDbEntity
  8
LAYER_CUT_FEAT
100
AcDbCircle
 62
7
  6
CONTINUOUS
 10
15.8860184907
 20
5.6463952176
 40
0.0535714286
100
AcDbArc
 50
209.6896632518
 51
268.8
  0
ARC
  5
310
100
AcDbEntity
  8
02___PRT_ALL_AXES
100
AcDbCircle
 62
7
  6
CONTINUOUS
 10
15.6567089342
 20
5.6036659675
 40
0.0178571429
100
AcDbArc
 50
322.2398670305
 51
149.7601329695
  0
ARC
  5
311
100
AcDbEntity
  8
02___PRT_ALL_AXES
100
AcDbCircle
 62
7
  6
CONTINUOUS
 10
14.7301668352
 20
1.5690216368
 40
10.8035011764
100
AcDbArc
 50
85.3419669863
 51
85.5305748597
  0
ARC
  5
312
100
AcDbEntity
  8
02___PRT_ALL_AXES
100
AcDbCircle
 62
7
  6
CONTINUOUS
 10
16.2005163747
 20
3.3493048272
 40
9.3517970282
100
AcDbArc
 50
93.6147542507
 51
93.8981877153
  0
ARC
  5
313
100
AcDbEntity
  8
02___PRT_ALL_AXES
100
AcDbCircle
 62
7
  6
CONTINUOUS
 10
15.1445057758
 20
18.530374199
 40
5.8798756152
100
AcDbArc
 50
274.0208051239
 51
274.6705482107
  0
ARC
  5
314
100
AcDbEntity
  8
LAYER_CUT_FEAT
100
AcDbCircle
 62
7
  6
CONTINUOUS
 10
15.8006366642
 20
16.911299924
 40
4.5380358341
100
AcDbArc
 50
266.7603955239
 51
267.9398048887
  0
ARC
  5
315
100
AcDbEntity
  8
LAYER_CUT_FEAT
100
AcDbCircle
 62
7
  6
CONTINUOUS
 10
15.3804500606
 20
8.5823282364
 40
3.8279220459
100
AcDbArc
 50
86.0125584895
 51
87.6828382989
  0
ARC
  5
316
100
AcDbEntity
  8
0
100
AcDbCircle
 62
7
  6
CONTINUOUS
 10
16.9811004513
 20
12.6947927157
 40
2.0255140815
100
AcDbArc
 50
165.2360386315
 51
165.3996926405
  0
ARC
  5
317
100
AcDbEntity
  8
0
100
AcDbCircle
 62
7
  6
CONTINUOUS
 10
17.0697251948
 20
12.6955324944
 40
2.0225953225
100
AcDbArc
 50
165.2359205488
 51
165.3998107232
  0
ARC
  5
318
100
AcDbEntity
  8
0
100
AcDbCircle
 62
7
  6
CONTINUOUS
 10
16.8824184348
 20
12.7215127093
 40
1.9232773978
100
AcDbArc
 50
164.2638118485
 51
164.4332128632
  0
ARC
  5
319
100
AcDbEntity
  8
0
100
AcDbCircle
 62
7
  6
CONTINUOUS
 10
16.9710391453
 20
12.7223048978
 40
1.9203410339
100
AcDbArc
 50
164.2636823342
 51
164.4333423775
  0
ARC
  5
31A
100
AcDbEntity
  8
0
100
AcDbCircle
 62
7
  6
CONTINUOUS
 10
16.7838789246
 20
12.7500223435
 40
1.8206952606
100
AcDbArc
 50
163.256209702
 51
163.4319128302
  0
ARC
  5
31B
100
AcDbEntity
  8
0
100
AcDbCircle
 62
7
  6
CONTINUOUS
 10
16.8725122374
 20
12.7508644907
 40
1.8177571023
100
AcDbArc
 50
163.2560677017
 51
163.4320548305
  0
ARC
  5
31C
100
AcDbEntity
  8
LAYER_CUT_FEAT
100
AcDbCircle
 62
7
  6
CONTINUOUS
 10
15.2449512829
 20
11.4694833565
 40
0.1336811167
100
AcDbArc
 50
354.3917831898
 51
0.3482638081
  0
ARC
  5
31D
100
AcDbEntity
  8
02___PRT_ALL_AXES
100
AcDbCircle
 62
7
  6
CONTINUOUS
 10
15.5466580449
 20
12.3116095643
 40
0.1248043043
100
AcDbArc
 50
317.8622952028
 51
320.176509032
  0
ARC
  5
31E
100
AcDbEntity
  8
02___PRT_ALL_AXES
100
AcDbCircle
 62
7
  6
CONTINUOUS
 10
15.5469587001
 20
12.7102492668
 40
0.1244069613
100
AcDbArc
 50
39.8202456283
 51
42.2703647216
  0
ARC
  5
31F
100
AcDbEntity
  8
02___PRT_ALL_AXES
100
AcDbCircle
 62
7
  6
CONTINUOUS
 10
15.5513194685
 20
12.7141839724
 40
0.1185334852
100
AcDbArc
 50
42.2807974049
 51
42.5262009502
  0
SPLINE
  5
320
100
AcDbEntity
  8
0
100
AcDbSpline
 62
7
  6
CONTINUOUS
 70
0
 71
3
 72
10
 73
6
 74
0
 42
0.0000001
 43
0.0000001
 44
0.0000000001
 40
0.0
 40
0.0
 40
0.0
 40
0.0
 40
0.5192001361
 40
0.7678740292
 40
1.0
 40
1.0
 40
1.0
 40
1.0
 10
15.0238559954
 20
13.1863241577
 30
0.0
 10
15.0239306655
 20
13.1879216493
 30
0.0
 10
15.0238758891
 20
13.1902971946
 30
0.0
 10
15.0234650795
 20
13.1933517986
 30
0.0
 10
15.0231472362
 20
13.1948008489
 30
0.0
 10
15.0229587244
 20
13.1954905426
 30
0.0
  0
SPLINE
  5
321
100
AcDbEntity
  8
0
100
AcDbSpline
 62
7
  6
CONTINUOUS
 70
0
 71
3
 72
11
 73
7
 74
0
 42
0.0000001
 43
0.0000001
 44
0.0000000001
 40
0.0
 40
0.0
 40
0.0
 40
0.0
 40
0.2332642467
 40
0.4902698403
 40
0.7523067551
 40
1.0
 40
1.0
 40
1.0
 40
1.0
 10
15.0482435832
 20
13.3000090903
 30
0.0
 10
15.0481796343
 20
13.2998021513
 30
0.0
 10
15.0480840474
 20
13.2993550561
 30
0.0
 10
15.0480241582
 20
13.2986576723
 30
0.0
 10
15.0480434886
 20
13.2979445659
 30
0.0
 10
15.0481113972
 20
13.297474561
 30
0.0
 10
15.0481611992
 20
13.2972500253
 30
0.0
  0
SPLINE
  5
322
100
AcDbEntity
  8
0
100
AcDbSpline
 62
7
  6
CONTINUOUS
 70
0
 71
3
 72
9
 73
5
 74
0
 42
0.0000001
 43
0.0000001
 44
0.0000000001
 40
0.0
 40
0.0
 40
0.0
 40
0.0
 40
0.5119103977
 40
1.0
 40
1.0
 40
1.0
 40
1.0
 10
15.0503941389
 20
13.2803530371
 30
0.0
 10
15.0505289887
 20
13.2819486687
 30
0.0
 10
15.0505642604
 20
13.2850874404
 30
0.0
 10
15.0501673859
 20
13.2882049985
 30
0.0
 10
15.0498367752
 20
13.2896955792
 30
0.0
  0
SPLINE
  5
323
100
AcDbEntity
  8
LAYER_CUT_FEAT
100
AcDbSpline
 62
7
  6
CONTINUOUS
 70
0
 71
3
 72
20
 73
16
 74
0
 42
0.0000001
 43
0.0000001
 44
0.0000000001
 40
0.0
 40
0.0
 40
0.0
 40
0.0
 40
0.033826087
 40
0.0693400324
 40
0.1079529509
 40
0.150670675
 40
0.1981085694
 40
0.2505658778
 40
0.30810186
 40
0.370595255
 40
0.4377869932
 40
0.5093105966
 40
0.6634363412
 40
0.828677428
 40
1.0
 40
1.0
 40
1.0
 40
1.0
 10
15.5091319973
 20
12.1894904358
 30
0.0
 10
15.5083704545
 20
12.1894904454
 30
0.0
 10
15.5068032129
 20
12.1892909075
 30
0.0
 10
15.5045163799
 20
12.1884125166
 30
0.0
 10
15.5022929763
 20
12.1869776618
 30
0.0
 10
15.5001490664
 20
12.185009919
 30
0.0
 10
15.4980967361
 20
12.1825303212
 30
0.0
 10
15.4961503619
 20
12.1795611603
 30
0.0
 10
15.4943253045
 20
12.176128367
 30
0.0
 10
15.4926372931
 20
12.1722622991
 30
0.0
 10
15.4911013032
 20
12.1679976606
 30
0.0
 10
15.4892287061
 20
12.1616732271
 30
0.0
 10
15.4873962585
 20
12.1530508024
 30
0.0
 10
15.4860276885
 20
12.142078063
 30
0.0
 10
15.485672771
 20
12.1345004296
 30
0.0
 10
15.4856351778
 20
12.1306435463
 30
0.0
  0
SPLINE
  5
324
100
AcDbEntity
  8
0
100
AcDbSpline
 62
7
  6
CONTINUOUS
 70
0
 71
3
 72
11
 73
7
 74
0
 42
0.0000001
 43
0.0000001
 44
0.0000000001
 40
0.0
 40
0.0
 40
0.0
 40
0.0
 40
0.2362145834
 40
0.4942673543
 40
0.755284153
 40
1.0
 40
1.0
 40
1.0
 40
1.0
 10
15.0387761097
 20
13.2692018863
 30
0.0
 10
15.0387150094
 20
13.2689908783
 30
0.0
 10
15.0386250241
 20
13.2685382042
 30
0.0
 10
15.0385733697
 20
13.2678362931
 30
0.0
 10
15.0386010991
 20
13.267125107
 30
0.0
 10
15.0386747587
 20
13.2666589207
 30
0.0
 10
15.038727515
 20
13.2664375376
 30
0.0
  0
SPLINE
  5
325
100
AcDbEntity
  8
0
100
AcDbSpline
 62
7
  6
CONTINUOUS
 70
0
 71
3
 72
10
 73
6
 74
0
 42
0.0000001
 43
0.0000001
 44
0.0000000001
 40
0.0
 40
0.0
 40
0.0
 40
0.0
 40
0.5141973208
 40
0.7641725118
 40
1.0
 40
1.0
 40
1.0
 40
1.0
 10
15.0411660356
 20
13.2497289976
 30
0.0
 10
15.0412807365
 20
13.2513268519
 30
0.0
 10
15.0412808184
 20
13.253718528
 30
0.0
 10
15.0409460057
 20
13.2568176953
 30
0.0
 10
15.0406649851
 20
13.2583072722
 30
0.0
 10
15.0404946696
 20
13.2590219723
 30
0.0
  0
SPLINE
  5
326
100
AcDbEntity
  8
0
100
AcDbSpline
 62
7
  6
CONTINUOUS
 70
0
 71
3
 72
11
 73
7
 74
0
 42
0.0000001
 43
0.0000001
 44
0.0000000001
 40
0.0
 40
0.0
 40
0.0
 40
0.0
 40
0.2391685804
 40
0.4982600787
 40
0.7582511574
 40
1.0
 40
1.0
 40
1.0
 40
1.0
 10
15.0296901393
 20
13.2376462308
 30
0.0
 10
15.0296319185
 20
13.2374313887
 30
0.0
 10
15.029547581
 20
13.2369735844
 30
0.0
 10
15.0295042164
 20
13.2362678137
 30
0.0
 10
15.0295403152
 20
13.2355592261
 30
0.0
 10
15.0296196949
 20
13.2350973185
 30
0.0
 10
15.0296753819
 20
13.2348793264
 30
0.0
  0
SPLINE
  5
327
100
AcDbEntity
  8
0
100
AcDbSpline
 62
7
  6
CONTINUOUS
 70
0
 71
3
 72
10
 73
6
 74
0
 42
0.0000001
 43
0.0000001
 44
0.0000000001
 40
0.0
 40
0.0
 40
0.0
 40
0.0
 40
0.5166907886
 40
0.7660188575
 40
1.0
 40
1.0
 40
1.0
 40
1.0
 10
15.0323170768
 20
13.2183757238
 30
0.0
 10
15.0324117118
 20
13.2199741958
 30
0.0
 10
15.0323842791
 20
13.2223589328
 30
0.0
 10
15.0320113761
 20
13.2254373386
 30
0.0
 10
15.0317118448
 20
13.2269073931
 30
0.0
 10
15.0315323711
 20
13.2276099602
 30
0.0
  0
SPLINE
  5
328
100
AcDbEntity
  8
LAYER_CUT_FEAT
100
AcDbSpline
 62
7
  6
CONTINUOUS
 70
0
 71
3
 72
10
 73
6
 74
0
 42
0.0000001
 43
0.0000001
 44
0.0000000001
 40
0.0
 40
0.0
 40
0.0
 40
0.0
 40
0.2345804343
 40
0.4758383569
 40
1.0
 40
1.0
 40
1.0
 40
1.0
 10
15.3703490849
 20
12.4623007199
 30
0.0
 10
15.3697808187
 20
12.4623007233
 30
0.0
 10
15.3686251994
 20
12.4621917652
 30
0.0
 10
15.3662845607
 20
12.4615287519
 30
0.0
 10
15.3646565549
 20
12.460566157
 30
0.0
 10
15.3636475028
 20
12.4597953575
 30
0.0
  0
SPLINE
  5
329
100
AcDbEntity
  8
0
100
AcDbSpline
 62
7
  6
CONTINUOUS
 70
0
 71
3
 72
11
 73
7
 74
0
 42
0.0000001
 43
0.0000001
 44
0.0000000001
 40
0.0
 40
0.0
 40
0.0
 40
0.0
 40
0.2421285011
 40
0.5022513464
 40
0.7612101893
 40
1.0
 40
1.0
 40
1.0
 40
1.0
 10
15.0209946387
 20
13.2053732652
 30
0.0
 10
15.0209393258
 20
13.2051548253
 30
0.0
 10
15.0208606771
 20
13.204692344
 30
0.0
 10
15.0208256487
 20
13.2039833857
 30
0.0
 10
15.0208700782
 20
13.203278072
 30
0.0
 10
15.0209551417
 20
13.2028208998
 30
0.0
 10
15.0210137331
 20
13.2026065358
 30
0.0
  0
SPLINE
  5
32A
100
AcDbEntity
  8
LAYER_CUT_FEAT
100
AcDbSpline
 62
7
  6
CONTINUOUS
 70
0
 71
3
 72
19
 73
15
 74
0
 42
0.0000001
 43
0.0000001
 44
0.0000000001
 40
0.0
 40
0.0
 40
0.0
 40
0.0
 40
0.1386323137
 40
0.2843710551
 40
0.4313524344
 40
0.5736248646
 40
0.6412377516
 40
0.7056233788
 40
0.7662113229
 40
0.8225177213
 40
0.8741703276
 40
0.9209432295
 40
0.9628062208
 40
1.0
 40
1.0
 40
1.0
 40
1.0
 10
15.8099214669
 20
11.9942441142
 30
0.0
 10
15.8106594257
 20
11.9978484342
 30
0.0
 10
15.8117777489
 20
12.0053259303
 30
0.0
 10
15.8124605258
 20
12.0167660456
 30
0.0
 10
15.8121772977
 20
12.0283199851
 30
0.0
 10
15.8111318822
 20
12.037747408
 30
0.0
 10
15.8098013103
 20
12.0449062869
 30
0.0
 10
15.8086024807
 20
12.0498774201
 30
0.0
 10
15.8072007858
 20
12.0544828415
 30
0.0
 10
15.8056127608
 20
12.0586686277
 30
0.0
 10
15.8038571374
 20
12.0623861922
 30
0.0
 10
15.801953053
 20
12.0655936737
 30
0.0
 10
15.7999216001
 20
12.068254473
 30
0.0
 10
15.7984091739
 20
12.0697256667
 30
0.0
 10
15.7976371138
 20
12.0703406651
 30
0.0
  0
SPLINE
  5
32B
100
AcDbEntity
  8
LAYER_CUT_FEAT
100
AcDbSpline
 62
7
  6
CONTINUOUS
 70
0
 71
3
 72
22
 73
18
 74
0
 42
0.0000001
 43
0.0000001
 44
0.0000000001
 40
0.0
 40
0.0
 40
0.0
 40
0.0
 40
0.0427732505
 40
0.0879571141
 40
0.1357204349
 40
0.1861814832
 40
0.2394146905
 40
0.2954567769
 40
0.3543120725
 40
0.4159570591
 40
0.480344139
 40
0.5474047431
 40
0.6170519485
 40
0.689182698
 40
0.7636796664
 40
0.8404129184
 40
1.0
 40
1.0
 40
1.0
 40
1.0
 10
15.5428192662
 20
11.4411549315
 30
0.0
 10
15.5500932351
 20
11.4463340849
 30
0.0
 10
15.5645458674
 20
11.4577072191
 30
0.0
 10
15.5852847431
 20
11.4770523121
 30
0.0
 10
15.6056019848
 20
11.4990758673
 30
0.0
 10
15.6254463851
 20
11.5237185578
 30
0.0
 10
15.6447706164
 20
11.5509176772
 30
0.0
 10
15.6635266908
 20
11.5806035284
 30
0.0
 10
15.6816676821
 20
11.61270026
 30
0.0
 10
15.6991476003
 20
11.6471256523
 30
0.0
 10
15.7159217865
 20
11.6837913366
 30
0.0
 10
15.7319471229
 20
11.7226029491
 30
0.0
 10
15.747182276
 20
11.7634604387
 30
0.0
 10
15.7615877077
 20
11.8062581351
 30
0.0
 10
15.7751263838
 20
11.8508858786
 30
0.0
 10
15.7921972143
 20
11.9134931265
 30
0.0
 10
15.8032389575
 20
11.9616055662
 30
0.0
 10
15.8099214669
 20
11.9942441142
 30
0.0
  0
SPLINE
  5
32C
100
AcDbEntity
  8
LAYER_CUT_FEAT
100
AcDbSpline
 62
7
  6
CONTINUOUS
 70
0
 71
3
 72
25
 73
21
 74
0
 42
0.0000001
 43
0.0000001
 44
0.0000000001
 40
0.0
 40
0.0
 40
0.0
 40
0.0
 40
0.0154555308
 40
0.0313011563
 40
0.06544235
 40
0.0843534724
 40
0.1047070106
 40
0.1500981028
 40
0.2020260666
 40
0.2603273263
 40
0.32448635
 40
0.3937384746
 40
0.4671388905
 40
0.5436125576
 40
0.6219952891
 40
0.7010700574
 40
0.779601057
 40
0.8563671693
 40
0.9301956313
 40
1.0
 40
1.0
 40
1.0
 40
1.0
 10
15.2809443916
 20
13.435507266
 30
0.0
 10
15.280410486
 20
13.4355072625
 30
0.0
 10
15.2793268563
 20
13.4354114505
 30
0.0
 10
15.2771331146
 20
13.4348284875
 30
0.0
 10
15.2750160275
 20
13.4336586969
 30
0.0
 10
15.2730516276
 20
13.4320516187
 30
0.0
 10
15.2709947089
 20
13.429965024
 30
0.0
 10
15.2685689429
 20
13.4266789779
 30
0.0
 10
15.2659887265
 20
13.4219496568
 30
0.0
 10
15.263679338
 20
13.416375453
 30
0.0
 10
15.2616814328
 20
13.4100542628
 30
0.0
 10
15.2600309726
 20
13.4030975767
 30
0.0
 10
15.2587586176
 20
13.3956309154
 30
0.0
 10
15.2578880989
 20
13.3877898939
 30
0.0
 10
15.2574357162
 20
13.3797176372
 30
0.0
 10
15.2574099808
 20
13.3715617719
 30
0.0
 10
15.2578113422
 20
13.3634716213
 30
0.0
 10
15.2586323148
 20
13.3555950302
 30
0.0
 10
15.2598574085
 20
13.3480763511
 30
0.0
 10
15.2609645017
 20
13.343235013
 30
0.0
 10
15.2615893777
 20
13.3409060178
 30
0.0
  0
SPLINE
  5
32D
100
AcDbEntity
  8
LAYER_CUT_FEAT
100
AcDbSpline
 62
7
  6
CONTINUOUS
 70
0
 71
3
 72
9
 73
5
 74
0
 42
0.0000001
 43
0.0000001
 44
0.0000000001
 40
0.0
 40
0.0
 40
0.0
 40
0.0
 40
0.5173654975
 40
1.0
 40
1.0
 40
1.0
 40
1.0
 10
15.3491848041
 20
12.2596971575
 30
0.0
 10
15.3515259788
 20
12.2548929324
 30
0.0
 10
15.3563203032
 20
12.245734671
 30
0.0
 10
15.3617281762
 20
12.2369207645
 30
0.0
 10
15.3645064906
 20
12.2327811218
 30
0.0
  0
SPLINE
  5
32E
100
AcDbEntity
  8
LAYER_CUT_FEAT
100
AcDbSpline
 62
7
  6
CONTINUOUS
 70
0
 71
3
 72
14
 73
10
 74
0
 42
0.0000001
 43
0.0000001
 44
0.0000000001
 40
0.0
 40
0.0
 40
0.0
 40
0.0
 40
0.2885625072
 40
0.4275161793
 40
0.5603429186
 40
0.6853255446
 40
0.8009767084
 40
0.9061185161
 40
1.0
 40
1.0
 40
1.0
 40
1.0
 10
15.3748965675
 20
12.187161105
 30
0.0
 10
15.3748728534
 20
12.1917145876
 30
0.0
 10
15.3745075823
 20
12.1984667346
 30
0.0
 10
15.373325936
 20
12.2072329472
 30
0.0
 10
15.3721351089
 20
12.2133836946
 30
0.0
 10
15.3706493464
 20
12.2190910572
 30
0.0
 10
15.3688929421
 20
12.2242632344
 30
0.0
 10
15.3668951929
 20
12.2288163378
 30
0.0
 10
15.3653320688
 20
12.2315510237
 30
0.0
 10
15.3645064906
 20
12.2327811218
 30
0.0
  0
SPLINE
  5
32F
100
AcDbEntity
  8
LAYER_CUT_FEAT
100
AcDbSpline
 62
7
  6
CONTINUOUS
 70
0
 71
3
 72
12
 73
8
 74
0
 42
0.0000001
 43
0.0000001
 44
0.0000000001
 40
0.0
 40
0.0
 40
0.0
 40
0.0
 40
0.2468394164
 40
0.5053502263
 40
0.7610912712
 40
0.8834929938
 40
1.0
 40
1.0
 40
1.0
 40
1.0
 10
15.3155449161
 20
12.6554445927
 30
0.0
 10
15.3163871153
 20
12.6597364249
 30
0.0
 10
15.3175672636
 20
12.6686347282
 30
0.0
 10
15.3179763466
 20
12.6821331482
 30
0.0
 10
15.3172096587
 20
12.6934103633
 30
0.0
 10
15.31590541
 20
12.7020810417
 30
0.0
 10
15.3150302645
 20
12.7062262154
 30
0.0
 10
15.3145356032
 20
12.7082304322
 30
0.0
  0
SPLINE
  5
330
100
AcDbEntity
  8
LAYER_CUT_FEAT
100
AcDbSpline
 62
7
  6
CONTINUOUS
 70
0
 71
3
 72
9
 73
5
 74
0
 42
0.0000001
 43
0.0000001
 44
0.0000000001
 40
0.0
 40
0.0
 40
0.0
 40
0.0
 40
0.4906239054
 40
1.0
 40
1.0
 40
1.0
 40
1.0
 10
15.3155449161
 20
12.6554445927
 30
0.0
 10
15.3130919389
 20
12.6429442642
 30
0.0
 10
15.3088696724
 20
12.6173091034
 30
0.0
 10
15.3060489519
 20
12.5914851497
 30
0.0
 10
15.3049464679
 20
12.5783055601
 30
0.0
  0
SPLINE
  5
331
100
AcDbEntity
  8
LAYER_CUT_FEAT
100
AcDbSpline
 62
7
  6
CONTINUOUS
 70
0
 71
3
 72
15
 73
11
 74
0
 42
0.0000001
 43
0.0000001
 44
0.0000000001
 40
0.0
 40
0.0
 40
0.0
 40
0.0
 40
0.0850889439
 40
0.1826023906
 40
0.2928302226
 40
0.4152583348
 40
0.5488128481
 40
0.6920121879
 40
0.8430737309
 40
1.0
 40
1.0
 40
1.0
 40
1.0
 10
15.2912614012
 20
12.5388330458
 30
0.0
 10
15.2921715088
 20
12.5396271197
 30
0.0
 10
15.2939367017
 20
12.5415488656
 30
0.0
 10
15.2962454712
 20
12.5450185271
 30
0.0
 10
15.2983613728
 20
12.5492108487
 30
0.0
 10
15.3002511908
 20
12.5540602584
 30
0.0
 10
15.3018856412
 20
12.5594910402
 30
0.0
 10
15.3032376408
 20
12.565415651
 30
0.0
 10
15.3042846498
 20
12.5717374593
 30
0.0
 10
15.3047607798
 20
12.5760857616
 30
0.0
 10
15.3049464679
 20
12.5783055601
 30
0.0
  0
SPLINE
  5
332
100
AcDbEntity
  8
LAYER_CUT_FEAT
100
AcDbSpline
 62
7
  6
CONTINUOUS
 70
0
 71
3
 72
18
 73
14
 74
0
 42
0.0000001
 43
0.0000001
 44
0.0000000001
 40
0.0
 40
0.0
 40
0.0
 40
0.0
 40
0.1214376149
 40
0.2545283417
 40
0.3941288145
 40
0.5346162596
 40
0.6703048859
 40
0.7346769923
 40
0.7959015048
 40
0.8534405778
 40
0.906841363
 40
0.9557603028
 40
1.0
 40
1.0
 40
1.0
 40
1.0
 10
15.643677823
 20
13.3994026678
 30
0.0
 10
15.644712134
 20
13.4026094163
 30
0.0
 10
15.6464257739
 20
13.4094798254
 30
0.0
 10
15.6479925409
 20
13.4203167208
 30
0.0
 10
15.648624897
 20
13.4317781042
 30
0.0
 10
15.6482906643
 20
13.4433223773
 30
0.0
 10
15.6472032722
 20
13.4527233697
 30
0.0
 10
15.6458399595
 20
13.4598465169
 30
0.0
 10
15.6446189874
 20
13.4647817901
 30
0.0
 10
15.6431968469
 20
13.4693453698
 30
0.0
 10
15.6415901576
 20
13.4734840656
 30
0.0
 10
15.63981819
 20
13.4771492715
 30
0.0
 10
15.6384709908
 20
13.4793623854
 30
0.0
 10
15.6377679694
 20
13.4803686017
 30
0.0
  0
SPLINE
  5
333
100
AcDbEntity
  8
LAYER_CUT_FEAT
100
AcDbSpline
 62
7
  6
CONTINUOUS
 70
0
 71
3
 72
15
 73
11
 74
0
 42
0.0000001
 43
0.0000001
 44
0.0000000001
 40
0.0
 40
0.0
 40
0.0
 40
0.0
 40
0.0851666611
 40
0.1762159931
 40
0.277749154
 40
0.3926602257
 40
0.5223714953
 40
0.6672195286
 40
0.8267614093
 40
1.0
 40
1.0
 40
1.0
 40
1.0
 10
15.7613086012
 20
13.4046320277
 30
0.0
 10
15.7604023817
 20
13.4046320164
 30
0.0
 10
15.7585176276
 20
13.404344052
 30
0.0
 10
15.7558064295
 20
13.4030931732
 30
0.0
 10
15.7532047895
 20
13.4010723608
 30
0.0
 10
15.7507318541
 20
13.3983228731
 30
0.0
 10
15.7484055251
 20
13.3948808192
 30
0.0
 10
15.7462495823
 20
13.3907873568
 30
0.0
 10
15.7442891333
 20
13.3860926235
 30
0.0
 10
15.7431715612
 20
13.3827291709
 30
0.0
 10
15.7426449627
 20
13.3809626366
 30
0.0
  0
SPLINE
  5
334
100
AcDbEntity
  8
LAYER_CUT_FEAT
100
AcDbSpline
 62
7
  6
CONTINUOUS
 70
0
 71
3
 72
15
 73
11
 74
0
 42
0.0000001
 43
0.0000001
 44
0.0000000001
 40
0.0
 40
0.0
 40
0.0
 40
0.0
 40
0.1495578971
 40
0.2912173755
 40
0.4252350607
 40
0.551998911
 40
0.6720507352
 40
0.786104126
 40
0.8950581834
 40
1.0
 40
1.0
 40
1.0
 40
1.0
 10
15.6377679694
 20
13.4803686017
 30
0.0
 10
15.6314926646
 20
13.4893502827
 30
0.0
 10
15.6187896756
 20
13.5065093797
 30
0.0
 10
15.5987067899
 20
13.5303538065
 30
0.0
 10
15.5781643213
 20
13.55154008
 30
0.0
 10
15.5572116473
 20
13.5700111393
 30
0.0
 10
15.535898088
 20
13.5857162539
 30
0.0
 10
15.5142721584
 20
13.5986092062
 30
0.0
 10
15.4923908846
 20
13.6086462417
 30
0.0
 10
15.4774375422
 20
13.6134824149
 30
0.0
 10
15.4699872596
 20
13.6153799246
 30
0.0
  0
SPLINE
  5
335
100
AcDbEntity
  8
LAYER_CUT_FEAT
100
AcDbSpline
 62
7
  6
CONTINUOUS
 70
0
 71
3
 72
17
 73
13
 74
0
 42
0.0000001
 43
0.0000001
 44
0.0000000001
 40
0.0
 40
0.0
 40
0.0
 40
0.0
 40
0.1304635884
 40
0.2617787444
 40
0.3927108196
 40
0.5220308124
 40
0.6485361146
 40
0.7710712894
 40
0.830511914
 40
0.8885596448
 40
0.9450934932
 40
1.0
 40
1.0
 40
1.0
 40
1.0
 10
15.8527422807
 20
12.3141558692
 30
0.0
 10
15.855449215
 20
12.3527731668
 30
0.0
 10
15.8592413764
 20
12.4303838619
 30
0.0
 10
15.8601463157
 20
12.546939014
 30
0.0
 10
15.8562946462
 20
12.6630968328
 30
0.0
 10
15.8477294442
 20
12.7775724135
 30
0.0
 10
15.834546571
 20
12.889100679
 30
0.0
 10
15.8196896245
 20
12.9794595496
 30
0.0
 10
15.8055404167
 20
13.0492678967
 30
0.0
 10
15.7939886407
 20
13.0996026318
 30
0.0
 10
15.7814227542
 20
13.1483053145
 30
0.0
 10
15.7722524214
 20
13.1800815627
 30
0.0
 10
15.7674950197
 20
13.1956637356
 30
0.0
  0
SPLINE
  5
336
100
AcDbEntity
  8
LAYER_CUT_FEAT
100
AcDbSpline
 62
7
  6
CONTINUOUS
 70
0
 71
3
 72
10
 73
6
 74
0
 42
0.0000001
 43
0.0000001
 44
0.0000000001
 40
0.0
 40
0.0
 40
0.0
 40
0.0
 40
0.2380226573
 40
0.4811699953
 40
1.0
 40
1.0
 40
1.0
 40
1.0
 10
15.4100541347
 20
12.298024364
 30
0.0
 10
15.4096171082
 20
12.2980243582
 30
0.0
 10
15.4087319076
 20
12.2979522378
 30
0.0
 10
15.4069427462
 20
12.2975147606
 30
0.0
 10
15.4056738522
 20
12.296872642
 30
0.0
 10
15.4048779621
 20
12.2963491703
 30
0.0
  0
SPLINE
  5
337
100
AcDbEntity
  8
LAYER_CUT_FEAT
100
AcDbSpline
 62
7
  6
CONTINUOUS
 70
0
 71
3
 72
15
 73
11
 74
0
 42
0.0000001
 43
0.0000001
 44
0.0000000001
 40
0.0
 40
0.0
 40
0.0
 40
0.0
 40
0.0924194851
 40
0.1891721593
 40
0.2939190634
 40
0.4093213466
 40
0.5370573906
 40
0.6779973868
 40
0.8323850038
 40
1.0
 40
1.0
 40
1.0
 40
1.0
 10
15.2329860417
 20
13.3386734685
 30
0.0
 10
15.2323319913
 20
13.3386734654
 30
0.0
 10
15.2309882305
 20
13.3385081435
 30
0.0
 10
15.2290234098
 20
13.3377789471
 30
0.0
 10
15.2271092136
 20
13.3365858268
 30
0.0
 10
15.225259238
 20
13.3349474176
 30
0.0
 10
15.223483513
 20
13.3328805575
 30
0.0
 10
15.2217936927
 20
13.3304028657
 30
0.0
 10
15.2202022228
 20
13.3275348827
 30
0.0
 10
15.2192529784
 20
13.3254607098
 30
0.0
 10
15.2187940504
 20
13.3243668761
 30
0.0
  0
SPLINE
  5
338
100
AcDbEntity
  8
02___PRT_ALL_AXES
100
AcDbSpline
 62
7
  6
CONTINUOUS
 70
0
 71
3
 72
22
 73
18
 74
0
 42
0.0000001
 43
0.0000001
 44
0.0000000001
 40
0.0
 40
0.0
 40
0.0
 40
0.0
 40
0.0548823956
 40
0.1169982965
 40
0.1854311732
 40
0.2589357438
 40
0.4150704509
 40
0.5724333257
 40
0.6474272705
 40
0.7178612122
 40
0.7824001538
 40
0.8399921461
 40
0.8899998019
 40
0.9324132606
 40
0.9682125297
 40
0.9844045772
 40
1.0
 40
1.0
 40
1.0
 40
1.0
 10
15.5235578613
 20
12.476476023
 30
0.0
 10
15.5232285073
 20
12.4759124582
 30
0.0
 10
15.5226208298
 20
12.4746553537
 30
0.0
 10
15.521886416
 20
12.4725725249
 30
0.0
 10
15.52128697
 20
12.4702177783
 30
0.0
 10
15.5206767853
 20
12.4667228037
 30
0.0
 10
15.520351512
 20
12.4621182919
 30
0.0
 10
15.5205763056
 20
12.4574906341
 30
0.0
 10
15.5211057337
 20
12.4539259061
 30
0.0
 10
15.5216519825
 20
12.4514865062
 30
0.0
 10
15.522339391
 20
12.4492984402
 30
0.0
 10
15.5231508584
 20
12.4474140045
 30
0.0
 10
15.5240690192
 20
12.445876047
 30
0.0
 10
15.5250755515
 20
12.4447172141
 30
0.0
 10
15.5260185833
 20
12.4440715341
 30
0.0
 10
15.5267843273
 20
12.4438126511
 30
0.0
 10
15.527162341
 20
12.4437639479
 30
0.0
 10
15.527347771
 20
12.4437594202
 30
0.0
  0
SPLINE
  5
339
100
AcDbEntity
  8
02___PRT_ALL_AXES
100
AcDbSpline
 62
7
  6
CONTINUOUS
 70
0
 71
3
 72
15
 73
11
 74
0
 42
0.0000001
 43
0.0000001
 44
0.0000000001
 40
0.0
 40
0.0
 40
0.0
 40
0.0
 40
0.1762764038
 40
0.3400609742
 40
0.4891018596
 40
0.6217792331
 40
0.7374070636
 40
0.8366751526
 40
0.9223480952
 40
1.0
 40
1.0
 40
1.0
 40
1.0
 10
15.594326365
 20
12.3323459136
 30
0.0
 10
15.5944601885
 20
12.331597981
 30
0.0
 10
15.5947637021
 20
12.3301626058
 30
0.0
 10
15.5953497692
 20
12.3281353277
 30
0.0
 10
15.5960405639
 20
12.3263405441
 30
0.0
 10
15.5968228857
 20
12.3248124704
 30
0.0
 10
15.5976832582
 20
12.323578723
 30
0.0
 10
15.5986115497
 20
12.3226611112
 30
0.0
 10
15.5996017191
 20
12.3220815632
 30
0.0
 10
15.6003104896
 20
12.3219442202
 30
0.0
 10
15.6006451954
 20
12.3219442282
 30
0.0
  0
SPLINE
  5
33A
100
AcDbEntity
  8
LAYER_CUT_FEAT
100
AcDbSpline
 62
7
  6
CONTINUOUS
 70
0
 71
3
 72
11
 73
7
 74
0
 42
0.0000001
 43
0.0000001
 44
0.0000000001
 40
0.0
 40
0.0
 40
0.0
 40
0.0
 40
0.2927348374
 40
0.5513333845
 40
0.783176913
 40
1.0
 40
1.0
 40
1.0
 40
1.0
 10
15.6374968166
 20
12.3761974311
 30
0.0
 10
15.6377210504
 20
12.3759125593
 30
0.0
 10
15.6381793062
 20
12.3754020983
 30
0.0
 10
15.6389499731
 20
12.3748025662
 30
0.0
 10
15.6397533135
 20
12.3744312975
 30
0.0
 10
15.6403118468
 20
12.3743458179
 30
0.0
 10
15.6405803707
 20
12.3743458253
 30
0.0
  0
SPLINE
  5
33B
100
AcDbEntity
  8
LAYER_CUT_FEAT
100
AcDbSpline
 62
7
  6
CONTINUOUS
 70
0
 71
3
 72
20
 73
16
 74
0
 42
0.0000001
 43
0.0000001
 44
0.0000000001
 40
0.0
 40
0.0
 40
0.0
 40
0.0
 40
0.1687934633
 40
0.3334948852
 40
0.4884154479
 40
0.5606220128
 40
0.6285727953
 40
0.691818647
 40
0.7500221011
 40
0.8029900327
 40
0.8507196624
 40
0.8934644596
 40
0.931822695
 40
0.9668317354
 40
1.0
 40
1.0
 40
1.0
 40
1.0
 10
15.5412152735
 20
11.4653430199
 30
0.0
 10
15.541125302
 20
11.4617049813
 30
0.0
 10
15.5412319222
 20
11.4545066347
 30
0.0
 10
15.542226829
 20
11.4440129834
 30
0.0
 10
15.5437488222
 20
11.4356890483
 30
0.0
 10
15.5453791755
 20
11.4295367688
 30
0.0
 10
15.5467450208
 20
11.4253666462
 30
0.0
 10
15.5482680971
 20
11.421574298
 30
0.0
 10
15.5499331736
 20
11.4181978458
 30
0.0
 10
15.5517240232
 20
11.415270681
 30
0.0
 10
15.5536246325
 20
11.4128212149
 30
0.0
 10
15.5556200356
 20
11.4108735272
 30
0.0
 10
15.5576981596
 20
11.4094498825
 30
0.0
 10
15.5598436828
 20
11.4085756086
 30
0.0
 10
15.5613199276
 20
11.408376277
 30
0.0
 10
15.5620350283
 20
11.4083762746
 30
0.0
  0
SPLINE
  5
33C
100
AcDbEntity
  8
LAYER_CUT_FEAT
100
AcDbSpline
 62
7
  6
CONTINUOUS
 70
0
 71
3
 72
9
 73
5
 74
0
 42
0.0000001
 43
0.0000001
 44
0.0000000001
 40
0.0
 40
0.0
 40
0.0
 40
0.0
 40
0.4916318116
 40
1.0
 40
1.0
 40
1.0
 40
1.0
 10
15.5605160158
 20
12.198305357
 30
0.0
 10
15.5600483556
 20
12.1954661822
 30
0.0
 10
15.5593178687
 20
12.1896534021
 30
0.0
 10
15.5589833938
 20
12.1838054188
 30
0.0
 10
15.5589098327
 20
12.1808309405
 30
0.0
  0
SPLINE
  5
33D
100
AcDbEntity
  8
LAYER_CUT_FEAT
100
AcDbSpline
 62
7
  6
CONTINUOUS
 70
0
 71
3
 72
19
 73
15
 74
0
 42
0.0000001
 43
0.0000001
 44
0.0000000001
 40
0.0
 40
0.0
 40
0.0
 40
0.0
 40
0.0357803947
 40
0.0760729472
 40
0.1212794159
 40
0.1714830569
 40
0.2265378868
 40
0.2861286272
 40
0.3498121345
 40
0.4170465094
 40
0.5595975746
 40
0.7082772381
 40
0.8570822473
 40
1.0
 40
1.0
 40
1.0
 40
1.0
 10
15.1344227577
 20
12.1184657613
 30
0.0
 10
15.1336414459
 20
12.117951878
 30
0.0
 10
15.1320992535
 20
12.1166749349
 30
0.0
 10
15.1300153343
 20
12.1142734469
 30
0.0
 10
15.1280501332
 20
12.1113111692
 30
0.0
 10
15.126224467
 20
12.1078217471
 30
0.0
 10
15.1245574737
 20
12.1038440354
 30
0.0
 10
15.123068547
 20
12.0994238221
 30
0.0
 10
15.1217751019
 20
12.0946125988
 30
0.0
 10
15.1203039003
 20
12.0876152152
 30
0.0
 10
15.1190775305
 20
12.0783116034
 30
0.0
 10
15.1185740576
 20
12.0668083899
 30
0.0
 10
15.1190376748
 20
12.0552943685
 30
0.0
 10
15.1200078414
 20
12.0477185767
 30
0.0
 10
15.1206712842
 20
12.0440426541
 30
0.0
  0
SPLINE
  5
33E
100
AcDbEntity
  8
LAYER_CUT_FEAT
100
AcDbSpline
 62
7
  6
CONTINUOUS
 70
0
 71
3
 72
23
 73
19
 74
0
 42
0.0000001
 43
0.0000001
 44
0.0000000001
 40
0.0
 40
0.0
 40
0.0
 40
0.0
 40
0.0841666067
 40
0.1661338012
 40
0.2456761494
 40
0.3225833985
 40
0.3966635781
 40
0.4677456819
 40
0.5356827501
 40
0.6003557577
 40
0.6616781228
 40
0.7196014744
 40
0.7741225912
 40
0.8252922349
 40
0.8732257138
 40
0.9181155087
 40
0.9602447241
 40
1.0
 40
1.0
 40
1.0
 40
1.0
 10
15.1206712842
 20
12.0440426541
 30
0.0
 10
15.124288744
 20
12.0239994758
 30
0.0
 10
15.1319699776
 20
11.9845318851
 30
0.0
 10
15.1450180765
 20
11.9265230073
 30
0.0
 10
15.1594036516
 20
11.8706420793
 30
0.0
 10
15.1750740498
 20
11.8170925848
 30
0.0
 10
15.1919721808
 20
11.7660686763
 30
0.0
 10
15.2100365197
 20
11.7177551534
 30
0.0
 10
15.229201635
 20
11.6723265728
 30
0.0
 10
15.2493983855
 20
11.6299465746
 30
0.0
 10
15.2705545806
 20
11.5907673014
 30
0.0
 10
15.2925954009
 20
11.5549287982
 30
0.0
 10
15.3154442374
 20
11.5225587908
 30
0.0
 10
15.3390236495
 20
11.4937724403
 30
0.0
 10
15.3632554256
 20
11.4686733831
 30
0.0
 10
15.3880644874
 20
11.4473535361
 30
0.0
 10
15.4133668017
 20
11.429900058
 30
0.0
 10
15.4309662357
 20
11.4206574834
 30
0.0
 10
15.4397700651
 20
11.416779337
 30
0.0
  0
SPLINE
  5
33F
100
AcDbEntity
  8
LAYER_CUT_FEAT
100
AcDbSpline
 62
7
  6
CONTINUOUS
 70
0
 71
3
 72
9
 73
5
 74
0
 42
0.0000001
 43
0.0000001
 44
0.0000000001
 40
0.0
 40
0.0
 40
0.0
 40
0.0
 40
0.5095555426
 40
1.0
 40
1.0
 40
1.0
 40
1.0
 10
15.4397700651
 20
11.416779337
 30
0.0
 10
15.4403343516
 20
11.416530765
 30
0.0
 10
15.4414901772
 20
11.4161430342
 30
0.0
 10
15.4427037076
 20
11.4160081017
 30
0.0
 10
15.4432971909
 20
11.4160081088
 30
0.0
  0
SPLINE
  5
340
100
AcDbEntity
  8
LAYER_CUT_FEAT
100
AcDbSpline
 62
7
  6
CONTINUOUS
 70
0
 71
3
 72
20
 73
16
 74
0
 42
0.0000001
 43
0.0000001
 44
0.0000000001
 40
0.0
 40
0.0
 40
0.0
 40
0.0
 40
0.0511509858
 40
0.104549402
 40
0.1600774197
 40
0.2176005078
 40
0.2769700889
 40
0.3380252577
 40
0.4005944698
 40
0.4644969852
 40
0.5295442862
 40
0.5955413311
 40
0.7295696462
 40
0.864947212
 40
1.0
 40
1.0
 40
1.0
 40
1.0
 10
15.2187940504
 20
13.3243668761
 30
0.0
 10
15.212264664
 20
13.3088043852
 30
0.0
 10
15.1996193704
 20
13.2766981834
 30
0.0
 10
15.1822110669
 20
13.2268213014
 30
0.0
 10
15.1660041104
 20
13.1743369854
 30
0.0
 10
15.1510580054
 20
13.1194367194
 30
0.0
 10
15.1374272169
 20
13.0623194776
 30
0.0
 10
15.1251615728
 20
13.0031929764
 30
0.0
 10
15.1143059564
 20
12.9422722398
 30
0.0
 10
15.1049001345
 20
12.8797791517
 30
0.0
 10
15.096978336
 20
12.8159408576
 30
0.0
 10
15.0883907672
 20
12.7288980645
 30
0.0
 10
15.0815837304
 20
12.6183975473
 30
0.0
 10
15.0796698428
 20
12.4849195225
 30
0.0
 10
15.0825715605
 20
12.3957013126
 30
0.0
 10
15.0850884745
 20
12.351213206
 30
0.0
  0
SPLINE
  5
341
100
AcDbEntity
  8
LAYER_CUT_FEAT
100
AcDbSpline
 62
7
  6
CONTINUOUS
 70
0
 71
3
 72
19
 73
15
 74
0
 42
0.0000001
 43
0.0000001
 44
0.0000000001
 40
0.0
 40
0.0
 40
0.0
 40
0.0
 40
0.1739528196
 40
0.3394563776
 40
0.4923389285
 40
0.6291249262
 40
0.6907136277
 40
0.747496652
 40
0.7994408733
 40
0.8466798724
 40
0.8895642996
 40
0.928721685
 40
0.9651071243
 40
1.0
 40
1.0
 40
1.0
 40
1.0
 10
15.0850884745
 20
12.351213206
 30
0.0
 10
15.085263971
 20
12.3481111914
 30
0.0
 10
15.0858157597
 20
12.3420671862
 30
0.0
 10
15.0872695853
 20
12.3333852408
 30
0.0
 10
15.0892895979
 20
12.3254996046
 30
0.0
 10
15.0914608145
 20
12.3195959685
 30
0.0
 10
15.0934652021
 20
12.3154988817
 30
0.0
 10
15.0950131455
 20
12.3128759062
 30
0.0
 10
15.0966469323
 20
12.3106137919
 30
0.0
 10
15.0983559306
 20
12.308729613
 30
0.0
 10
15.1001298827
 20
12.3072383204
 30
0.0
 10
15.1019596797
 20
12.3061543312
 30
0.0
 10
15.1038327409
 20
12.3054933176
 30
0.0
 10
15.1051102153
 20
12.305343814
 30
0.0
 10
15.1057334377
 20
12.3053438178
 30
0.0
  0
SPLINE
  5
342
100
AcDbEntity
  8
LAYER_CUT_FEAT
100
AcDbSpline
 62
7
  6
CONTINUOUS
 70
0
 71
3
 72
18
 73
14
 74
0
 42
0.0000001
 43
0.0000001
 44
0.0000000001
 40
0.0
 40
0.0
 40
0.0
 40
0.0
 40
0.0424196325
 40
0.0895858574
 40
0.1413813789
 40
0.1975212418
 40
0.2575960003
 40
0.3210999492
 40
0.4559804701
 40
0.5969720714
 40
0.7383869674
 40
0.874507404
 40
1.0
 40
1.0
 40
1.0
 40
1.0
 10
15.3215616904
 20
13.5061898745
 30
0.0
 10
15.3208383045
 20
13.5052731538
 30
0.0
 10
15.3194458794
 20
13.5032290261
 30
0.0
 10
15.3176048973
 20
13.4997939675
 30
0.0
 10
15.3159201324
 20
13.4958655804
 30
0.0
 10
15.3144116015
 20
13.4914897481
 30
0.0
 10
15.31309674
 20
13.486717157
 30
0.0
 10
15.3115934391
 20
13.4797596513
 30
0.0
 10
15.3103255881
 20
13.4704878409
 30
0.0
 10
15.3097713696
 20
13.4590007881
 30
0.0
 10
15.3101842112
 20
13.4474721887
 30
0.0
 10
15.3115429057
 20
13.4364471324
 30
0.0
 10
15.313116714
 20
13.4294016535
 30
0.0
 10
15.3140818696
 20
13.4260845572
 30
0.0
  0
SPLINE
  5
343
100
AcDbEntity
  8
LAYER_CUT_FEAT
100
AcDbSpline
 62
7
  6
CONTINUOUS
 70
0
 71
3
 72
15
 73
11
 74
0
 42
0.0000001
 43
0.0000001
 44
0.0000000001
 40
0.0
 40
0.0
 40
0.0
 40
0.0
 40
0.1735147341
 40
0.3333475009
 40
0.4784414518
 40
0.6082991028
 40
0.7232116661
 40
0.8245732276
 40
0.9152831015
 40
1.0
 40
1.0
 40
1.0
 40
1.0
 10
15.481188622
 20
12.8517635444
 30
0.0
 10
15.481654817
 20
12.8501613019
 30
0.0
 10
15.4826465071
 20
12.8471096208
 30
0.0
 10
15.484392685
 20
12.8428474245
 30
0.0
 10
15.4863185353
 20
12.8391284819
 30
0.0
 10
15.4884009742
 20
12.8359995013
 30
0.0
 10
15.4906180791
 20
12.8334987524
 30
0.0
 10
15.492953431
 20
12.8316595779
 30
0.0
 10
15.4953899025
 20
12.8305200469
 30
0.0
 10
15.4970858852
 20
12.830257355
 30
0.0
 10
15.497900606
 20
12.8302573537
 30
0.0
  0
SPLINE
  5
344
100
AcDbEntity
  8
LAYER_CUT_FEAT
100
AcDbSpline
 62
7
  6
CONTINUOUS
 70
0
 71
3
 72
9
 73
5
 74
0
 42
0.0000001
 43
0.0000001
 44
0.0000000001
 40
0.0
 40
0.0
 40
0.0
 40
0.0
 40
0.5077915395
 40
1.0
 40
1.0
 40
1.0
 40
1.0
 10
15.5318807595
 20
12.8284921067
 30
0.0
 10
15.5288141797
 20
12.8297033245
 30
0.0
 10
15.522556205
 20
12.8315805399
 30
0.0
 10
15.5160480433
 20
12.8322280363
 30
0.0
 10
15.512852111
 20
12.8322280461
 30
0.0
  0
SPLINE
  5
345
100
AcDbEntity
  8
LAYER_CUT_FEAT
100
AcDbSpline
 62
7
  6
CONTINUOUS
 70
0
 71
3
 72
9
 73
5
 74
0
 42
0.0000001
 43
0.0000001
 44
0.0000000001
 40
0.0
 40
0.0
 40
0.0
 40
0.0
 40
0.5077821548
 40
1.0
 40
1.0
 40
1.0
 40
1.0
 10
15.5318807595
 20
12.8284921067
 30
0.0
 10
15.5323918465
 20
12.8282902408
 30
0.0
 10
15.5334348435
 20
12.8279773804
 30
0.0
 10
15.5345195355
 20
12.8278694509
 30
0.0
 10
15.5350522009
 20
12.8278694494
 30
0.0
  0
SPLINE
  5
346
100
AcDbEntity
  8
LAYER_CUT_FEAT
100
AcDbSpline
 62
7
  6
CONTINUOUS
 70
0
 71
3
 72
11
 73
7
 74
0
 42
0.0000001
 43
0.0000001
 44
0.0000000001
 40
0.0
 40
0.0
 40
0.0
 40
0.0
 40
0.2823857728
 40
0.5383906151
 40
0.7745757428
 40
1.0
 40
1.0
 40
1.0
 40
1.0
 10
15.9088108628
 20
12.2570055656
 30
0.0
 10
15.9093903195
 20
12.2564154068
 30
0.0
 10
15.9105705927
 20
12.2553592879
 30
0.0
 10
15.9125013748
 20
12.2541439208
 30
0.0
 10
15.914484645
 20
12.2534005506
 30
0.0
 10
15.9158417628
 20
12.2532319578
 30
0.0
 10
15.9165020063
 20
12.2532319568
 30
0.0
  0
SPLINE
  5
347
100
AcDbEntity
  8
LAYER_CUT_FEAT
100
AcDbSpline
 62
7
  6
CONTINUOUS
 70
0
 71
3
 72
11
 73
7
 74
0
 42
0.0000001
 43
0.0000001
 44
0.0000000001
 40
0.0
 40
0.0
 40
0.0
 40
0.0
 40
0.2774826948
 40
0.5323888541
 40
0.7706475752
 40
1.0
 40
1.0
 40
1.0
 40
1.0
 10
15.8904941351
 20
12.1046465649
 30
0.0
 10
15.8910925939
 20
12.1041043524
 30
0.0
 10
15.8923096978
 20
12.1031352542
 30
0.0
 10
15.8942749287
 20
12.1020313597
 30
0.0
 10
15.8962817556
 20
12.1013594161
 30
0.0
 10
15.897646903
 20
12.10120781
 30
0.0
 10
15.8983143861
 20
12.1012078105
 30
0.0
  0
SPLINE
  5
348
100
AcDbEntity
  8
LAYER_CUT_FEAT
100
AcDbSpline
 62
7
  6
CONTINUOUS
 70
0
 71
3
 72
10
 73
6
 74
0
 42
0.0000001
 43
0.0000001
 44
0.0000000001
 40
0.0
 40
0.0
 40
0.0
 40
0.0
 40
0.2320313219
 40
0.4780883391
 40
1.0
 40
1.0
 40
1.0
 40
1.0
 10
15.5845593428
 20
12.850646535
 30
0.0
 10
15.5839457551
 20
12.8485881854
 30
0.0
 10
15.5828348641
 20
12.8443001894
 30
0.0
 10
15.58106643
 20
12.8352102425
 30
0.0
 10
15.5802965032
 20
12.8281256733
 30
0.0
 10
15.5800022102
 20
12.8233034352
 30
0.0
  0
SPLINE
  5
349
100
AcDbEntity
  8
LAYER_CUT_FEAT
100
AcDbSpline
 62
7
  6
CONTINUOUS
 70
0
 71
3
 72
16
 73
12
 74
0
 42
0.0000001
 43
0.0000001
 44
0.0000000001
 40
0.0
 40
0.0
 40
0.0
 40
0.0
 40
0.1742858328
 40
0.3349824589
 40
0.480829663
 40
0.6111459498
 40
0.7260654168
 40
0.8268802376
 40
0.9164962327
 40
0.9586632837
 40
1.0
 40
1.0
 40
1.0
 40
1.0
 10
15.4091454972
 20
12.7909448996
 30
0.0
 10
15.4096643613
 20
12.7890110249
 30
0.0
 10
15.4107773577
 20
12.7853233611
 30
0.0
 10
15.4127630264
 20
12.7801624465
 30
0.0
 10
15.4149751616
 20
12.7756485628
 30
0.0
 10
15.4173842023
 20
12.7718431455
 30
0.0
 10
15.4199635899
 20
12.7687964236
 30
0.0
 10
15.4226886192
 20
12.7665507521
 30
0.0
 10
15.4251223402
 20
12.765365088
 30
0.0
 10
15.4270646411
 20
12.7649073196
 30
0.0
 10
15.428025617
 20
12.764831874
 30
0.0
 10
15.4285005112
 20
12.7648318771
 30
0.0
  0
SPLINE
  5
34A
100
AcDbEntity
  8
LAYER_CUT_FEAT
100
AcDbSpline
 62
7
  6
CONTINUOUS
 70
0
 71
3
 72
31
 73
27
 74
0
 42
0.0000001
 43
0.0000001
 44
0.0000000001
 40
0.0
 40
0.0
 40
0.0
 40
0.0
 40
0.0202505777
 40
0.0425593941
 40
0.0670617298
 40
0.0937984405
 40
0.1227385348
 40
0.1537949753
 40
0.2216748475
 40
0.2960297042
 40
0.3750411872
 40
0.456652153
 40
0.5386809773
 40
0.6189265216
 40
0.6952718485
 40
0.7657937472
 40
0.798365838
 40
0.8289172304
 40
0.8573266118
 40
0.8835193712
 40
0.9074803244
 40
0.9292711716
 40
0.9490537188
 40
0.9671174475
 40
0.9839028767
 40
1.0
 40
1.0
 40
1.0
 40
1.0
 10
15.1143671859
 20
12.2693739193
 30
0.0
 10
15.1136653681
 20
12.2688378114
 30
0.0
 10
15.1122818442
 20
12.2675891146
 30
0.0
 10
15.1103767928
 20
12.2653621683
 30
0.0
 10
15.1085585678
 20
12.2627135245
 30
0.0
 10
15.1068404827
 20
12.2596636855
 30
0.0
 10
15.1052346229
 20
12.2562355309
 30
0.0
 10
15.1031995559
 20
12.2510398648
 30
0.0
 10
15.1010581714
 20
12.2437768207
 30
0.0
 10
15.0991709994
 20
12.2343039131
 30
0.0
 10
15.097956883
 20
12.2241187364
 30
0.0
 10
15.097455038
 20
12.2135398215
 30
0.0
 10
15.0976819377
 20
12.2028977115
 30
0.0
 10
15.0986300801
 20
12.1925252774
 30
0.0
 10
15.1002688406
 20
12.1827473848
 30
0.0
 10
15.1022135064
 20
12.1751538577
 30
0.0
 10
15.1041022587
 20
12.1696370721
 30
0.0
 10
15.1056149095
 20
12.1659400715
 30
0.0
 10
15.1072491564
 20
12.1626017889
 30
0.0
 10
15.1089928215
 20
12.1596476961
 30
0.0
 10
15.1108333112
 20
12.157100066
 30
0.0
 10
15.1127584513
 20
12.1549780804
 30
0.0
 10
15.1147567391
 20
12.1532985809
 30
0.0
 10
15.1168179043
 20
12.1520777978
 30
0.0
 10
15.118927781
 20
12.1513333713
 30
0.0
 10
15.120366752
 20
12.1511650126
 30
0.0
 10
15.121068768
 20
12.1511650085
 30
0.0
  0
SPLINE
  5
34B
100
AcDbEntity
  8
LAYER_CUT_FEAT
100
AcDbSpline
 62
7
  6
CONTINUOUS
 70
0
 71
3
 72
20
 73
16
 74
0
 42
0.0000001
 43
0.0000001
 44
0.0000000001
 40
0.0
 40
0.0
 40
0.0
 40
0.0
 40
0.169950882
 40
0.3349225143
 40
0.4895115982
 40
0.5614210766
 40
0.6290376188
 40
0.691948652
 40
0.7498514405
 40
0.8025846819
 40
0.8501731766
 40
0.8928910684
 40
0.9313449569
 40
0.9665591323
 40
1.0
 40
1.0
 40
1.0
 40
1.0
 10
15.4791275888
 20
11.4629955072
 30
0.0
 10
15.4790886302
 20
11.4589985357
 30
0.0
 10
15.479314505
 20
11.4511150351
 30
0.0
 10
15.480547867
 20
11.4396568137
 30
0.0
 10
15.4823173391
 20
11.4306055534
 30
0.0
 10
15.4841722306
 20
11.4239382386
 30
0.0
 10
15.4857113764
 20
11.4194294577
 30
0.0
 10
15.4874164854
 20
11.415334853
 30
0.0
 10
15.4892713535
 20
11.4116936375
 30
0.0
 10
15.4912588324
 20
11.4085401397
 30
0.0
 10
15.4933620821
 20
11.4059036149
 30
0.0
 10
15.4955653591
 20
11.4038090006
 30
0.0
 10
15.4978557351
 20
11.4022795664
 30
0.0
 10
15.5002164458
 20
11.4013416064
 30
0.0
 10
15.5018378954
 20
11.4011281279
 30
0.0
 10
15.5026244082
 20
11.4011281179
 30
0.0
  0
SPLINE
  5
34C
100
AcDbEntity
  8
02___PRT_ALL_AXES
100
AcDbSpline
 62
7
  6
CONTINUOUS
 70
0
 71
3
 72
33
 73
29
 74
0
 42
0.0000001
 43
0.0000001
 44
0.0000000001
 40
0.0
 40
0.0
 40
0.0
 40
0.0
 40
0.0297983676
 40
0.0605470674
 40
0.0921753868
 40
0.1246076096
 40
0.1577636541
 40
0.1915596542
 40
0.2607156063
 40
0.33135382
 40
0.4027191109
 40
0.4740426983
 40
0.5445565766
 40
0.6135079044
 40
0.6471726888
 40
0.6801790743
 40
0.7124439668
 40
0.7438881786
 40
0.7744370205
 40
0.8040209495
 40
0.8325762909
 40
0.860046057
 40
0.8863808954
 40
0.9115402055
 40
0.9354934764
 40
0.9582219103
 40
0.9797204079
 40
1.0
 40
1.0
 40
1.0
 40
1.0
 10
15.1736709927
 20
13.2100218878
 30
0.0
 10
15.1684645106
 20
13.1931737053
 30
0.0
 10
15.1584526779
 20
13.1587624677
 30
0.0
 10
15.1448176629
 20
13.1059381023
 30
0.0
 10
15.1323615019
 20
13.0512236528
 30
0.0
 10
15.121124157
 20
12.9947933917
 30
0.0
 10
15.1111411346
 20
12.9368257543
 30
0.0
 10
15.0994573188
 20
12.8571236618
 30
0.0
 10
15.0882579743
 20
12.754965778
 30
0.0
 10
15.0803062046
 20
12.630217069
 30
0.0
 10
15.0778441004
 20
12.5039560045
 30
0.0
 10
15.0809030075
 20
12.3777815116
 30
0.0
 10
15.0894439005
 20
12.2532914287
 30
0.0
 10
15.101128592
 20
12.1514616239
 30
0.0
 10
15.1131935692
 20
12.0721068413
 30
0.0
 10
15.1234509351
 20
12.0144564309
 30
0.0
 10
15.134955214
 20
11.9583825236
 30
0.0
 10
15.1476699981
 20
11.904062618
 30
0.0
 10
15.1615547278
 20
11.8516689426
 30
0.0
 10
15.1765652442
 20
11.8013673701
 30
0.0
 10
15.192653852
 20
11.7533169962
 30
0.0
 10
15.2097695468
 20
11.7076695609
 30
0.0
 10
15.2278582128
 20
11.6645689658
 30
0.0
 10
15.2468629643
 20
11.6241506938
 30
0.0
 10
15.2667242098
 20
11.5865416666
 30
0.0
 10
15.2873809155
 20
11.5518587925
 30
0.0
 10
15.3087680436
 20
11.5202123395
 30
0.0
 10
15.3239088096
 20
11.5006379168
 30
0.0
 10
15.3315991722
 20
11.491424481
 30
0.0
  0
SPLINE
  5
34D
100
AcDbEntity
  8
02___PRT_ALL_AXES
100
AcDbSpline
 62
7
  6
CONTINUOUS
 70
0
 71
3
 72
15
 73
11
 74
0
 42
0.0000001
 43
0.0000001
 44
0.0000000001
 40
0.0
 40
0.0
 40
0.0
 40
0.0
 40
0.1460583159
 40
0.2865095896
 40
0.4210819402
 40
0.5495505769
 40
0.6717451339
 40
0.7875586276
 40
0.8969584651
 40
1.0
 40
1.0
 40
1.0
 40
1.0
 10
15.1736709927
 20
13.2100218878
 30
0.0
 10
15.1788335412
 20
13.2267279006
 30
0.0
 10
15.1895002855
 20
13.259335387
 30
0.0
 10
15.2068949375
 20
13.3066614889
 30
0.0
 10
15.2253254147
 20
13.3513262797
 30
0.0
 10
15.2447303656
 20
13.3931809965
 30
0.0
 10
15.265045657
 20
13.4320872326
 30
0.0
 10
15.2862054575
 20
13.4679174557
 30
0.0
 10
15.3081395576
 20
13.5005516297
 30
0.0
 10
15.3236944637
 20
13.5207042359
 30
0.0
 10
15.3315991723
 20
13.5301744687
 30
0.0
  0
LINE
  5
34E
100
AcDbEntity
  8
0
100
AcDbLine
 62
7
  6
CONTINUOUS
 10
15.1065361031
 20
13.179204448
 11
15.1063503125
 21
13.1792509437
  0
LINE
  5
34F
100
AcDbEntity
  8
0
100
AcDbLine
 62
7
  6
CONTINUOUS
 10
15.1098579578
 20
13.1775259181
 11
15.1108514759
 21
13.1772772906
  0
LINE
  5
350
100
AcDbEntity
  8
0
100
AcDbLine
 62
7
  6
CONTINUOUS
 10
15.1149144234
 20
13.2119667677
 11
15.1146990666
 21
13.2120294451
  0
LINE
  5
351
100
AcDbEntity
  8
0
100
AcDbLine
 62
7
  6
CONTINUOUS
 10
15.1182141072
 20
13.2100211229
 11
15.1193657301
 21
13.2096859586
  0
LINE
  5
352
100
AcDbEntity
  8
0
100
AcDbLine
 62
7
  6
CONTINUOUS
 10
15.1236893556
 20
13.2440371199
 11
15.1234446454
 21
13.2441183557
  0
SPLINE
  5
353
100
AcDbEntity
  8
0
100
AcDbSpline
 62
7
  6
CONTINUOUS
 70
0
 71
3
 72
9
 73
5
 74
0
 42
0.0000001
 43
0.0000001
 44
0.0000000001
 40
0.0
 40
0.0
 40
0.0
 40
0.0
 40
0.5205000659
 40
1.0
 40
1.0
 40
1.0
 40
1.0
 10
15.1269636123
 20
13.2418262803
 30
0.0
 10
15.1271641351
 20
13.2416908835
 30
0.0
 10
15.1275818835
 20
13.2414726104
 30
0.0
 10
15.1280493083
 20
13.2413918633
 30
0.0
 10
15.1282722034
 20
13.2413918733
 30
0.0
  0
LINE
  5
354
100
AcDbEntity
  8
0
100
AcDbLine
 62
7
  6
CONTINUOUS
 10
15.1328522402
 20
13.275383855
 11
15.132578418
 21
13.2754860088
  0
SPLINE
  5
355
100
AcDbEntity
  8
0
100
AcDbSpline
 62
7
  6
CONTINUOUS
 70
0
 71
3
 72
9
 73
5
 74
0
 42
0.0000001
 43
0.0000001
 44
0.0000000001
 40
0.0
 40
0.0
 40
0.0
 40
0.0
 40
0.5250921542
 40
1.0
 40
1.0
 40
1.0
 40
1.0
 10
15.1360978384
 20
13.2729100025
 30
0.0
 10
15.1363183891
 20
13.2727418949
 30
0.0
 10
15.1367798454
 20
13.2724679614
 30
0.0
 10
15.1373112962
 20
13.2723637382
 30
0.0
 10
15.1375621063
 20
13.2723637441
 30
0.0
  0
SPLINE
  5
356
100
AcDbEntity
  8
0
100
AcDbSpline
 62
7
  6
CONTINUOUS
 70
0
 71
3
 72
25
 73
21
 74
0
 42
0.0000001
 43
0.0000001
 44
0.0000000001
 40
0.0
 40
0.0
 40
0.0
 40
0.0
 40
0.0878077425
 40
0.1723342422
 40
0.2534331631
 40
0.3309828781
 40
0.4048912644
 40
0.4751000884
 40
0.5415906801
 40
0.6043907139
 40
0.6635826162
 40
0.7193133172
 40
0.771805411
 40
0.8213686321
 40
0.8684096593
 40
0.9134368863
 40
0.9353935854
 40
0.9570809054
 40
0.978586296
 40
1.0
 40
1.0
 40
1.0
 40
1.0
 10
15.0482435832
 20
13.3000090903
 30
0.0
 10
15.0538218026
 20
13.31758573
 30
0.0
 10
15.0653227221
 20
13.3519103116
 30
0.0
 10
15.0839925804
 20
13.4017640909
 30
0.0
 10
15.1037075578
 20
13.448889164
 30
0.0
 10
15.1244075235
 20
13.4931417013
 30
0.0
 10
15.1460299129
 20
13.5343877359
 30
0.0
 10
15.1685099071
 20
13.5725025991
 30
0.0
 10
15.1917808512
 20
13.6073715054
 30
0.0
 10
15.2157749296
 20
13.6388895611
 30
0.0
 10
15.2404235601
 20
13.6669617527
 30
0.0
 10
15.2656582244
 20
13.6915023889
 30
0.0
 10
15.2914100506
 20
13.7124340639
 30
0.0
 10
15.3176112007
 20
13.729686413
 30
0.0
 10
15.3441862615
 20
13.7431937638
 30
0.0
 10
15.3667794922
 20
13.7513485732
 30
0.0
 10
15.3848556988
 20
13.7558746077
 30
0.0
 10
15.3983359248
 20
13.7582824189
 30
0.0
 10
15.411837443
 20
13.7597279022
 30
0.0
 10
15.4208542074
 20
13.7600494652
 30
0.0
 10
15.4253513166
 20
13.7600494704
 30
0.0
  0
SPLINE
  5
357
100
AcDbEntity
  8
LAYER_CUT_FEAT
100
AcDbSpline
 62
7
  6
CONTINUOUS
 70
0
 71
3
 72
17
 73
13
 74
0
 42
0.0000001
 43
0.0000001
 44
0.0000000001
 40
0.0
 40
0.0
 40
0.0
 40
0.0
 40
0.0537063488
 40
0.1076583304
 40
0.1620974641
 40
0.2172572875
 40
0.3305521645
 40
0.4492118745
 40
0.5745666062
 40
0.7076656159
 40
0.8492931977
 40
1.0
 40
1.0
 40
1.0
 40
1.0
 10
15.512852111
 20
13.6207994681
 30
0.0
 10
15.5087215782
 20
13.6207994714
 30
0.0
 10
15.5004383942
 20
13.6204940572
 30
0.0
 10
15.4880368543
 20
13.6191213977
 30
0.0
 10
15.4756563323
 20
13.6168349629
 30
0.0
 10
15.4590491914
 20
13.6125352326
 30
0.0
 10
15.4382957515
 20
13.604785165
 30
0.0
 10
15.4139184021
 20
13.5919610963
 30
0.0
 10
15.3899084011
 20
13.5755899367
 30
0.0
 10
15.3663383583
 20
13.5557372306
 30
0.0
 10
15.3432751871
 20
13.532475152
 30
0.0
 10
15.3287417769
 20
13.5152889368
 30
0.0
 10
15.3215616904
 20
13.5061898745
 30
0.0
  0
SPLINE
  5
358
100
AcDbEntity
  8
LAYER_CUT_FEAT
100
AcDbSpline
 62
7
  6
CONTINUOUS
 70
0
 71
3
 72
16
 73
12
 74
0
 42
0.0000001
 43
0.0000001
 44
0.0000000001
 40
0.0
 40
0.0
 40
0.0
 40
0.0
 40
0.0415563378
 40
0.0839277958
 40
0.1738618817
 40
0.2748286494
 40
0.3897333065
 40
0.5199002999
 40
0.6655122097
 40
0.8259448608
 40
1.0
 40
1.0
 40
1.0
 40
1.0
 10
15.8074525934
 20
13.3017498242
 30
0.0
 10
15.8070361897
 20
13.3017498257
 30
0.0
 10
15.8061938007
 20
13.3016845056
 30
0.0
 10
15.8044915013
 20
13.3012882525
 30
0.0
 10
15.8023578392
 20
13.3002622704
 30
0.0
 10
15.7999648368
 20
13.2983163639
 30
0.0
 10
15.7976969589
 20
13.2956746543
 30
0.0
 10
15.7955753846
 20
13.2923733097
 30
0.0
 10
15.7936228439
 20
13.2884549496
 30
0.0
 10
15.7918647152
 20
13.2839716174
 30
0.0
 10
15.7908751885
 20
13.2807661441
 30
0.0
 10
15.7904126608
 20
13.2790845225
 30
0.0
  0
SPLINE
  5
359
100
AcDbEntity
  8
02___PRT_ALL_AXES
100
AcDbSpline
 62
7
  6
CONTINUOUS
 70
0
 71
3
 72
17
 73
13
 74
0
 42
0.0000001
 43
0.0000001
 44
0.0000000001
 40
0.0
 40
0.0
 40
0.0
 40
0.0
 40
0.0335787391
 40
0.0689019192
 40
0.1074175068
 40
0.1501439904
 40
0.2501842723
 40
0.3706712916
 40
0.5099034269
 40
0.6643857839
 40
0.8295097039
 40
1.0
 40
1.0
 40
1.0
 40
1.0
 10
15.571526375
 20
12.6931127431
 30
0.0
 10
15.571296201
 20
12.6931127492
 30
0.0
 10
15.5708219616
 20
12.6930510071
 30
0.0
 10
15.5701310002
 20
12.6927795728
 30
0.0
 10
15.5694600367
 20
12.692336799
 30
0.0
 10
15.5685513728
 20
12.6914822374
 30
0.0
 10
15.5675164503
 20
12.6899824719
 30
0.0
 10
15.5664902145
 20
12.6877323059
 30
0.0
 10
15.5656498914
 20
12.6850134311
 30
0.0
 10
15.565028217
 20
12.6819258685
 30
0.0
 10
15.5646492761
 20
12.6785842149
 30
0.0
 10
15.5645690797
 20
12.676282395
 30
0.0
 10
15.5645726955
 20
12.6751137313
 30
0.0
  0
SPLINE
  5
35A
100
AcDbEntity
  8
02___PRT_ALL_AXES
100
AcDbSpline
 62
7
  6
CONTINUOUS
 70
0
 71
3
 72
14
 73
10
 74
0
 42
0.0000001
 43
0.0000001
 44
0.0000000001
 40
0.0
 40
0.0
 40
0.0
 40
0.0
 40
0.085948604
 40
0.1776000971
 40
0.2794569646
 40
0.3944027054
 40
0.5239041022
 40
0.6683708726
 40
1.0
 40
1.0
 40
1.0
 40
1.0
 10
15.6163475613
 20
12.6892265882
 30
0.0
 10
15.6160852086
 20
12.6892265942
 30
0.0
 10
15.6155403727
 20
12.689145228
 30
0.0
 10
15.614754968
 20
12.6887911116
 30
0.0
 10
15.6139998794
 20
12.6882181113
 30
0.0
 10
15.6132807244
 20
12.6874376705
 30
0.0
 10
15.6126023802
 20
12.6864597508
 30
0.0
 10
15.6117209122
 20
12.684831909
 30
0.0
 10
15.6112087273
 20
12.683463514
 30
0.0
 10
15.6109087686
 20
12.6824966997
 30
0.0
  0
SPLINE
  5
35B
100
AcDbEntity
  8
02___PRT_ALL_AXES
100
AcDbSpline
 62
7
  6
CONTINUOUS
 70
0
 71
3
 72
21
 73
17
 74
0
 42
0.0000001
 43
0.0000001
 44
0.0000000001
 40
0.0
 40
0.0
 40
0.0
 40
0.0
 40
0.0376694768
 40
0.0768131361
 40
0.1183247959
 40
0.1629119178
 40
0.2110894575
 40
0.2631995886
 40
0.3194397291
 40
0.3798897433
 40
0.4445347224
 40
0.5132829367
 40
0.5859797086
 40
0.6624181402
 40
0.8254500945
 40
1.0
 40
1.0
 40
1.0
 40
1.0
 10
15.5897443051
 20
12.3323061034
 30
0.0
 10
15.5880541959
 20
12.3324344678
 30
0.0
 10
15.584625201
 20
12.333022023
 30
0.0
 10
15.579595702
 20
12.3348402155
 30
0.0
 10
15.5746487181
 20
12.3375834634
 30
0.0
 10
15.5698092451
 20
12.341228275
 30
0.0
 10
15.5650964787
 20
12.3457511269
 30
0.0
 10
15.5605303252
 20
12.3511271473
 30
0.0
 10
15.5561309686
 20
12.3573287475
 30
0.0
 10
15.5519190557
 20
12.3643246771
 30
0.0
 10
15.5479151345
 20
12.3720796511
 30
0.0
 10
15.5441393414
 20
12.3805542951
 30
0.0
 10
15.5406107411
 20
12.3897053314
 30
0.0
 10
15.5361648013
 20
12.4030338205
 30
0.0
 10
15.5314026129
 20
12.4210649784
 30
0.0
 10
15.5285714997
 20
12.4360012872
 30
0.0
 10
15.527347771
 20
12.4437594202
 30
0.0
  0
SPLINE
  5
35C
100
AcDbEntity
  8
02___PRT_ALL_AXES
100
AcDbSpline
 62
7
  6
CONTINUOUS
 70
0
 71
3
 72
9
 73
5
 74
0
 42
0.0000001
 43
0.0000001
 44
0.0000000001
 40
0.0
 40
0.0
 40
0.0
 40
0.0
 40
0.5138218809
 40
1.0
 40
1.0
 40
1.0
 40
1.0
 10
15.5772450573
 20
12.6854154646
 30
0.0
 10
15.5792207022
 20
12.6865014111
 30
0.0
 10
15.5832697115
 20
12.6882754295
 30
0.0
 10
15.5876172913
 20
12.6891312852
 30
0.0
 10
15.5897443051
 20
12.6892928446
 30
0.0
  0
SPLINE
  5
35D
100
AcDbEntity
  8
02___PRT_ALL_AXES
100
AcDbSpline
 62
7
  6
CONTINUOUS
 70
0
 71
3
 72
19
 73
15
 74
0
 42
0.0000001
 43
0.0000001
 44
0.0000000001
 40
0.0
 40
0.0
 40
0.0
 40
0.0
 40
0.145910674
 40
0.2923113012
 40
0.4356193351
 40
0.572385412
 40
0.6373277113
 40
0.6994864469
 40
0.7585446547
 40
0.8142299297
 40
0.8663244304
 40
0.9146775195
 40
0.9592223977
 40
1.0
 40
1.0
 40
1.0
 40
1.0
 10
15.5235578613
 20
12.476476023
 30
0.0
 10
15.5227919651
 20
12.4865175565
 30
0.0
 10
15.5219482705
 20
12.506692857
 30
0.0
 10
15.5226658906
 20
12.5367714688
 30
0.0
 10
15.5253331639
 20
12.5661079026
 30
0.0
 10
15.5291773003
 20
12.5896343605
 30
0.0
 10
15.5332147208
 20
12.6073981459
 30
0.0
 10
15.5366118408
 20
12.6197943626
 30
0.0
 10
15.5404048819
 20
12.6314054657
 30
0.0
 10
15.5445668524
 20
12.6421488533
 30
0.0
 10
15.5490679597
 20
12.6519483114
 30
0.0
 10
15.5538771764
 20
12.6607355267
 30
0.0
 10
15.5589607242
 20
12.6684481452
 30
0.0
 10
15.5626725919
 20
12.6730374939
 30
0.0
 10
15.5645726955
 20
12.6751137313
 30
0.0
  0
LINE
  5
35E
100
AcDbEntity
  8
02___PRT_ALL_AXES
100
AcDbLine
 62
7
  6
CONTINUOUS
 10
15.5772450573
 20
12.6854154646
 11
15.5656169143
 21
12.6846090762
  0
SPLINE
  5
35F
100
AcDbEntity
  8
0
100
AcDbSpline
 62
7
  6
CONTINUOUS
 70
0
 71
3
 72
11
 73
7
 74
0
 42
0.0000001
 43
0.0000001
 44
0.0000000001
 40
0.0
 40
0.0
 40
0.0
 40
0.0
 40
0.1700034901
 40
0.3853395193
 40
0.6629568908
 40
1.0
 40
1.0
 40
1.0
 40
1.0
 10
15.0149021138
 20
13.1792509437
 30
0.0
 10
15.0148192427
 20
13.1792509446
 30
0.0
 10
15.0146315043
 20
13.179181027
 30
0.0
 10
15.0144127684
 20
13.1789347106
 30
0.0
 10
15.0142261036
 20
13.1785732617
 30
0.0
 10
15.0141357047
 20
13.1782861886
 30
0.0
 10
15.0140953746
 20
13.1781269181
 30
0.0
  0
SPLINE
  5
360
100
AcDbEntity
  8
0
100
AcDbSpline
 62
7
  6
CONTINUOUS
 70
0
 71
3
 72
11
 73
7
 74
0
 42
0.0000001
 43
0.0000001
 44
0.0000000001
 40
0.0
 40
0.0
 40
0.0
 40
0.0
 40
0.1720312387
 40
0.3876907557
 40
0.6642452913
 40
1.0
 40
1.0
 40
1.0
 40
1.0
 10
15.023250868
 20
13.2120294451
 30
0.0
 10
15.0231708002
 20
13.2120294421
 30
0.0
 10
15.0229901653
 20
13.2119647877
 30
0.0
 10
15.0227762272
 20
13.2117333835
 30
0.0
 10
15.0225924142
 20
13.2113922179
 30
0.0
 10
15.0225018779
 20
13.2111206562
 30
0.0
 10
15.0224610043
 20
13.2109698276
 30
0.0
  0
SPLINE
  5
361
100
AcDbEntity
  8
0
100
AcDbSpline
 62
7
  6
CONTINUOUS
 70
0
 71
3
 72
11
 73
7
 74
0
 42
0.0000001
 43
0.0000001
 44
0.0000000001
 40
0.0
 40
0.0
 40
0.0
 40
0.0
 40
0.1741539969
 40
0.390212253
 40
0.6656890499
 40
1.0
 40
1.0
 40
1.0
 40
1.0
 10
15.0319964467
 20
13.2441183557
 30
0.0
 10
15.0319191644
 20
13.2441183547
 30
0.0
 10
15.0317455712
 20
13.2440586971
 30
0.0
 10
15.0315366572
 20
13.2438418439
 30
0.0
 10
15.0313559336
 20
13.2435205692
 30
0.0
 10
15.0312655008
 20
13.2432642529
 30
0.0
 10
15.0312242381
 20
13.2431217535
 30
0.0
  0
SPLINE
  5
362
100
AcDbEntity
  8
0
100
AcDbSpline
 62
7
  6
CONTINUOUS
 70
0
 71
3
 72
11
 73
7
 74
0
 42
0.0000001
 43
0.0000001
 44
0.0000000001
 40
0.0
 40
0.0
 40
0.0
 40
0.0
 40
0.1763729144
 40
0.392906309
 40
0.6672915025
 40
1.0
 40
1.0
 40
1.0
 40
1.0
 10
15.0411302193
 20
13.2754860088
 30
0.0
 10
15.0410557051
 20
13.2754860103
 30
0.0
 10
15.0408890898
 20
13.2754310919
 30
0.0
 10
15.0406854188
 20
13.2752284141
 30
0.0
 10
15.0405080226
 20
13.2749266183
 30
0.0
 10
15.0404179286
 20
13.2746852626
 30
0.0
 10
15.0403764277
 20
13.2745509657
 30
0.0
  0
SPLINE
  5
363
100
AcDbEntity
  8
02___PRT_ALL_AXES
100
AcDbSpline
 62
7
  6
CONTINUOUS
 70
0
 71
3
 72
17
 73
13
 74
0
 42
0.0000001
 43
0.0000001
 44
0.0000000001
 40
0.0
 40
0.0
 40
0.0
 40
0.0
 40
0.1489315064
 40
0.2893274269
 40
0.4217570018
 40
0.4852399986
 40
0.5470434936
 40
0.6661136366
 40
0.7802659506
 40
0.8909842424
 40
0.945603681
 40
1.0
 40
1.0
 40
1.0
 40
1.0
 10
15.3316111867
 20
13.5301850443
 30
0.0
 10
15.3385825077
 20
13.5384830005
 30
0.0
 10
15.3526790329
 20
13.5541523264
 30
0.0
 10
15.3749559352
 20
13.5753110663
 30
0.0
 10
15.3941510332
 20
13.5905571655
 30
0.0
 10
15.4096810076
 20
13.6010843601
 30
0.0
 10
15.4249084872
 20
13.6102792467
 30
0.0
 10
15.4441804878
 20
13.6198575128
 30
0.0
 10
15.4678409544
 20
13.6282131718
 30
0.0
 10
15.4878076773
 20
13.6324274074
 30
0.0
 10
15.5037208043
 20
13.6340937708
 30
0.0
 10
15.5116568964
 20
13.6343709014
 30
0.0
 10
15.515615294
 20
13.6343709015
 30
0.0
  0
SPLINE
  5
364
100
AcDbEntity
  8
02___PRT_ALL_AXES
100
AcDbSpline
 62
7
  6
CONTINUOUS
 70
0
 71
3
 72
15
 73
11
 74
0
 42
0.0000001
 43
0.0000001
 44
0.0000000001
 40
0.0
 40
0.0
 40
0.0
 40
0.0
 40
0.1088237257
 40
0.2194334271
 40
0.333510797
 40
0.4525517817
 40
0.5778197891
 40
0.7103320279
 40
0.8508695323
 40
1.0
 40
1.0
 40
1.0
 40
1.0
 10
15.5876554218
 20
12.8232994748
 30
0.0
 10
15.5898731735
 20
12.8232994728
 30
0.0
 10
15.5943512164
 20
12.8229831911
 30
0.0
 10
15.6010190333
 20
12.8215668949
 30
0.0
 10
15.6076380949
 20
12.8192159639
 30
0.0
 10
15.6141855509
 20
12.8159424847
 30
0.0
 10
15.6206432241
 20
12.8117605678
 30
0.0
 10
15.6269938868
 20
12.8066854787
 30
0.0
 10
15.6332206835
 20
12.8007342831
 30
0.0
 10
15.6371589933
 20
12.7963283557
 30
0.0
 10
15.6391064948
 20
12.7939951556
 30
0.0
  0
SPLINE
  5
365
100
AcDbEntity
  8
02___PRT_ALL_AXES
100
AcDbSpline
 62
7
  6
CONTINUOUS
 70
0
 71
3
 72
26
 73
22
 74
0
 42
0.0000001
 43
0.0000001
 44
0.0000000001
 40
0.0
 40
0.0
 40
0.0
 40
0.0
 40
0.0202805207
 40
0.0417800072
 40
0.0645094849
 40
0.0884638524
 40
0.1136243154
 40
0.1399603646
 40
0.1959790938
 40
0.2561073906
 40
0.319813334
 40
0.3864822575
 40
0.4554367477
 40
0.5259538617
 40
0.5972807212
 40
0.6686492859
 40
0.7392907412
 40
0.8084498644
 40
0.8753997427
 40
0.9394572605
 40
1.0
 40
1.0
 40
1.0
 40
1.0
 10
15.6425103738
 20
12.7899171378
 30
0.0
 10
15.6446160931
 20
12.7873943851
 30
0.0
 10
15.6487618243
 20
12.7820346614
 30
0.0
 10
15.6546178853
 20
12.7733694651
 30
0.0
 10
15.6602739579
 20
12.7638728566
 30
0.0
 10
15.6657121849
 20
12.7535750416
 30
0.0
 10
15.6709160559
 20
12.7425079827
 30
0.0
 10
15.6776587789
 20
12.7264402814
 30
0.0
 10
15.685332037
 20
12.7046426645
 30
0.0
 10
15.6931886822
 20
12.6765619494
 30
0.0
 10
15.6997747872
 20
12.6463891285
 30
0.0
 10
15.7050061229
 20
12.6145043702
 30
0.0
 10
15.7088155636
 20
12.5813087087
 30
0.0
 10
15.7111541169
 20
12.5472213858
 30
0.0
 10
15.7119917028
 20
12.5126733016
 30
0.0
 10
15.7113175301
 20
12.4781015214
 30
0.0
 10
15.7091402803
 20
12.4439433577
 30
0.0
 10
15.7054879917
 20
12.4106308428
 30
0.0
 10
15.7004075197
 20
12.3785840922
 30
0.0
 10
15.6939645066
 20
12.3482087073
 30
0.0
 10
15.6886494169
 20
12.3287161181
 30
0.0
 10
15.6857530912
 20
12.3193436047
 30
0.0
  0
SPLINE
  5
366
100
AcDbEntity
  8
0
100
AcDbSpline
 62
7
  6
CONTINUOUS
 70
0
 71
3
 72
61
 73
57
 74
0
 42
0.0000001
 43
0.0000001
 44
0.0000000001
 40
0.0
 40
0.0
 40
0.0
 40
0.0
 40
0.0083645437
 40
0.0168404941
 40
0.025533937
 40
0.0345412815
 40
0.0439464488
 40
0.0538196536
 40
0.0642174563
 40
0.0751836387
 40
0.0867504811
 40
0.09894015
 40
0.1117660268
 40
0.1252339101
 40
0.1393430494
 40
0.1540870174
 40
0.1694544411
 40
0.1854296231
 40
0.2019930589
 40
0.2191218711
 40
0.2367901853
 40
0.2549694599
 40
0.2736287733
 40
0.292735076
 40
0.3321446683
 40
0.3729024652
 40
0.4146890341
 40
0.4571697464
 40
0.4999999999
 40
0.5428302535
 40
0.5853109658
 40
0.6270975346
 40
0.6678553316
 40
0.7072649238
 40
0.7263712265
 40
0.7450305401
 40
0.7632098147
 40
0.7808781287
 40
0.7980069409
 40
0.8145703769
 40
0.8305455589
 40
0.8459129825
 40
0.8606569504
 40
0.87476609
 40
0.8882339731
 40
0.9010598499
 40
0.9132495188
 40
0.9248163614
 40
0.9357825437
 40
0.9461803463
 40
0.9560535511
 40
0.9654587185
 40
0.974466063
 40
0.9831595059
 40
0.9916354563
 40
1.0
 40
1.0
 40
1.0
 40
1.0
 10
15.5167995153
 20
11.2615494798
 30
0.0
 10
15.5247721377
 20
11.2615494709
 30
0.0
 10
15.5408415274
 20
11.2625689095
 30
0.0
 10
15.5648054487
 20
11.2671389336
 30
0.0
 10
15.5886322477
 20
11.2747327233
 30
0.0
 10
15.6122545264
 20
11.2853200168
 30
0.0
 10
15.6356171784
 20
11.2988641612
 30
0.0
 10
15.658667383
 20
11.3153240794
 30
0.0
 10
15.6813551023
 20
11.3346547647
 30
0.0
 10
15.7036310959
 20
11.356806954
 30
0.0
 10
15.7254464774
 20
11.3817264683
 30
0.0
 10
15.7467525194
 20
11.4093536114
 30
0.0
 10
15.7675008232
 20
11.4396227625
 30
0.0
 10
15.7876435399
 20
11.4724622074
 30
0.0
 10
15.8071336549
 20
11.507794099
 30
0.0
 10
15.8259252621
 20
11.5455345223
 30
0.0
 10
15.8439738104
 20
11.5855936407
 30
0.0
 10
15.8612362856
 20
11.6278759092
 30
0.0
 10
15.8776713901
 20
11.6722803061
 30
0.0
 10
15.893239701
 20
11.7187005708
 30
0.0
 10
15.907903831
 20
11.7670254978
 30
0.0
 10
15.921628429
 20
11.8171391323
 30
0.0
 10
15.9343806705
 20
11.8689214358
 30
0.0
 10
15.950208315
 20
11.9407639067
 30
0.0
 10
15.9672734379
 20
12.0338708655
 30
0.0
 10
15.9832488666
 20
12.1490410489
 30
0.0
 10
15.9947720129
 20
12.2676820749
 30
0.0
 10
16.0017310176
 20
12.3886547751
 30
0.0
 10
16.0040582344
 20
12.5107994747
 30
0.0
 10
16.0017310175
 20
12.6329441743
 30
0.0
 10
15.9947720131
 20
12.7539168745
 30
0.0
 10
15.9832488665
 20
12.8725579005
 30
0.0
 10
15.9672734382
 20
12.987728084
 30
0.0
 10
15.9502083151
 20
13.0808350427
 30
0.0
 10
15.9343806702
 20
13.1526775136
 30
0.0
 10
15.9216284294
 20
13.2044598173
 30
0.0
 10
15.9079038312
 20
13.2545734518
 30
0.0
 10
15.893239701
 20
13.3028983786
 30
0.0
 10
15.8776713898
 20
13.3493186433
 30
0.0
 10
15.861236286
 20
13.3937230406
 30
0.0
 10
15.8439738107
 20
13.436005309
 30
0.0
 10
15.825925262
 20
13.4760644271
 30
0.0
 10
15.8071336547
 20
13.5138048505
 30
0.0
 10
15.7876435403
 20
13.5491367426
 30
0.0
 10
15.7675008234
 20
13.5819761873
 30
0.0
 10
15.7467525193
 20
13.612245338
 30
0.0
 10
15.7254464773
 20
13.6398724812
 30
0.0
 10
15.7036310964
 20
13.6647919961
 30
0.0
 10
15.6813551024
 20
13.6869441852
 30
0.0
 10
15.6586673827
 20
13.7062748699
 30
0.0
 10
15.6356171784
 20
13.7227347883
 30
0.0
 10
15.6122545267
 20
13.7362789337
 30
0.0
 10
15.5886322477
 20
13.7468662266
 30
0.0
 10
15.5648054485
 20
13.7544600155
 30
0.0
 10
15.5408415274
 20
13.7590300402
 30
0.0
 10
15.5247721377
 20
13.7600494798
 30
0.0
 10
15.5167995153
 20
13.7600494704
 30
0.0
  0
SPLINE
  5
367
100
AcDbEntity
  8
0
100
AcDbSpline
 62
7
  6
CONTINUOUS
 70
0
 71
3
 72
42
 73
38
 74
0
 42
0.0000001
 43
0.0000001
 44
0.0000000001
 40
0.0
 40
0.0
 40
0.0
 40
0.0
 40
0.0077208404
 40
0.0154894509
 40
0.0233525218
 40
0.03135468
 40
0.0395376772
 40
0.0479397956
 40
0.065525609
 40
0.0843510433
 40
0.1045820627
 40
0.1263300924
 40
0.1496606223
 40
0.1746012954
 40
0.2011487262
 40
0.2292739924
 40
0.2589269554
 40
0.2900396578
 40
0.3225290496
 40
0.35629921
 40
0.3912431908
 40
0.4272445978
 40
0.4641789932
 40
0.5019151509
 40
0.5403162106
 40
0.5792407725
 40
0.6185439388
 40
0.6580783174
 40
0.6976950092
 40
0.7372445825
 40
0.7765780392
 40
0.8155477897
 40
0.8540086368
 40
0.891818777
 40
0.9288408364
 40
0.9649429427
 40
1.0
 40
1.0
 40
1.0
 40
1.0
 10
15.4253513166
 20
11.2615494798
 30
0.0
 10
15.4199394785
 20
11.2615494859
 30
0.0
 10
15.4090766331
 20
11.2620160056
 30
0.0
 10
15.3928239645
 20
11.2641120984
 30
0.0
 10
15.376610272
 20
11.2676018785
 30
0.0
 10
15.3604567057
 20
11.2724798873
 30
0.0
 10
15.3443810846
 20
11.2787393344
 30
0.0
 10
15.3227509935
 20
11.2890699302
 30
0.0
 10
15.295925033
 20
11.3056064723
 30
0.0
 10
15.2648804013
 20
11.3304887456
 30
0.0
 10
15.2346002052
 20
11.3605822189
 30
0.0
 10
15.2052032449
 20
11.3957465795
 30
0.0
 10
15.1768021213
 20
11.435828887
 30
0.0
 10
15.1495127828
 20
11.4806560131
 30
0.0
 10
15.1234495015
 20
11.5300344879
 30
0.0
 10
15.0987240607
 20
11.5837500707
 30
0.0
 10
15.0754440121
 20
11.6415684901
 30
0.0
 10
15.0537115866
 20
11.7032364132
 30
0.0
 10
15.0336228
 20
11.7684826808
 30
0.0
 10
15.0152667727
 20
11.837019637
 30
0.0
 10
14.9987251444
 20
11.9085445173
 30
0.0
 10
14.9840715888
 20
11.9827408926
 30
0.0
 10
14.9713714496
 20
12.0592801683
 30
0.0
 10
14.9606814073
 20
12.1378231106
 30
0.0
 10
14.9520491754
 20
12.2180214028
 30
0.0
 10
14.9455132935
 20
12.2995192412
 30
0.0
 10
14.9411029572
 20
12.381954954
 30
0.0
 10
14.9388378682
 20
12.4649626363
 30
0.0
 10
14.9387281336
 20
12.5481738034
 30
0.0
 10
14.940774245
 20
12.6312190531
 30
0.0
 10
14.9449670737
 20
12.7137297328
 30
0.0
 10
14.9512878835
 20
12.7953395933
 30
0.0
 10
14.9597084475
 20
12.8756864814
 30
0.0
 10
14.9701911525
 20
12.954413828
 30
0.0
 10
14.9826892749
 20
13.0311727943
 30
0.0
 10
14.9971467696
 20
13.1056220077
 30
0.0
 10
15.0082238677
 20
13.1542658454
 30
0.0
 10
15.0140953746
 20
13.1781269181
 30
0.0
  0
SPLINE
  5
368
100
AcDbEntity
  8
02___PRT_ALL_AXES
100
AcDbSpline
 62
7
  6
CONTINUOUS
 70
0
 71
3
 72
17
 73
13
 74
0
 42
0.0000001
 43
0.0000001
 44
0.0000000001
 40
0.0
 40
0.0
 40
0.0
 40
0.0
 40
0.148931437
 40
0.2893273095
 40
0.4217568583
 40
0.4852398503
 40
0.5470433456
 40
0.6661135048
 40
0.7802658521
 40
0.8909841899
 40
0.9456036543
 40
1.0
 40
1.0
 40
1.0
 40
1.0
 10
15.3316115615
 20
11.4914134592
 30
0.0
 10
15.3385828709
 20
11.4831155377
 30
0.0
 10
15.3526793716
 20
11.4674462769
 30
0.0
 10
15.3749562321
 20
11.4462876272
 30
0.0
 10
15.3941512916
 20
11.4310415941
 30
0.0
 10
15.409681234
 20
11.4205144453
 30
0.0
 10
15.4249086829
 20
11.4113195981
 30
0.0
 10
15.4441806438
 20
11.4017413734
 30
0.0
 10
15.4678410595
 20
11.393385751
 30
0.0
 10
15.4878077382
 20
11.3891715339
 30
0.0
 10
15.5037208303
 20
11.3875051779
 30
0.0
 10
15.5116569051
 20
11.3872280481
 30
0.0
 10
15.515615294
 20
11.3872280483
 30
0.0
  0
SPLINE
  5
369
100
AcDbEntity
  8
02___PRT_ALL_AXES
100
AcDbSpline
 62
7
  6
CONTINUOUS
 70
0
 71
3
 72
15
 73
11
 74
0
 42
0.0000001
 43
0.0000001
 44
0.0000000001
 40
0.0
 40
0.0
 40
0.0
 40
0.0
 40
0.1088237234
 40
0.2194334256
 40
0.3335107993
 40
0.4525517839
 40
0.5778197781
 40
0.7103320132
 40
0.8508695251
 40
1.0
 40
1.0
 40
1.0
 40
1.0
 10
15.5876554218
 20
12.198299475
 30
0.0
 10
15.5898731734
 20
12.1982994731
 30
0.0
 10
15.5943512165
 20
12.1986157588
 30
0.0
 10
15.6010190334
 20
12.2000320541
 30
0.0
 10
15.6076380947
 20
12.2023829869
 30
0.0
 10
15.6141855503
 20
12.2056564663
 30
0.0
 10
15.6206432246
 20
12.2098383811
 30
0.0
 10
15.6269938872
 20
12.2149134702
 30
0.0
 10
15.6332206833
 20
12.220864667
 30
0.0
 10
15.6371589934
 20
12.2252705945
 30
0.0
 10
15.6391064946
 20
12.2276037951
 30
0.0
  0
SPLINE
  5
36A
100
AcDbEntity
  8
02___PRT_ALL_AXES
100
AcDbSpline
 62
7
  6
CONTINUOUS
 70
0
 71
3
 72
14
 73
10
 74
0
 42
0.0000001
 43
0.0000001
 44
0.0000000001
 40
0.0
 40
0.0
 40
0.0
 40
0.0
 40
0.1030463521
 40
0.2124513311
 40
0.3282702649
 40
0.4504705364
 40
0.5789451896
 40
0.7135239684
 40
1.0
 40
1.0
 40
1.0
 40
1.0
 10
15.6425103736
 20
12.2316818129
 30
0.0
 10
15.644674783
 20
12.23427488
 30
0.0
 10
15.6489339122
 20
12.2397929167
 30
0.0
 10
15.6549397402
 20
12.2487285618
 30
0.0
 10
15.660733568
 20
12.2585393361
 30
0.0
 10
15.6662961112
 20
12.2691923145
 30
0.0
 10
15.6716095935
 20
12.2806528071
 30
0.0
 10
15.6784813769
 20
12.2973073892
 30
0.0
 10
15.6829806705
 20
12.3103720482
 30
0.0
 10
15.6857530912
 20
12.3193436047
 30
0.0
  0
SPLINE
  5
36B
100
AcDbEntity
  8
0
100
AcDbSpline
 62
7
  6
CONTINUOUS
 70
0
 71
3
 72
10
 73
6
 74
0
 42
0.0000001
 43
0.0000001
 44
0.0000000001
 40
0.0
 40
0.0
 40
0.0
 40
0.0
 40
0.5166907886
 40
0.7660188575
 40
1.0
 40
1.0
 40
1.0
 40
1.0
 10
15.1237652755
 20
13.2183757238
 30
0.0
 10
15.1238599105
 20
13.2199741958
 30
0.0
 10
15.1238324778
 20
13.2223589328
 30
0.0
 10
15.1234595747
 20
13.2254373386
 30
0.0
 10
15.1231600435
 20
13.2269073931
 30
0.0
 10
15.1229805698
 20
13.2276099602
 30
0.0
  0
SPLINE
  5
36C
100
AcDbEntity
  8
0
100
AcDbSpline
 62
7
  6
CONTINUOUS
 70
0
 71
3
 72
11
 73
7
 74
0
 42
0.0000001
 43
0.0000001
 44
0.0000000001
 40
0.0
 40
0.0
 40
0.0
 40
0.0
 40
0.2391685804
 40
0.4982600787
 40
0.7582511574
 40
1.0
 40
1.0
 40
1.0
 40
1.0
 10
15.121138338
 20
13.2376462308
 30
0.0
 10
15.1210801172
 20
13.2374313887
 30
0.0
 10
15.1209957797
 20
13.2369735844
 30
0.0
 10
15.1209524151
 20
13.2362678137
 30
0.0
 10
15.1209885139
 20
13.2355592261
 30
0.0
 10
15.1210678936
 20
13.2350973185
 30
0.0
 10
15.1211235805
 20
13.2348793264
 30
0.0
  0
SPLINE
  5
36D
100
AcDbEntity
  8
0
100
AcDbSpline
 62
7
  6
CONTINUOUS
 70
0
 71
3
 72
10
 73
6
 74
0
 42
0.0000001
 43
0.0000001
 44
0.0000000001
 40
0.0
 40
0.0
 40
0.0
 40
0.0
 40
0.5141973208
 40
0.7641725118
 40
1.0
 40
1.0
 40
1.0
 40
1.0
 10
15.1326142343
 20
13.2497289976
 30
0.0
 10
15.1327289352
 20
13.2513268519
 30
0.0
 10
15.1327290171
 20
13.253718528
 30
0.0
 10
15.1323942044
 20
13.2568176953
 30
0.0
 10
15.1321131838
 20
13.2583072722
 30
0.0
 10
15.1319428683
 20
13.2590219723
 30
0.0
  0
SPLINE
  5
36E
100
AcDbEntity
  8
0
100
AcDbSpline
 62
7
  6
CONTINUOUS
 70
0
 71
3
 72
11
 73
7
 74
0
 42
0.0000001
 43
0.0000001
 44
0.0000000001
 40
0.0
 40
0.0
 40
0.0
 40
0.0
 40
0.2362145834
 40
0.4942673543
 40
0.755284153
 40
1.0
 40
1.0
 40
1.0
 40
1.0
 10
15.1302243084
 20
13.2692018863
 30
0.0
 10
15.1301632081
 20
13.2689908783
 30
0.0
 10
15.1300732228
 20
13.2685382042
 30
0.0
 10
15.1300215684
 20
13.2678362931
 30
0.0
 10
15.1300492978
 20
13.267125107
 30
0.0
 10
15.1301229574
 20
13.2666589207
 30
0.0
 10
15.1301757137
 20
13.2664375376
 30
0.0
  0
SPLINE
  5
36F
100
AcDbEntity
  8
0
100
AcDbSpline
 62
7
  6
CONTINUOUS
 70
0
 71
3
 72
9
 73
5
 74
0
 42
0.0000001
 43
0.0000001
 44
0.0000000001
 40
0.0
 40
0.0
 40
0.0
 40
0.0
 40
0.5119103977
 40
1.0
 40
1.0
 40
1.0
 40
1.0
 10
15.1418423376
 20
13.2803530371
 30
0.0
 10
15.1419771874
 20
13.2819486687
 30
0.0
 10
15.1420124591
 20
13.2850874404
 30
0.0
 10
15.1416155846
 20
13.2882049985
 30
0.0
 10
15.1412849739
 20
13.2896955792
 30
0.0
  0
SPLINE
  5
370
100
AcDbEntity
  8
0
100
AcDbSpline
 62
7
  6
CONTINUOUS
 70
0
 71
3
 72
11
 73
7
 74
0
 42
0.0000001
 43
0.0000001
 44
0.0000000001
 40
0.0
 40
0.0
 40
0.0
 40
0.0
 40
0.2332642467
 40
0.4902698403
 40
0.7523067551
 40
1.0
 40
1.0
 40
1.0
 40
1.0
 10
15.1396917819
 20
13.3000090903
 30
0.0
 10
15.1396278329
 20
13.2998021513
 30
0.0
 10
15.1395322461
 20
13.2993550561
 30
0.0
 10
15.1394723569
 20
13.2986576723
 30
0.0
 10
15.1394916873
 20
13.2979445659
 30
0.0
 10
15.1395595959
 20
13.297474561
 30
0.0
 10
15.1396093979
 20
13.2972500253
 30
0.0
  0
SPLINE
  5
371
100
AcDbEntity
  8
LAYER_CUT_FEAT
100
AcDbSpline
 62
7
  6
CONTINUOUS
 70
0
 71
3
 72
14
 73
10
 74
0
 42
0.0000001
 43
0.0000001
 44
0.0000000001
 40
0.0
 40
0.0
 40
0.0
 40
0.0
 40
0.2885625072
 40
0.4275161793
 40
0.5603429186
 40
0.6853255446
 40
0.8009767084
 40
0.9061185161
 40
1.0
 40
1.0
 40
1.0
 40
1.0
 10
15.4604236598
 20
12.187161105
 30
0.0
 10
15.4603999457
 20
12.1917145876
 30
0.0
 10
15.4600346746
 20
12.1984667346
 30
0.0
 10
15.4588530283
 20
12.2072329472
 30
0.0
 10
15.4576622012
 20
12.2133836946
 30
0.0
 10
15.4561764387
 20
12.2190910572
 30
0.0
 10
15.4544200344
 20
12.2242632344
 30
0.0
 10
15.4524222852
 20
12.2288163378
 30
0.0
 10
15.4508591611
 20
12.2315510237
 30
0.0
 10
15.4500335829
 20
12.2327811218
 30
0.0
  0
SPLINE
  5
372
100
AcDbEntity
  8
0
100
AcDbSpline
 62
7
  6
CONTINUOUS
 70
0
 71
3
 72
42
 73
38
 74
0
 42
0.0000001
 43
0.0000001
 44
0.0000000001
 40
0.0
 40
0.0
 40
0.0
 40
0.0
 40
0.0350570573
 40
0.0711591636
 40
0.108181223
 40
0.1459913632
 40
0.1844522103
 40
0.2234219608
 40
0.2627554175
 40
0.3023049908
 40
0.3419216826
 40
0.3814560612
 40
0.4207592275
 40
0.4596837894
 40
0.4980848491
 40
0.5358210068
 40
0.5727554022
 40
0.6087568092
 40
0.64370079
 40
0.6774709504
 40
0.7099603422
 40
0.7410730446
 40
0.7707260076
 40
0.7988512738
 40
0.8253987046
 40
0.8503393777
 40
0.8736699076
 40
0.8954179373
 40
0.9156489567
 40
0.934474391
 40
0.9520602044
 40
0.9604623228
 40
0.96864532
 40
0.9766474782
 40
0.9845105491
 40
0.9922791596
 40
1.0
 40
1.0
 40
1.0
 40
1.0
 10
15.1055435733
 20
13.1781269181
 30
0.0
 10
15.0996720664
 20
13.1542658454
 30
0.0
 10
15.0885949683
 20
13.1056220077
 30
0.0
 10
15.0741374735
 20
13.0311727943
 30
0.0
 10
15.0616393512
 20
12.954413828
 30
0.0
 10
15.0511566462
 20
12.8756864814
 30
0.0
 10
15.0427360822
 20
12.7953395933
 30
0.0
 10
15.0364152724
 20
12.7137297328
 30
0.0
 10
15.0322224437
 20
12.6312190531
 30
0.0
 10
15.0301763323
 20
12.5481738034
 30
0.0
 10
15.0302860669
 20
12.4649626363
 30
0.0
 10
15.0325511559
 20
12.381954954
 30
0.0
 10
15.0369614922
 20
12.2995192412
 30
0.0
 10
15.043497374
 20
12.2180214028
 30
0.0
 10
15.052129606
 20
12.1378231106
 30
0.0
 10
15.0628196483
 20
12.0592801683
 30
0.0
 10
15.0755197874
 20
11.9827408926
 30
0.0
 10
15.090173343
 20
11.9085445173
 30
0.0
 10
15.1067149714
 20
11.837019637
 30
0.0
 10
15.1250709987
 20
11.7684826808
 30
0.0
 10
15.1451597853
 20
11.7032364132
 30
0.0
 10
15.1668922108
 20
11.6415684901
 30
0.0
 10
15.1901722594
 20
11.5837500707
 30
0.0
 10
15.2148977002
 20
11.5300344879
 30
0.0
 10
15.2409609815
 20
11.4806560131
 30
0.0
 10
15.26825032
 20
11.435828887
 30
0.0
 10
15.2966514436
 20
11.3957465795
 30
0.0
 10
15.3260484039
 20
11.3605822189
 30
0.0
 10
15.3563286
 20
11.3304887456
 30
0.0
 10
15.3873732316
 20
11.3056064723
 30
0.0
 10
15.4141991922
 20
11.2890699302
 30
0.0
 10
15.4358292833
 20
11.2787393344
 30
0.0
 10
15.4519049044
 20
11.2724798873
 30
0.0
 10
15.4680584707
 20
11.2676018785
 30
0.0
 10
15.4842721632
 20
11.2641120984
 30
0.0
 10
15.5005248318
 20
11.2620160056
 30
0.0
 10
15.5113876772
 20
11.2615494859
 30
0.0
 10
15.5167995153
 20
11.2615494798
 30
0.0
  0
SPLINE
  5
373
100
AcDbEntity
  8
LAYER_CUT_FEAT
100
AcDbSpline
 62
7
  6
CONTINUOUS
 70
0
 71
3
 72
11
 73
7
 74
0
 42
0.0000001
 43
0.0000001
 44
0.0000000001
 40
0.0
 40
0.0
 40
0.0
 40
0.0
 40
0.2708293485
 40
0.5279994559
 40
0.7711255602
 40
1.0
 40
1.0
 40
1.0
 40
1.0
 10
15.4247395599
 20
12.2825024422
 30
0.0
 10
15.4265845571
 20
12.2778067415
 30
0.0
 10
15.4303754992
 20
12.2687265386
 30
0.0
 10
15.4365390073
 20
12.2557444332
 30
0.0
 10
15.4430117962
 20
12.2437948399
 30
0.0
 10
15.4476575909
 20
12.2363213108
 30
0.0
 10
15.4500335829
 20
12.2327811218
 30
0.0
  0
SPLINE
  5
374
100
AcDbEntity
  8
LAYER_CUT_FEAT
100
AcDbSpline
 62
7
  6
CONTINUOUS
 70
0
 71
3
 72
15
 73
11
 74
0
 42
0.0000001
 43
0.0000001
 44
0.0000000001
 40
0.0
 40
0.0
 40
0.0
 40
0.0
 40
0.168947045
 40
0.3244708144
 40
0.466215787
 40
0.5943091406
 40
0.7095380779
 40
0.8135554084
 40
0.9090911375
 40
1.0
 40
1.0
 40
1.0
 40
1.0
 10
15.4247395599
 20
12.2825024422
 30
0.0
 10
15.4242753468
 20
12.2836839105
 30
0.0
 10
15.4233113509
 20
12.2859257514
 30
0.0
 10
15.4216827554
 20
12.2890315213
 30
0.0
 10
15.4199432858
 20
12.2917190645
 30
0.0
 10
15.418107019
 20
12.2939642648
 30
0.0
 10
15.4161871054
 20
12.2957466427
 30
0.0
 10
15.4141945001
 20
12.2970468958
 30
0.0
 10
15.412143669
 20
12.2978433344
 30
0.0
 10
15.4107371841
 20
12.298024373
 30
0.0
 10
15.4100541347
 20
12.298024364
 30
0.0
  0
SPLINE
  5
375
100
AcDbEntity
  8
LAYER_CUT_FEAT
100
AcDbSpline
 62
7
  6
CONTINUOUS
 70
0
 71
3
 72
16
 73
12
 74
0
 42
0.0000001
 43
0.0000001
 44
0.0000000001
 40
0.0
 40
0.0
 40
0.0
 40
0.0
 40
0.1749526825
 40
0.3364653924
 40
0.4830667828
 40
0.6138823635
 40
0.7288790621
 40
0.8292355256
 40
0.9178492471
 40
0.9593651511
 40
1.0
 40
1.0
 40
1.0
 40
1.0
 10
15.2506067459
 20
13.31378036
 30
0.0
 10
15.2501545433
 20
13.3156125471
 30
0.0
 10
15.2491752589
 20
13.3191107372
 30
0.0
 10
15.2474026876
 20
13.3240163787
 30
0.0
 10
15.2454064152
 20
13.3283177325
 30
0.0
 10
15.243215665
 20
13.3319514672
 30
0.0
 10
15.2408568504
 20
13.3348659728
 30
0.0
 10
15.2383546688
 20
13.3370187268
 30
0.0
 10
15.2361075419
 20
13.3381605216
 30
0.0
 10
15.2343121289
 20
13.3386009464
 30
0.0
 10
15.2334243586
 20
13.3386734705
 30
0.0
 10
15.2329860417
 20
13.3386734685
 30
0.0
  0
SPLINE
  5
376
100
AcDbEntity
  8
LAYER_CUT_FEAT
100
AcDbSpline
 62
7
  6
CONTINUOUS
 70
0
 71
3
 72
20
 73
16
 74
0
 42
0.0000001
 43
0.0000001
 44
0.0000000001
 40
0.0
 40
0.0
 40
0.0
 40
0.0
 40
0.0335274742
 40
0.0688081209
 40
0.1072955463
 40
0.1500098456
 40
0.1975598549
 40
0.2502257876
 40
0.3080406423
 40
0.3708525679
 40
0.4383691308
 40
0.5101886361
 40
0.6646730187
 40
0.8297158068
 40
1.0
 40
1.0
 40
1.0
 40
1.0
 10
15.4432971909
 20
11.4160081088
 30
0.0
 10
15.443990118
 20
11.4160081171
 30
0.0
 10
15.4454180502
 20
11.4161946644
 30
0.0
 10
15.4474980998
 20
11.4170147105
 30
0.0
 10
15.4495171857
 20
11.4183524214
 30
0.0
 10
15.4514605665
 20
11.4201850444
 30
0.0
 10
15.4533169481
 20
11.4224923948
 30
0.0
 10
15.4550726436
 20
11.4252529095
 30
0.0
 10
15.4567130194
 20
11.4284413329
 30
0.0
 10
15.4582231546
 20
11.4320280438
 30
0.0
 10
15.4595889233
 20
11.4359791998
 30
0.0
 10
15.4612394543
 20
11.4418259237
 30
0.0
 10
15.4628237531
 20
11.4497711695
 30
0.0
 10
15.4639474121
 20
11.459841736
 30
0.0
 10
15.4641753506
 20
11.4667766211
 30
0.0
 10
15.4641570225
 20
11.4702959122
 30
0.0
  0
SPLINE
  5
377
100
AcDbEntity
  8
LAYER_CUT_FEAT
100
AcDbSpline
 62
7
  6
CONTINUOUS
 70
0
 71
3
 72
19
 73
15
 74
0
 42
0.0000001
 43
0.0000001
 44
0.0000000001
 40
0.0
 40
0.0
 40
0.0
 40
0.0
 40
0.0354054069
 40
0.0722245615
 40
0.111681511
 40
0.1547071112
 40
0.2019301134
 40
0.2537190409
 40
0.310235365
 40
0.3714799356
 40
0.5074993667
 40
0.6597911798
 40
0.8252311861
 40
1.0
 40
1.0
 40
1.0
 40
1.0
 10
15.9165020063
 20
12.2532319568
 30
0.0
 10
15.9171031494
 20
12.2532319559
 30
0.0
 10
15.9183333919
 20
12.25337066
 30
0.0
 10
15.9201405539
 20
12.2539849472
 30
0.0
 10
15.9219092758
 20
12.2549938271
 30
0.0
 10
15.923627752
 20
12.256383588
 30
0.0
 10
15.925287496
 20
12.2581414096
 30
0.0
 10
15.9268791875
 20
12.2602540779
 30
0.0
 10
15.9283932366
 20
12.2627066327
 30
0.0
 10
15.9303636328
 20
12.2665426349
 30
0.0
 10
15.9325227089
 20
12.272087915
 30
0.0
 10
15.9345739687
 20
12.2795242638
 30
0.0
 10
15.9361085018
 20
12.2877531329
 30
0.0
 10
15.9367443163
 20
12.2935000512
 30
0.0
 10
15.9369710679
 20
12.2964587486
 30
0.0
  0
SPLINE
  5
378
100
AcDbEntity
  8
02___PRT_ALL_AXES
100
AcDbSpline
 62
7
  6
CONTINUOUS
 70
0
 71
3
 72
27
 73
23
 74
0
 42
0.0000001
 43
0.0000001
 44
0.0000000001
 40
0.0
 40
0.0
 40
0.0
 40
0.0
 40
0.0939539535
 40
0.1827015855
 40
0.2659318199
 40
0.3434285993
 40
0.4150939454
 40
0.4809783717
 40
0.5413212223
 40
0.5695699361
 40
0.5966369465
 40
0.6476285345
 40
0.6954408439
 40
0.7186216412
 40
0.7415654216
 40
0.7644821094
 40
0.7875825453
 40
0.8110714321
 40
0.8351410782
 40
0.8856565039
 40
0.9403376808
 40
1.0
 40
1.0
 40
1.0
 40
1.0
 10
15.4978473013
 20
12.7022553451
 30
0.0
 10
15.4998167419
 20
12.7086284573
 30
0.0
 10
15.5039306204
 20
12.7209366315
 30
0.0
 10
15.5108444716
 20
12.7385155513
 30
0.0
 10
15.5182899308
 20
12.7545995819
 30
0.0
 10
15.5262191407
 20
12.7690847843
 30
0.0
 10
15.5345833631
 20
12.7818796375
 30
0.0
 10
15.5433315367
 20
12.7929017431
 30
0.0
 10
15.5510669408
 20
12.8007180892
 30
0.0
 10
15.5574033922
 20
12.8059510168
 30
0.0
 10
15.5635562165
 20
12.8103311052
 30
0.0
 10
15.5714179067
 20
12.8146702975
 30
0.0
 10
15.5796882334
 20
12.817432117
 30
0.0
 10
15.5862723869
 20
12.8185575781
 30
0.0
 10
15.591172622
 20
12.8188807603
 30
0.0
 10
15.5960738287
 20
12.8186893759
 30
0.0
 10
15.6009667298
 20
12.8179843402
 30
0.0
 10
15.6058421742
 20
12.8167672632
 30
0.0
 10
15.6124110866
 20
12.8144297669
 30
0.0
 10
15.6205872146
 20
12.8101500948
 30
0.0
 10
15.6299957223
 20
12.8031235058
 30
0.0
 10
15.6358117449
 20
12.7974256762
 30
0.0
 10
15.6386748917
 20
12.7943039897
 30
0.0
  0
SPLINE
  5
379
100
AcDbEntity
  8
02___PRT_ALL_AXES
100
AcDbSpline
 62
7
  6
CONTINUOUS
 70
0
 71
3
 72
22
 73
18
 74
0
 42
0.0000001
 43
0.0000001
 44
0.0000000001
 40
0.0
 40
0.0
 40
0.0
 40
0.0
 40
0.1726670212
 40
0.2539494884
 40
0.331674113
 40
0.4057409
 40
0.476084076
 40
0.542677887
 40
0.6055435975
 40
0.6647580381
 40
0.7204638021
 40
0.7728807873
 40
0.8223183085
 40
0.8691857167
 40
0.9139978565
 40
0.9573703284
 40
1.0
 40
1.0
 40
1.0
 40
1.0
 10
15.4923298384
 20
12.70505259
 30
0.0
 10
15.4950641779
 20
12.7139009158
 30
0.0
 10
15.4994930531
 20
12.7267975691
 30
0.0
 10
15.506231886
 20
12.7432654648
 30
0.0
 10
15.5114410456
 20
12.7546340623
 30
0.0
 10
15.5168904622
 20
12.7652341939
 30
0.0
 10
15.5225635243
 20
12.7750330937
 30
0.0
 10
15.5284428475
 20
12.7840003283
 30
0.0
 10
15.5345107773
 20
12.7921081586
 30
0.0
 10
15.5407494598
 20
12.7993314417
 30
0.0
 10
15.5471410112
 20
12.8056475346
 30
0.0
 10
15.5536675763
 20
12.8110360157
 30
0.0
 10
15.5603112743
 20
12.8154782773
 30
0.0
 10
15.5670534241
 20
12.8189571056
 30
0.0
 10
15.5738744285
 20
12.8214566053
 30
0.0
 10
15.5807493968
 20
12.8229629522
 30
0.0
 10
15.5853689335
 20
12.8232994768
 30
0.0
 10
15.5876554218
 20
12.8232994748
 30
0.0
  0
SPLINE
  5
37A
100
AcDbEntity
  8
LAYER_CUT_FEAT
100
AcDbSpline
 62
7
  6
CONTINUOUS
 70
0
 71
3
 72
15
 73
11
 74
0
 42
0.0000001
 43
0.0000001
 44
0.0000000001
 40
0.0
 40
0.0
 40
0.0
 40
0.0
 40
0.0850889439
 40
0.1826023906
 40
0.2928302226
 40
0.4152583348
 40
0.5488128481
 40
0.6920121879
 40
0.8430737309
 40
1.0
 40
1.0
 40
1.0
 40
1.0
 10
15.3767884935
 20
12.5388330458
 30
0.0
 10
15.3776986011
 20
12.5396271197
 30
0.0
 10
15.379463794
 20
12.5415488656
 30
0.0
 10
15.3817725635
 20
12.5450185271
 30
0.0
 10
15.3838884651
 20
12.5492108487
 30
0.0
 10
15.3857782831
 20
12.5540602584
 30
0.0
 10
15.3874127335
 20
12.5594910402
 30
0.0
 10
15.3887647331
 20
12.565415651
 30
0.0
 10
15.3898117421
 20
12.5717374593
 30
0.0
 10
15.3902878721
 20
12.5760857616
 30
0.0
 10
15.3904735602
 20
12.5783055601
 30
0.0
  0
SPLINE
  5
37B
100
AcDbEntity
  8
02___PRT_ALL_AXES
100
AcDbSpline
 62
7
  6
CONTINUOUS
 70
0
 71
3
 72
17
 73
13
 74
0
 42
0.0000001
 43
0.0000001
 44
0.0000000001
 40
0.0
 40
0.0
 40
0.0
 40
0.0
 40
0.0351251028
 40
0.0717077987
 40
0.1110031584
 40
0.1539557709
 40
0.2529212171
 40
0.3709515743
 40
0.5074279337
 40
0.6600896623
 40
0.8256166075
 40
1.0
 40
1.0
 40
1.0
 40
1.0
 10
15.6006451954
 20
12.3219442282
 30
0.0
 10
15.6008496535
 20
12.3219442331
 30
0.0
 10
15.6012684509
 20
12.3219924269
 30
0.0
 10
15.6018830009
 20
12.3222057631
 30
0.0
 10
15.6024839233
 20
12.3225557728
 30
0.0
 10
15.6032996579
 20
12.3232304439
 30
0.0
 10
15.6042504047
 20
12.324426354
 30
0.0
 10
15.6052252235
 20
12.3262455903
 30
0.0
 10
15.6060643333
 20
12.3284680737
 30
0.0
 10
15.6067425946
 20
12.3310299804
 30
0.0
 10
15.6072397185
 20
12.3338566822
 30
0.0
 10
15.6074365033
 20
12.3358274307
 30
0.0
 10
15.6075028266
 20
12.3368403215
 30
0.0
  0
SPLINE
  5
37C
100
AcDbEntity
  8
LAYER_CUT_FEAT
100
AcDbSpline
 62
7
  6
CONTINUOUS
 70
0
 71
3
 72
9
 73
5
 74
0
 42
0.0000001
 43
0.0000001
 44
0.0000000001
 40
0.0
 40
0.0
 40
0.0
 40
0.0
 40
0.4906239054
 40
1.0
 40
1.0
 40
1.0
 40
1.0
 10
15.4010720084
 20
12.6554445927
 30
0.0
 10
15.3986190312
 20
12.6429442642
 30
0.0
 10
15.3943967647
 20
12.6173091034
 30
0.0
 10
15.3915760442
 20
12.5914851497
 30
0.0
 10
15.3904735602
 20
12.5783055601
 30
0.0
  0
SPLINE
  5
37D
100
AcDbEntity
  8
LAYER_CUT_FEAT
100
AcDbSpline
 62
7
  6
CONTINUOUS
 70
0
 71
3
 72
19
 73
15
 74
0
 42
0.0000001
 43
0.0000001
 44
0.0000000001
 40
0.0
 40
0.0
 40
0.0
 40
0.0
 40
0.0313102452
 40
0.0653645444
 40
0.1041757123
 40
0.1488608392
 40
0.1998308489
 40
0.2570081921
 40
0.3199790488
 40
0.388090552
 40
0.5362330237
 40
0.693559766
 40
0.8511358387
 40
1.0
 40
1.0
 40
1.0
 40
1.0
 10
15.6405803707
 20
12.3743458253
 30
0.0
 10
15.6408857586
 20
12.3743458338
 30
0.0
 10
15.6415272294
 20
12.3744584143
 30
0.0
 10
15.6424359418
 20
12.3749401931
 30
0.0
 10
15.6432969035
 20
12.3757100003
 30
0.0
 10
15.6441041585
 20
12.3767503313
 30
0.0
 10
15.6448501101
 20
12.3780450786
 30
0.0
 10
15.6455244093
 20
12.379574606
 30
0.0
 10
15.6461166405
 20
12.3813147655
 30
0.0
 10
15.6468024973
 20
12.3839524546
 30
0.0
 10
15.6473736714
 20
12.3875604207
 30
0.0
 10
15.6476103459
 20
12.3920778921
 30
0.0
 10
15.647398217
 20
12.3966033755
 30
0.0
 10
15.646947275
 20
12.3995660178
 30
0.0
 10
15.646635411
 20
12.4009840927
 30
0.0
  0
SPLINE
  5
37E
100
AcDbEntity
  8
LAYER_CUT_FEAT
100
AcDbSpline
 62
7
  6
CONTINUOUS
 70
0
 71
3
 72
12
 73
8
 74
0
 42
0.0000001
 43
0.0000001
 44
0.0000000001
 40
0.0
 40
0.0
 40
0.0
 40
0.0
 40
0.2468394164
 40
0.5053502263
 40
0.7610912712
 40
0.8834929938
 40
1.0
 40
1.0
 40
1.0
 40
1.0
 10
15.4010720084
 20
12.6554445927
 30
0.0
 10
15.4019142076
 20
12.6597364249
 30
0.0
 10
15.4030943559
 20
12.6686347282
 30
0.0
 10
15.4035034389
 20
12.6821331482
 30
0.0
 10
15.402736751
 20
12.6934103633
 30
0.0
 10
15.4014325023
 20
12.7020810417
 30
0.0
 10
15.4005573568
 20
12.7062262154
 30
0.0
 10
15.4000626955
 20
12.7082304322
 30
0.0
  0
SPLINE
  5
37F
100
AcDbEntity
  8
LAYER_CUT_FEAT
100
AcDbSpline
 62
7
  6
CONTINUOUS
 70
0
 71
3
 72
18
 73
14
 74
0
 42
0.0000001
 43
0.0000001
 44
0.0000000001
 40
0.0
 40
0.0
 40
0.0
 40
0.0
 40
0.1214376149
 40
0.2545283417
 40
0.3941288145
 40
0.5346162596
 40
0.6703048859
 40
0.7346769923
 40
0.7959015048
 40
0.8534405778
 40
0.906841363
 40
0.9557603028
 40
1.0
 40
1.0
 40
1.0
 40
1.0
 10
15.7292049153
 20
13.3994026678
 30
0.0
 10
15.7302392263
 20
13.4026094163
 30
0.0
 10
15.7319528662
 20
13.4094798254
 30
0.0
 10
15.7335196332
 20
13.4203167208
 30
0.0
 10
15.7341519893
 20
13.4317781042
 30
0.0
 10
15.7338177566
 20
13.4433223773
 30
0.0
 10
15.7327303645
 20
13.4527233697
 30
0.0
 10
15.7313670518
 20
13.4598465169
 30
0.0
 10
15.7301460797
 20
13.4647817901
 30
0.0
 10
15.7287239392
 20
13.4693453698
 30
0.0
 10
15.7271172499
 20
13.4734840656
 30
0.0
 10
15.7253452823
 20
13.4771492715
 30
0.0
 10
15.7239980831
 20
13.4793623854
 30
0.0
 10
15.7232950617
 20
13.4803686017
 30
0.0
  0
SPLINE
  5
380
100
AcDbEntity
  8
02___PRT_ALL_AXES
100
AcDbSpline
 62
7
  6
CONTINUOUS
 70
0
 71
3
 72
11
 73
7
 74
0
 42
0.0000001
 43
0.0000001
 44
0.0000000001
 40
0.0
 40
0.0
 40
0.0
 40
0.0
 40
0.2359726277
 40
0.4767024574
 40
0.7293810505
 40
1.0
 40
1.0
 40
1.0
 40
1.0
 10
15.5897443051
 20
12.6892928446
 30
0.0
 10
15.5915236194
 20
12.6894279942
 30
0.0
 10
15.5951555478
 20
12.6893436459
 30
0.0
 10
15.600568455
 20
12.6881262937
 30
0.0
 10
15.6059056605
 20
12.6858407982
 30
0.0
 10
15.609258951
 20
12.6837074876
 30
0.0
 10
15.6109087686
 20
12.6824966997
 30
0.0
  0
SPLINE
  5
381
100
AcDbEntity
  8
LAYER_CUT_FEAT
100
AcDbSpline
 62
7
  6
CONTINUOUS
 70
0
 71
3
 72
17
 73
13
 74
0
 42
0.0000001
 43
0.0000001
 44
0.0000000001
 40
0.0
 40
0.0
 40
0.0
 40
0.0
 40
0.1542202085
 40
0.298333604
 40
0.4328241544
 40
0.5584585287
 40
0.6763345665
 40
0.7879163226
 40
0.8419453676
 40
0.8951161777
 40
0.9477050773
 40
1.0
 40
1.0
 40
1.0
 40
1.0
 10
15.7232950617
 20
13.4803686017
 30
0.0
 10
15.7155558746
 20
13.4914454993
 30
0.0
 10
15.6998529357
 20
13.51237834
 30
0.0
 10
15.6747206071
 20
13.5408380612
 30
0.0
 10
15.6489051349
 20
13.5651712032
 30
0.0
 10
15.6224940831
 20
13.5852731252
 30
0.0
 10
15.5955816033
 20
13.6010481395
 30
0.0
 10
15.5725568306
 20
13.6106161276
 30
0.0
 10
15.554117999
 20
13.6159178598
 30
0.0
 10
15.5403878356
 20
13.6187328977
 30
0.0
 10
15.5266284174
 20
13.6204232719
 30
0.0
 10
15.517434162
 20
13.6207994645
 30
0.0
 10
15.512852111
 20
13.6207994681
 30
0.0
  0
SPLINE
  5
382
100
AcDbEntity
  8
02___PRT_ALL_AXES
100
AcDbSpline
 62
7
  6
CONTINUOUS
 70
0
 71
3
 72
23
 73
19
 74
0
 42
0.0000001
 43
0.0000001
 44
0.0000000001
 40
0.0
 40
0.0
 40
0.0
 40
0.0
 40
0.0428462026
 40
0.0904527823
 40
0.1426790292
 40
0.1992214207
 40
0.2596536851
 40
0.3234550218
 40
0.3900316494
 40
0.4587343617
 40
0.5288737853
 40
0.5997343655
 40
0.6705876905
 40
0.740705477
 40
0.8093725579
 40
0.8759002052
 40
0.9396400815
 40
1.0
 40
1.0
 40
1.0
 40
1.0
 10
15.6232816779
 20
12.6700234513
 30
0.0
 10
15.625691468
 20
12.6668815458
 30
0.0
 10
15.6303239443
 20
12.6598954086
 30
0.0
 10
15.6364371305
 20
12.648193127
 30
0.0
 10
15.6420163264
 20
12.634845534
 30
0.0
 10
15.6469945925
 20
12.6200104249
 30
0.0
 10
15.6513130214
 20
12.6038618542
 30
0.0
 10
15.6549190563
 20
12.5865924751
 30
0.0
 10
15.657768731
 20
12.5684091927
 30
0.0
 10
15.6598271256
 20
12.549530757
 30
0.0
 10
15.6610689906
 20
12.5301847378
 30
0.0
 10
15.6614790878
 20
12.5106046281
 30
0.0
 10
15.6610523863
 20
12.4910268759
 30
0.0
 10
15.6597941174
 20
12.4716878732
 30
0.0
 10
15.6577197376
 20
12.4528211035
 30
0.0
 10
15.6548546321
 20
12.4346537235
 30
0.0
 10
15.6512341239
 20
12.4174052203
 30
0.0
 10
15.6482563628
 20
12.4063215409
 30
0.0
 10
15.646635411
 20
12.4009840927
 30
0.0
  0
SPLINE
  5
383
100
AcDbEntity
  8
02___PRT_ALL_AXES
100
AcDbSpline
 62
7
  6
CONTINUOUS
 70
0
 71
3
 72
13
 73
9
 74
0
 42
0.0000001
 43
0.0000001
 44
0.0000000001
 40
0.0
 40
0.0
 40
0.0
 40
0.0
 40
0.2973043164
 40
0.4339162498
 40
0.5624185799
 40
0.682932064
 40
0.7957349734
 40
1.0
 40
1.0
 40
1.0
 40
1.0
 10
15.6374968166
 20
12.3761974311
 30
0.0
 10
15.6354686379
 20
12.3716569085
 30
0.0
 10
15.6322198209
 20
12.3651474916
 30
0.0
 10
15.6273011837
 20
12.3571226727
 30
0.0
 10
15.6235832182
 20
12.3518460237
 30
0.0
 10
15.6197434804
 20
12.3471583367
 30
0.0
 10
15.6146530597
 20
12.3418954719
 30
0.0
 10
15.6104387477
 20
12.3385879
 30
0.0
 10
15.6075028266
 20
12.3368403215
 30
0.0
  0
SPLINE
  5
384
100
AcDbEntity
  8
LAYER_CUT_FEAT
100
AcDbSpline
 62
7
  6
CONTINUOUS
 70
0
 71
3
 72
11
 73
7
 74
0
 42
0.0000001
 43
0.0000001
 44
0.0000000001
 40
0.0
 40
0.0
 40
0.0
 40
0.0
 40
0.2305186962
 40
0.4694035043
 40
0.7239933124
 40
1.0
 40
1.0
 40
1.0
 40
1.0
 10
15.1057334377
 20
12.3053438178
 30
0.0
 10
15.1063053462
 20
12.3053438213
 30
0.0
 10
15.1074733428
 20
12.3054689001
 30
0.0
 10
15.1091931084
 20
12.3060240582
 30
0.0
 10
15.1108799896
 20
12.3069372892
 30
0.0
 10
15.1119288224
 20
12.3077415276
 30
0.0
 10
15.1124447961
 20
12.3081917175
 30
0.0
  0
SPLINE
  5
385
100
AcDbEntity
  8
LAYER_CUT_FEAT
100
AcDbSpline
 62
7
  6
CONTINUOUS
 70
0
 71
3
 72
20
 73
16
 74
0
 42
0.0000001
 43
0.0000001
 44
0.0000000001
 40
0.0
 40
0.0
 40
0.0
 40
0.0
 40
0.033826087
 40
0.0693400324
 40
0.1079529509
 40
0.150670675
 40
0.1981085694
 40
0.2505658778
 40
0.30810186
 40
0.370595255
 40
0.4377869932
 40
0.5093105966
 40
0.6634363412
 40
0.828677428
 40
1.0
 40
1.0
 40
1.0
 40
1.0
 10
15.5026244082
 20
11.4011281179
 30
0.0
 10
15.503385951
 20
11.4011281083
 30
0.0
 10
15.5049531926
 20
11.4013276462
 30
0.0
 10
15.5072400256
 20
11.4022060371
 30
0.0
 10
15.5094634292
 20
11.4036408919
 30
0.0
 10
15.5116073391
 20
11.4056086347
 30
0.0
 10
15.5136596694
 20
11.4080882325
 30
0.0
 10
15.5156060436
 20
11.4110573934
 30
0.0
 10
15.517431101
 20
11.4144901867
 30
0.0
 10
15.5191191124
 20
11.4183562546
 30
0.0
 10
15.5206551023
 20
11.4226208931
 30
0.0
 10
15.5225276994
 20
11.4289453266
 30
0.0
 10
15.524360147
 20
11.4375677513
 30
0.0
 10
15.525728717
 20
11.4485404907
 30
0.0
 10
15.5260836345
 20
11.4561181241
 30
0.0
 10
15.5261212277
 20
11.4599750074
 30
0.0
  0
SPLINE
  5
386
100
AcDbEntity
  8
LAYER_CUT_FEAT
100
AcDbSpline
 62
7
  6
CONTINUOUS
 70
0
 71
3
 72
25
 73
21
 74
0
 42
0.0000001
 43
0.0000001
 44
0.0000000001
 40
0.0
 40
0.0
 40
0.0
 40
0.0
 40
0.0154555308
 40
0.0313011563
 40
0.06544235
 40
0.0843534724
 40
0.1047070106
 40
0.1500981028
 40
0.2020260666
 40
0.2603273263
 40
0.32448635
 40
0.3937384746
 40
0.4671388905
 40
0.5436125576
 40
0.6219952891
 40
0.7010700574
 40
0.779601057
 40
0.8563671693
 40
0.9301956313
 40
1.0
 40
1.0
 40
1.0
 40
1.0
 10
15.4285005112
 20
12.7648318771
 30
0.0
 10
15.4290344169
 20
12.7648318806
 30
0.0
 10
15.4301180465
 20
12.7649276926
 30
0.0
 10
15.4323117882
 20
12.7655106556
 30
0.0
 10
15.4344288753
 20
12.7666804462
 30
0.0
 10
15.4363932752
 20
12.7682875244
 30
0.0
 10
15.4384501939
 20
12.7703741191
 30
0.0
 10
15.4408759599
 20
12.7736601652
 30
0.0
 10
15.4434561763
 20
12.7783894863
 30
0.0
 10
15.4457655648
 20
12.7839636901
 30
0.0
 10
15.4477634701
 20
12.7902848803
 30
0.0
 10
15.4494139302
 20
12.7972415664
 30
0.0
 10
15.4506862852
 20
12.8047082277
 30
0.0
 10
15.4515568039
 20
12.8125492493
 30
0.0
 10
15.4520091867
 20
12.8206215059
 30
0.0
 10
15.452034922
 20
12.8287773712
 30
0.0
 10
15.4516335606
 20
12.8368675218
 30
0.0
 10
15.4508125881
 20
12.844744113
 30
0.0
 10
15.4495874943
 20
12.852262792
 30
0.0
 10
15.4484804011
 20
12.8571041302
 30
0.0
 10
15.4478555251
 20
12.8594331254
 30
0.0
  0
SPLINE
  5
387
100
AcDbEntity
  8
0
100
AcDbSpline
 62
7
  6
CONTINUOUS
 70
0
 71
3
 72
11
 73
7
 74
0
 42
0.0000001
 43
0.0000001
 44
0.0000000001
 40
0.0
 40
0.0
 40
0.0
 40
0.0
 40
0.2086749742
 40
0.4366904777
 40
0.6979695425
 40
1.0
 40
1.0
 40
1.0
 40
1.0
 10
15.1108514759
 20
13.1772772906
 30
0.0
 10
15.1110845247
 20
13.1772772903
 30
0.0
 10
15.1115753326
 20
13.1773663376
 30
0.0
 10
15.1122676127
 20
13.1777457388
 30
0.0
 10
15.11292122
 20
13.1783500204
 30
0.0
 10
15.1133000145
 20
13.1788559922
 30
0.0
 10
15.1134846079
 20
13.1791383079
 30
0.0
  0
SPLINE
  5
388
100
AcDbEntity
  8
LAYER_CUT_FEAT
100
AcDbSpline
 62
7
  6
CONTINUOUS
 70
0
 71
3
 72
15
 73
11
 74
0
 42
0.0000001
 43
0.0000001
 44
0.0000000001
 40
0.0
 40
0.0
 40
0.0
 40
0.0
 40
0.0866913492
 40
0.1789078402
 40
0.2810507485
 40
0.3959877065
 40
0.5252253691
 40
0.6692423957
 40
0.8277687339
 40
1.0
 40
1.0
 40
1.0
 40
1.0
 10
15.5350522009
 20
12.8278694494
 30
0.0
 10
15.5358223366
 20
12.8278694474
 30
0.0
 10
15.5374194168
 20
12.8281025311
 30
0.0
 10
15.5397263337
 20
12.8291190209
 30
0.0
 10
15.5419481995
 20
12.8307663117
 30
0.0
 10
15.5440685369
 20
12.8330123238
 30
0.0
 10
15.5460730475
 20
12.8358290538
 30
0.0
 10
15.5479431753
 20
12.8391852309
 30
0.0
 10
15.5496591658
 20
12.8430430794
 30
0.0
 10
15.5506488912
 20
12.8458126504
 30
0.0
 10
15.5511185675
 20
12.8472688215
 30
0.0
  0
SPLINE
  5
389
100
AcDbEntity
  8
LAYER_CUT_FEAT
100
AcDbSpline
 62
7
  6
CONTINUOUS
 70
0
 71
3
 72
19
 73
15
 74
0
 42
0.0000001
 43
0.0000001
 44
0.0000000001
 40
0.0
 40
0.0
 40
0.0
 40
0.0
 40
0.1326732962
 40
0.266351301
 40
0.3993803931
 40
0.5301208169
 40
0.5941381869
 40
0.6569932683
 40
0.7185012157
 40
0.7784851267
 40
0.8367773742
 40
0.8932211397
 40
0.9476719345
 40
1.0
 40
1.0
 40
1.0
 40
1.0
 10
15.9369710679
 20
12.2964587486
 30
0.0
 10
15.9403603209
 20
12.340682356
 30
0.0
 10
15.944997444
 20
12.4296440532
 30
0.0
 10
15.9456706677
 20
12.5632037222
 30
0.0
 10
15.9401065957
 20
12.6960043991
 30
0.0
 10
15.9302738393
 20
12.8051916503
 30
0.0
 10
15.9192929296
 20
12.8906180063
 30
0.0
 10
15.9096352177
 20
12.9528572937
 30
0.0
 10
15.8985344119
 20
13.0134852778
 30
0.0
 10
15.8860308838
 20
13.0722817094
 30
0.0
 10
15.8721704381
 20
13.1290325321
 30
0.0
 10
15.8570036411
 20
13.1835318373
 30
0.0
 10
15.8405862091
 20
13.235580716
 30
0.0
 10
15.828599604
 20
13.269215852
 30
0.0
 10
15.8223917659
 20
13.2855708428
 30
0.0
  0
SPLINE
  5
38A
100
AcDbEntity
  8
LAYER_CUT_FEAT
100
AcDbSpline
 62
7
  6
CONTINUOUS
 70
0
 71
3
 72
15
 73
11
 74
0
 42
0.0000001
 43
0.0000001
 44
0.0000000001
 40
0.0
 40
0.0
 40
0.0
 40
0.0
 40
0.1696011526
 40
0.3256966372
 40
0.4678567678
 40
0.5961439767
 40
0.7112972
 40
0.8149509249
 40
0.9098669315
 40
1.0
 40
1.0
 40
1.0
 40
1.0
 10
15.8223917659
 20
13.2855708428
 30
0.0
 10
15.8219254487
 20
13.2867993886
 30
0.0
 10
15.8209548907
 20
13.2891314296
 30
0.0
 10
15.8193082903
 20
13.2923653527
 30
0.0
 10
15.8175438348
 20
13.2951662951
 30
0.0
 10
15.8156765166
 20
13.2975080719
 30
0.0
 10
15.8137203317
 20
13.2993685563
 30
0.0
 10
15.8116867526
 20
13.3007270527
 30
0.0
 10
15.8095906707
 20
13.3015601896
 30
0.0
 10
15.8081509438
 20
13.3017498218
 30
0.0
 10
15.8074525934
 20
13.3017498242
 30
0.0
  0
SPLINE
  5
38B
100
AcDbEntity
  8
0
100
AcDbSpline
 62
7
  6
CONTINUOUS
 70
0
 71
3
 72
11
 73
7
 74
0
 42
0.0000001
 43
0.0000001
 44
0.0000000001
 40
0.0
 40
0.0
 40
0.0
 40
0.0
 40
0.1700034901
 40
0.3853395193
 40
0.6629568908
 40
1.0
 40
1.0
 40
1.0
 40
1.0
 10
15.1063503125
 20
13.1792509437
 30
0.0
 10
15.1062674413
 20
13.1792509446
 30
0.0
 10
15.106079703
 20
13.179181027
 30
0.0
 10
15.105860967
 20
13.1789347106
 30
0.0
 10
15.1056743023
 20
13.1785732617
 30
0.0
 10
15.1055839034
 20
13.1782861886
 30
0.0
 10
15.1055435733
 20
13.1781269181
 30
0.0
  0
SPLINE
  5
38C
100
AcDbEntity
  8
LAYER_CUT_FEAT
100
AcDbSpline
 62
7
  6
CONTINUOUS
 70
0
 71
3
 72
9
 73
5
 74
0
 42
0.0000001
 43
0.0000001
 44
0.0000000001
 40
0.0
 40
0.0
 40
0.0
 40
0.0
 40
0.4963958565
 40
1.0
 40
1.0
 40
1.0
 40
1.0
 10
15.512852111
 20
12.8322280461
 30
0.0
 10
15.5107087371
 20
12.8322280528
 30
0.0
 10
15.5063862127
 20
12.8319415045
 30
0.0
 10
15.5021388414
 20
12.831094538
 30
0.0
 10
15.5000365353
 20
12.8305388831
 30
0.0
  0
SPLINE
  5
38D
100
AcDbEntity
  8
0
100
AcDbSpline
 62
7
  6
CONTINUOUS
 70
0
 71
3
 72
11
 73
7
 74
0
 42
0.0000001
 43
0.0000001
 44
0.0000000001
 40
0.0
 40
0.0
 40
0.0
 40
0.0
 40
0.2119461164
 40
0.441462161
 40
0.7016401233
 40
1.0
 40
1.0
 40
1.0
 40
1.0
 10
15.1193657301
 20
13.2096859586
 30
0.0
 10
15.1195848645
 20
13.2096859575
 30
0.0
 10
15.1200440058
 20
13.2097639291
 30
0.0
 10
15.1206970925
 20
13.2100989475
 30
0.0
 10
15.1213177936
 20
13.2106356092
 30
0.0
 10
15.1216812483
 20
13.2110878528
 30
0.0
 10
15.1218586904
 20
13.2113401889
 30
0.0
  0
SPLINE
  5
38E
100
AcDbEntity
  8
0
100
AcDbSpline
 62
7
  6
CONTINUOUS
 70
0
 71
3
 72
11
 73
7
 74
0
 42
0.0000001
 43
0.0000001
 44
0.0000000001
 40
0.0
 40
0.0
 40
0.0
 40
0.0
 40
0.1720312387
 40
0.3876907557
 40
0.6642452913
 40
1.0
 40
1.0
 40
1.0
 40
1.0
 10
15.1146990666
 20
13.2120294451
 30
0.0
 10
15.1146189989
 20
13.2120294421
 30
0.0
 10
15.114438364
 20
13.2119647877
 30
0.0
 10
15.1142244259
 20
13.2117333835
 30
0.0
 10
15.1140406129
 20
13.2113922179
 30
0.0
 10
15.1139500766
 20
13.2111206562
 30
0.0
 10
15.113909203
 20
13.2109698276
 30
0.0
  0
SPLINE
  5
38F
100
AcDbEntity
  8
0
100
AcDbSpline
 62
7
  6
CONTINUOUS
 70
0
 71
3
 72
11
 73
7
 74
0
 42
0.0000001
 43
0.0000001
 44
0.0000000001
 40
0.0
 40
0.0
 40
0.0
 40
0.0
 40
0.2152508646
 40
0.4463297177
 40
0.705433559
 40
1.0
 40
1.0
 40
1.0
 40
1.0
 10
15.1282722034
 20
13.2413918733
 30
0.0
 10
15.1284774745
 20
13.2413918825
 30
0.0
 10
15.1289054245
 20
13.2414596496
 30
0.0
 10
15.1295188581
 20
13.2417531193
 30
0.0
 10
15.1301056051
 20
13.2422258168
 30
0.0
 10
15.1304527743
 20
13.2426269074
 30
0.0
 10
15.1306225319
 20
13.2428507208
 30
0.0
  0
SPLINE
  5
390
100
AcDbEntity
  8
0
100
AcDbSpline
 62
7
  6
CONTINUOUS
 70
0
 71
3
 72
11
 73
7
 74
0
 42
0.0000001
 43
0.0000001
 44
0.0000000001
 40
0.0
 40
0.0
 40
0.0
 40
0.0
 40
0.1741539969
 40
0.390212253
 40
0.6656890499
 40
1.0
 40
1.0
 40
1.0
 40
1.0
 10
15.1234446454
 20
13.2441183557
 30
0.0
 10
15.1233673631
 20
13.2441183547
 30
0.0
 10
15.1231937699
 20
13.2440586971
 30
0.0
 10
15.1229848559
 20
13.2438418439
 30
0.0
 10
15.1228041323
 20
13.2435205692
 30
0.0
 10
15.1227136995
 20
13.2432642529
 30
0.0
 10
15.1226724368
 20
13.2431217535
 30
0.0
  0
SPLINE
  5
391
100
AcDbEntity
  8
LAYER_CUT_FEAT
100
AcDbSpline
 62
7
  6
CONTINUOUS
 70
0
 71
3
 72
25
 73
21
 74
0
 42
0.0000001
 43
0.0000001
 44
0.0000000001
 40
0.0
 40
0.0
 40
0.0
 40
0.0
 40
0.0680274012
 40
0.1405217474
 40
0.2163861126
 40
0.2944184903
 40
0.3733538189
 40
0.4519014711
 40
0.5287817336
 40
0.60276298
 40
0.6727004772
 40
0.73758012
 40
0.7965711198
 40
0.8490969228
 40
0.8949426454
 40
0.9154582686
 40
0.9344847296
 40
0.9687214395
 40
0.9845643744
 40
1.0
 40
1.0
 40
1.0
 40
1.0
 10
15.7799722398
 20
13.3075871396
 30
0.0
 10
15.780660006
 20
13.3098943293
 30
0.0
 10
15.7818877022
 20
13.3147189864
 30
0.0
 10
15.783273267
 20
13.3222553996
 30
0.0
 10
15.7842430984
 20
13.3302132381
 30
0.0
 10
15.7847780288
 20
13.3384400212
 30
0.0
 10
15.7848676088
 20
13.3467785657
 30
0.0
 10
15.7845100527
 20
13.3550691564
 30
0.0
 10
15.7837123857
 20
13.3631531367
 30
0.0
 10
15.7824902853
 20
13.3708760593
 30
0.0
 10
15.7808676245
 20
13.3780910595
 30
0.0
 10
15.7788760009
 20
13.3846617842
 30
0.0
 10
15.776553135
 20
13.3904667873
 30
0.0
 10
15.7739419566
 20
13.3953992294
 30
0.0
 10
15.7714754754
 20
13.3988327341
 30
0.0
 10
15.769377349
 20
13.4010156705
 30
0.0
 10
15.7673747827
 20
13.4026946792
 30
0.0
 10
15.7652111404
 20
13.4039203113
 30
0.0
 10
15.7629643328
 20
13.4045316007
 30
0.0
 10
15.7618548746
 20
13.4046320346
 30
0.0
 10
15.7613086012
 20
13.4046320277
 30
0.0
  0
SPLINE
  5
392
100
AcDbEntity
  8
0
100
AcDbSpline
 62
7
  6
CONTINUOUS
 70
0
 71
3
 72
11
 73
7
 74
0
 42
0.0000001
 43
0.0000001
 44
0.0000000001
 40
0.0
 40
0.0
 40
0.0
 40
0.0
 40
0.2185706296
 40
0.451265266
 40
0.7093285631
 40
1.0
 40
1.0
 40
1.0
 40
1.0
 10
15.1375621063
 20
13.2723637441
 30
0.0
 10
15.1377535612
 20
13.2723637486
 30
0.0
 10
15.1381507831
 20
13.2724221857
 30
0.0
 10
15.1387241801
 20
13.2726769339
 30
0.0
 10
15.1392759803
 20
13.2730894363
 30
0.0
 10
15.139605926
 20
13.2734420174
 30
0.0
 10
15.1397674834
 20
13.2736388065
 30
0.0
  0
SPLINE
  5
393
100
AcDbEntity
  8
0
100
AcDbSpline
 62
7
  6
CONTINUOUS
 70
0
 71
3
 72
11
 73
7
 74
0
 42
0.0000001
 43
0.0000001
 44
0.0000000001
 40
0.0
 40
0.0
 40
0.0
 40
0.0
 40
0.1763729144
 40
0.392906309
 40
0.6672915025
 40
1.0
 40
1.0
 40
1.0
 40
1.0
 10
15.132578418
 20
13.2754860088
 30
0.0
 10
15.1325039038
 20
13.2754860103
 30
0.0
 10
15.1323372885
 20
13.2754310919
 30
0.0
 10
15.1321336175
 20
13.2752284141
 30
0.0
 10
15.1319562213
 20
13.2749266183
 30
0.0
 10
15.1318661273
 20
13.2746852626
 30
0.0
 10
15.1318246264
 20
13.2745509657
 30
0.0
  0
SPLINE
  5
394
100
AcDbEntity
  8
LAYER_CUT_FEAT
100
AcDbSpline
 62
7
  6
CONTINUOUS
 70
0
 71
3
 72
16
 73
12
 74
0
 42
0.0000001
 43
0.0000001
 44
0.0000000001
 40
0.0
 40
0.0
 40
0.0
 40
0.0
 40
0.1742858328
 40
0.3349824589
 40
0.480829663
 40
0.6111459498
 40
0.7260654168
 40
0.8268802376
 40
0.9164962327
 40
0.9586632837
 40
1.0
 40
1.0
 40
1.0
 40
1.0
 10
15.3002994056
 20
13.4093942435
 30
0.0
 10
15.2997805415
 20
13.4113281182
 30
0.0
 10
15.2986675451
 20
13.415015782
 30
0.0
 10
15.2966818764
 20
13.4201766966
 30
0.0
 10
15.2944697412
 20
13.4246905803
 30
0.0
 10
15.2920607005
 20
13.4284959976
 30
0.0
 10
15.2894813129
 20
13.4315427195
 30
0.0
 10
15.2867562836
 20
13.4337883911
 30
0.0
 10
15.2843225626
 20
13.4349740551
 30
0.0
 10
15.2823802617
 20
13.4354318235
 30
0.0
 10
15.2814192858
 20
13.4355072691
 30
0.0
 10
15.2809443916
 20
13.435507266
 30
0.0
  0
SPLINE
  5
395
100
AcDbEntity
  8
02___PRT_ALL_AXES
100
AcDbSpline
 62
7
  6
CONTINUOUS
 70
0
 71
3
 72
52
 73
48
 74
0
 42
0.0000001
 43
0.0000001
 44
0.0000000001
 40
0.0
 40
0.0
 40
0.0
 40
0.0
 40
0.0114388329
 40
0.0223693798
 40
0.0328139742
 40
0.042801854
 40
0.0615465928
 40
0.0704183849
 40
0.0790306779
 40
0.0874529326
 40
0.0957607437
 40
0.1040336536
 40
0.1123524495
 40
0.1207962863
 40
0.1294400359
 40
0.1383521924
 40
0.1475935008
 40
0.157216302
 40
0.1672644738
 40
0.1777737803
 40
0.1887724756
 40
0.2002820077
 40
0.2123177552
 40
0.2248897135
 40
0.2380031345
 40
0.2516590783
 40
0.2658549059
 40
0.2805846936
 40
0.2958395979
 40
0.3278733022
 40
0.3618414449
 40
0.3975947935
 40
0.4349589583
 40
0.4737388402
 40
0.5137223881
 40
0.5546838998
 40
0.5963870245
 40
0.6385875695
 40
0.6810361863
 40
0.7234809841
 40
0.7656701109
 40
0.8073543358
 40
0.8482896636
 40
0.8882400239
 40
0.9269800825
 40
0.9642982519
 40
1.0
 40
1.0
 40
1.0
 40
1.0
 10
15.3315991723
 20
13.5301744687
 30
0.0
 10
15.3370125161
 20
13.536659923
 30
0.0
 10
15.3479341795
 20
13.5490686252
 30
0.0
 10
15.364994657
 20
13.566299121
 30
0.0
 10
15.3823311565
 20
13.5816896868
 30
0.0
 10
15.40527624
 20
13.5993381749
 30
0.0
 10
15.429192881
 20
13.6137587282
 30
0.0
 10
15.4538204627
 20
13.624302909
 30
0.0
 10
15.4720834996
 20
13.6301122317
 30
0.0
 10
15.4904362045
 20
13.6339484567
 30
0.0
 10
15.5088436223
 20
13.6358016068
 30
0.0
 10
15.5272675773
 20
13.6356659274
 30
0.0
 10
15.5456697211
 20
13.6335419002
 30
0.0
 10
15.5640123471
 20
13.6294357998
 30
0.0
 10
15.5822595657
 20
13.6233590786
 30
0.0
 10
15.6003776981
 20
13.6153272464
 30
0.0
 10
15.6183351248
 20
13.6053589149
 30
0.0
 10
15.636101795
 20
13.5934751968
 30
0.0
 10
15.6536486576
 20
13.5796994592
 30
0.0
 10
15.6709472526
 20
13.5640573937
 30
0.0
 10
15.6879694143
 20
13.5465771423
 30
0.0
 10
15.7046872067
 20
13.5272895203
 30
0.0
 10
15.7210728719
 20
13.506228124
 30
0.0
 10
15.7370989428
 20
13.4834294627
 30
0.0
 10
15.7527382716
 20
13.4589329712
 30
0.0
 10
15.7679642043
 20
13.4327810254
 30
0.0
 10
15.7827505134
 20
13.4050189358
 30
0.0
 10
15.7970719899
 20
13.3756947151
 30
0.0
 10
15.8158193958
 20
13.3338980245
 30
0.0
 10
15.8378278939
 20
13.2780303674
 30
0.0
 10
15.8615960429
 20
13.2067076678
 30
0.0
 10
15.8829712435
 20
13.1305371185
 30
0.0
 10
15.9018037403
 20
13.0500484231
 30
0.0
 10
15.9179614743
 20
12.9657995923
 30
0.0
 10
15.9313308097
 20
12.8783769132
 30
0.0
 10
15.9418176392
 20
12.7883893428
 30
0.0
 10
15.9493480901
 20
12.6964643758
 30
0.0
 10
15.9538690983
 20
12.60324339
 30
0.0
 10
15.9553487997
 20
12.5093770518
 30
0.0
 10
15.9537767652
 20
12.4155206447
 30
0.0
 10
15.9491640738
 20
12.3223293762
 30
0.0
 10
15.9415432399
 20
12.2304537146
 30
0.0
 10
15.9309679491
 20
12.1405346314
 30
0.0
 10
15.9175127496
 20
12.0531993202
 30
0.0
 10
15.9012721597
 20
11.9690554242
 30
0.0
 10
15.8823610683
 20
11.8886908909
 30
0.0
 10
15.8677126627
 20
11.8367681173
 30
0.0
 10
15.8599280379
 20
11.811577062
 30
0.0
  0
SPLINE
  5
396
100
AcDbEntity
  8
LAYER_CUT_FEAT
100
AcDbSpline
 62
7
  6
CONTINUOUS
 70
0
 71
3
 72
10
 73
6
 74
0
 42
0.0000001
 43
0.0000001
 44
0.0000000001
 40
0.0
 40
0.0
 40
0.0
 40
0.0
 40
0.2345804343
 40
0.4758383569
 40
1.0
 40
1.0
 40
1.0
 40
1.0
 10
15.121068768
 20
12.1511650085
 30
0.0
 10
15.1216370343
 20
12.1511650051
 30
0.0
 10
15.1227926536
 20
12.1512739632
 30
0.0
 10
15.1251332922
 20
12.1519369765
 30
0.0
 10
15.1267612981
 20
12.1528995714
 30
0.0
 10
15.1277703501
 20
12.1536703709
 30
0.0
  0
SPLINE
  5
397
100
AcDbEntity
  8
02___PRT_ALL_AXES
100
AcDbSpline
 62
7
  6
CONTINUOUS
 70
0
 71
3
 72
42
 73
38
 74
0
 42
0.0000001
 43
0.0000001
 44
0.0000000001
 40
0.0
 40
0.0
 40
0.0
 40
0.0
 40
0.0076948296
 40
0.0154421434
 40
0.0232931203
 40
0.0312964552
 40
0.0394974069
 40
0.047937126
 40
0.0656646912
 40
0.0847292917
 40
0.1052990873
 40
0.1274817384
 40
0.1513347953
 40
0.1768750505
 40
0.2040861833
 40
0.2329247803
 40
0.2633250052
 40
0.295202273
 40
0.3284561671
 40
0.3629728399
 40
0.3986270228
 40
0.4352837761
 40
0.4728000459
 40
0.511026087
 40
0.5498067952
 40
0.5889829711
 40
0.6283925442
 40
0.6678717656
 40
0.7072563889
 40
0.7463828444
 40
0.7850894198
 40
0.8232174592
 40
0.8606125896
 40
0.8971259952
 40
0.9326157612
 40
0.9669483178
 40
1.0
 40
1.0
 40
1.0
 40
1.0
 10
15.515615294
 20
13.6343709015
 30
0.0
 10
15.5207276673
 20
13.6343709017
 30
0.0
 10
15.5309932026
 20
13.6339077235
 30
0.0
 10
15.5463479405
 20
13.6318270782
 30
0.0
 10
15.5616616628
 20
13.6283635112
 30
0.0
 10
15.5769122755
 20
13.6235231181
 30
0.0
 10
15.5920812151
 20
13.6173134989
 30
0.0
 10
15.6125027292
 20
13.6070555383
 30
0.0
 10
15.6377953971
 20
13.5906368585
 30
0.0
 10
15.6669678863
 20
13.5659864291
 30
0.0
 10
15.6953487315
 20
13.5362036263
 30
0.0
 10
15.7228158745
 20
13.5014391623
 30
0.0
 10
15.749253062
 20
13.461858262
 30
0.0
 10
15.7745406527
 20
13.4176487795
 30
0.0
 10
15.7985612253
 20
13.3690209497
 30
0.0
 10
15.8212006052
 20
13.3162075534
 30
0.0
 10
15.8423497858
 20
13.2594628555
 30
0.0
 10
15.8619060095
 20
13.199061319
 30
0.0
 10
15.8797737621
 20
13.1352961163
 30
0.0
 10
15.895865458
 20
13.0684775341
 30
0.0
 10
15.9101020585
 20
12.9989313208
 30
0.0
 10
15.922413536
 20
12.9269969749
 30
0.0
 10
15.9327392817
 20
12.8530259916
 30
0.0
 10
15.9410284401
 20
12.7773800685
 30
0.0
 10
15.9472401648
 20
12.7004292751
 30
0.0
 10
15.9513438518
 20
12.6225501931
 30
0.0
 10
15.9533192681
 20
12.5441240312
 30
0.0
 10
15.9531566856
 20
12.4655347235
 30
0.0
 10
15.9508568977
 20
12.3871670162
 30
0.0
 10
15.9464312465
 20
12.3094045529
 30
0.0
 10
15.9399015378
 20
12.2326279589
 30
0.0
 10
15.9312999542
 20
12.1572129559
 30
0.0
 10
15.9206688649
 20
12.0835284274
 30
0.0
 10
15.9080606599
 20
12.0119347554
 30
0.0
 10
15.8935372881
 20
11.9427813004
 30
0.0
 10
15.8771705855
 20
11.8764070942
 30
0.0
 10
15.864835025
 20
11.8333565814
 30
0.0
 10
15.8583516199
 20
11.8123762748
 30
0.0
  0
SPLINE
  5
398
100
AcDbEntity
  8
02___PRT_ALL_AXES
100
AcDbSpline
 62
7
  6
CONTINUOUS
 70
0
 71
3
 72
14
 73
10
 74
0
 42
0.0000001
 43
0.0000001
 44
0.0000000001
 40
0.0
 40
0.0
 40
0.0
 40
0.0
 40
0.3348240616
 40
0.4807028068
 40
0.6110559324
 40
0.7260274546
 40
0.8269153031
 40
0.9166264612
 40
1.0
 40
1.0
 40
1.0
 40
1.0
 10
15.5772450573
 20
12.6854154646
 30
0.0
 10
15.5769499999
 20
12.6865106355
 30
0.0
 10
15.5764347265
 20
12.6880644233
 30
0.0
 10
15.5755210107
 20
12.6899249966
 30
0.0
 10
15.5748090105
 20
12.6910466322
 30
0.0
 10
15.5740473101
 20
12.6919445672
 30
0.0
 10
15.5732418206
 20
12.6926062675
 30
0.0
 10
15.5723984026
 20
12.69301755
 30
0.0
 10
15.5718088041
 20
12.6931127357
 30
0.0
 10
15.571526375
 20
12.6931127431
 30
0.0
  0
SPLINE
  5
399
100
AcDbEntity
  8
LAYER_CUT_FEAT
100
AcDbSpline
 62
7
  6
CONTINUOUS
 70
0
 71
3
 72
31
 73
27
 74
0
 42
0.0000001
 43
0.0000001
 44
0.0000000001
 40
0.0
 40
0.0
 40
0.0
 40
0.0
 40
0.0202505777
 40
0.0425593941
 40
0.0670617298
 40
0.0937984405
 40
0.1227385348
 40
0.1537949753
 40
0.2216748475
 40
0.2960297042
 40
0.3750411872
 40
0.456652153
 40
0.5386809773
 40
0.6189265216
 40
0.6952718485
 40
0.7657937472
 40
0.798365838
 40
0.8289172304
 40
0.8573266118
 40
0.8835193712
 40
0.9074803244
 40
0.9292711716
 40
0.9490537188
 40
0.9671174475
 40
0.9839028767
 40
1.0
 40
1.0
 40
1.0
 40
1.0
 10
15.377050667
 20
12.3440918091
 30
0.0
 10
15.3777524849
 20
12.344627917
 30
0.0
 10
15.3791360088
 20
12.3458766138
 30
0.0
 10
15.3810410602
 20
12.3481035601
 30
0.0
 10
15.3828592852
 20
12.3507522039
 30
0.0
 10
15.3845773703
 20
12.3538020429
 30
0.0
 10
15.3861832301
 20
12.3572301974
 30
0.0
 10
15.388218297
 20
12.3624258636
 30
0.0
 10
15.3903596816
 20
12.3696889077
 30
0.0
 10
15.3922468535
 20
12.3791618153
 30
0.0
 10
15.39346097
 20
12.389346992
 30
0.0
 10
15.393962815
 20
12.3999259069
 30
0.0
 10
15.3937359153
 20
12.4105680169
 30
0.0
 10
15.3927877729
 20
12.420940451
 30
0.0
 10
15.3911490124
 20
12.4307183436
 30
0.0
 10
15.3892043466
 20
12.4383118707
 30
0.0
 10
15.3873155942
 20
12.4438286562
 30
0.0
 10
15.3858029434
 20
12.4475256569
 30
0.0
 10
15.3841686966
 20
12.4508639395
 30
0.0
 10
15.3824250315
 20
12.4538180323
 30
0.0
 10
15.3805845418
 20
12.4563656624
 30
0.0
 10
15.3786594016
 20
12.458487648
 30
0.0
 10
15.3766611139
 20
12.4601671475
 30
0.0
 10
15.3745999487
 20
12.4613879306
 30
0.0
 10
15.372490072
 20
12.462132357
 30
0.0
 10
15.371051101
 20
12.4623007157
 30
0.0
 10
15.3703490849
 20
12.4623007199
 30
0.0
  0
SPLINE
  5
39A
100
AcDbEntity
  8
LAYER_CUT_FEAT
100
AcDbSpline
 62
7
  6
CONTINUOUS
 70
0
 71
3
 72
31
 73
27
 74
0
 42
0.0000001
 43
0.0000001
 44
0.0000000001
 40
0.0
 40
0.0
 40
0.0
 40
0.0
 40
0.0159895433
 40
0.0326398597
 40
0.0505202452
 40
0.0700597231
 40
0.0915441912
 40
0.1151374137
 40
0.1409066939
 40
0.1688448845
 40
0.198887118
 40
0.2309230789
 40
0.3003405234
 40
0.3756245389
 40
0.4549589028
 40
0.5363314446
 40
0.6176367108
 40
0.6967722768
 40
0.7717352452
 40
0.8407256149
 40
0.872515927
 40
0.9022963315
 40
0.9299617052
 40
0.9554538049
 40
0.9787737574
 40
1.0
 40
1.0
 40
1.0
 40
1.0
 10
15.8983143861
 20
12.1012078105
 30
0.0
 10
15.8990039616
 20
12.1012078109
 30
0.0
 10
15.9004162921
 20
12.1013700277
 30
0.0
 10
15.9024890553
 20
12.1020878838
 30
0.0
 10
15.9045158761
 20
12.1032659932
 30
0.0
 10
15.9064830199
 20
12.1048878395
 30
0.0
 10
15.9083805715
 20
12.1069381061
 30
0.0
 10
15.9101975644
 20
12.1094009515
 30
0.0
 10
15.9119224289
 20
12.1122584147
 30
0.0
 10
15.9135431795
 20
12.1154896852
 30
0.0
 10
15.9150481937
 20
12.1190709694
 30
0.0
 10
15.9169357346
 20
12.1244213993
 30
0.0
 10
15.9188970957
 20
12.1317999568
 30
0.0
 10
15.920582914
 20
12.1413231054
 30
0.0
 10
15.9216067281
 20
12.1514578577
 30
0.0
 10
15.9219366266
 20
12.1618978061
 30
0.0
 10
15.9215621379
 20
12.1723276868
 30
0.0
 10
15.9204951367
 20
12.1824325925
 30
0.0
 10
15.9187688814
 20
12.1919070865
 30
0.0
 10
15.9167754347
 20
12.1992328971
 30
0.0
 10
15.9148639702
 20
12.204532067
 30
0.0
 10
15.9133435992
 20
12.2080703474
 30
0.0
 10
15.9117090131
 20
12.2112553923
 30
0.0
 10
15.9099716711
 20
12.2140639512
 30
0.0
 10
15.9081442138
 20
12.216475025
 30
0.0
 10
15.9068130284
 20
12.2178687092
 30
0.0
 10
15.906134637
 20
12.2184833418
 30
0.0
  0
SPLINE
  5
39B
100
AcDbEntity
  8
LAYER_CUT_FEAT
100
AcDbSpline
 62
7
  6
CONTINUOUS
 70
0
 71
3
 72
20
 73
16
 74
0
 42
0.0000001
 43
0.0000001
 44
0.0000000001
 40
0.0
 40
0.0
 40
0.0
 40
0.0
 40
0.169950882
 40
0.3349225143
 40
0.4895115982
 40
0.5614210766
 40
0.6290376188
 40
0.691948652
 40
0.7498514405
 40
0.8025846819
 40
0.8501731766
 40
0.8928910684
 40
0.9313449569
 40
0.9665591323
 40
1.0
 40
1.0
 40
1.0
 40
1.0
 10
15.5326288167
 20
12.1276230465
 30
0.0
 10
15.5326677754
 20
12.1316200181
 30
0.0
 10
15.5324419005
 20
12.1395035187
 30
0.0
 10
15.5312085385
 20
12.15096174
 30
0.0
 10
15.5294390664
 20
12.1600130003
 30
0.0
 10
15.5275841749
 20
12.1666803151
 30
0.0
 10
15.5260450291
 20
12.171189096
 30
0.0
 10
15.5243399201
 20
12.1752837007
 30
0.0
 10
15.522485052
 20
12.1789249162
 30
0.0
 10
15.5204975731
 20
12.182078414
 30
0.0
 10
15.5183943234
 20
12.1847149388
 30
0.0
 10
15.5161910465
 20
12.1868095531
 30
0.0
 10
15.5139006704
 20
12.1883389873
 30
0.0
 10
15.5115399597
 20
12.1892769473
 30
0.0
 10
15.5099185101
 20
12.1894904259
 30
0.0
 10
15.5091319973
 20
12.1894904358
 30
0.0
  0
LINE
  5
39C
100
AcDbEntity
  8
LAYER_CUT_FEAT
100
AcDbLine
 62
7
  6
CONTINUOUS
 10
15.5620350283
 20
11.4083762746
 11
15.564529091
 21
11.408760494
  0
LINE
  5
39D
100
AcDbEntity
  8
LAYER_CUT_FEAT
100
AcDbLine
 62
7
  6
CONTINUOUS
 10
15.497900606
 20
12.8302573537
 11
15.5000365353
 21
12.8305388831
  0
SPLINE
  5
39E
100
AcDbEntity
  8
0
100
AcDbSpline
 62
7
  6
CONTINUOUS
 70
0
 71
3
 72
25
 73
21
 74
0
 42
0.0000001
 43
0.0000001
 44
0.0000000001
 40
0.0
 40
0.0
 40
0.0
 40
0.0
 40
0.021413704
 40
0.0429190946
 40
0.0646064146
 40
0.0865631137
 40
0.1315903407
 40
0.1786313679
 40
0.228194589
 40
0.2806866828
 40
0.3364173838
 40
0.3956092861
 40
0.4584093199
 40
0.5248999116
 40
0.5951087356
 40
0.6690171219
 40
0.7465668369
 40
0.8276657578
 40
0.9121922575
 40
1.0
 40
1.0
 40
1.0
 40
1.0
 10
15.5167995153
 20
13.7600494704
 30
0.0
 10
15.5123024061
 20
13.7600494652
 30
0.0
 10
15.5032856417
 20
13.7597279022
 30
0.0
 10
15.4897841235
 20
13.7582824189
 30
0.0
 10
15.4763038975
 20
13.7558746077
 30
0.0
 10
15.4582276909
 20
13.7513485732
 30
0.0
 10
15.4356344602
 20
13.7431937638
 30
0.0
 10
15.4090593994
 20
13.729686413
 30
0.0
 10
15.3828582493
 20
13.7124340639
 30
0.0
 10
15.3571064231
 20
13.6915023889
 30
0.0
 10
15.3318717588
 20
13.6669617527
 30
0.0
 10
15.3072231283
 20
13.6388895611
 30
0.0
 10
15.2832290498
 20
13.6073715054
 30
0.0
 10
15.2599581058
 20
13.5725025991
 30
0.0
 10
15.2374781116
 20
13.5343877359
 30
0.0
 10
15.2158557222
 20
13.4931417013
 30
0.0
 10
15.1951557565
 20
13.448889164
 30
0.0
 10
15.1754407791
 20
13.4017640909
 30
0.0
 10
15.1567709208
 20
13.3519103116
 30
0.0
 10
15.1452700013
 20
13.31758573
 30
0.0
 10
15.1396917819
 20
13.3000090903
 30
0.0
  0
SPLINE
  5
39F
100
AcDbEntity
  8
02___PRT_ALL_AXES
100
AcDbSpline
 62
7
  6
CONTINUOUS
 70
0
 71
3
 72
18
 73
14
 74
0
 42
0.0000001
 43
0.0000001
 44
0.0000000001
 40
0.0
 40
0.0
 40
0.0
 40
0.0
 40
0.1684382271
 40
0.3330674435
 40
0.4881104805
 40
0.6284292704
 40
0.7500114399
 40
0.8030649423
 40
0.8508504284
 40
0.8936147005
 40
0.931953333
 40
0.9669076222
 40
1.0
 40
1.0
 40
1.0
 40
1.0
 10
15.6232816779
 20
12.6700234513
 30
0.0
 10
15.6233176435
 20
12.6712452591
 30
0.0
 10
15.6232922412
 20
12.6736652056
 30
0.0
 10
15.6229715466
 20
12.6771965812
 30
0.0
 10
15.6223822912
 20
12.6804874448
 30
0.0
 10
15.6215498496
 20
12.6834019581
 30
0.0
 10
15.6206454439
 20
12.6855122788
 30
0.0
 10
15.6198078329
 20
12.6868950435
 30
0.0
 10
15.6191707405
 20
12.6877230644
 30
0.0
 10
15.6185015011
 20
12.6883816754
 30
0.0
 10
15.6178040887
 20
12.6888632308
 30
0.0
 10
15.6170836783
 20
12.6891591038
 30
0.0
 10
15.6165877089
 20
12.6892265826
 30
0.0
 10
15.6163475613
 20
12.6892265882
 30
0.0
  0
SPLINE
  5
3A0
100
AcDbEntity
  8
02___PRT_ALL_AXES
100
AcDbSpline
 62
7
  6
CONTINUOUS
 70
0
 71
3
 72
37
 73
33
 74
0
 42
0.0000001
 43
0.0000001
 44
0.0000000001
 40
0.0
 40
0.0
 40
0.0
 40
0.0
 40
0.0316463644
 40
0.0618891371
 40
0.0907898168
 40
0.1184288881
 40
0.1703050459
 40
0.1948583954
 40
0.2186928015
 40
0.2419994247
 40
0.264986377
 40
0.2878727462
 40
0.3108811935
 40
0.3342300513
 40
0.3581260215
 40
0.382758379
 40
0.4082951567
 40
0.4348812936
 40
0.4626384353
 40
0.4916658624
 40
0.5220421361
 40
0.5538270222
 40
0.587063515
 40
0.6217797303
 40
0.6579906646
 40
0.6956997242
 40
0.7349000793
 40
0.7755758195
 40
0.8177029508
 40
0.8612502615
 40
0.9061800488
 40
1.0
 40
1.0
 40
1.0
 40
1.0
 10
15.3315991722
 20
11.491424481
 30
0.0
 10
15.3370025061
 20
11.4849510191
 30
0.0
 10
15.3479038109
 20
11.4725642428
 30
0.0
 10
15.3649312131
 20
11.4553613398
 30
0.0
 10
15.3822336583
 20
11.4399913276
 30
0.0
 10
15.4051339816
 20
11.4223597426
 30
0.0
 10
15.4290022633
 20
11.4079433611
 30
0.0
 10
15.4535804509
 20
11.397386999
 30
0.0
 10
15.4718071328
 20
11.3915610183
 30
0.0
 10
15.4901236264
 20
11.3877004251
 30
0.0
 10
15.5084952233
 20
11.3858152061
 30
0.0
 10
15.5268840072
 20
11.3859111708
 30
0.0
 10
15.5452518688
 20
11.3879879666
 30
0.0
 10
15.5635613083
 20
11.3920394784
 30
0.0
 10
15.5817766027
 20
11.3980544512
 30
0.0
 10
15.5998642173
 20
11.4060175646
 30
0.0
 10
15.6177926584
 20
11.4159104113
 30
0.0
 10
15.6355320065
 20
11.4277120743
 30
0.0
 10
15.6530533404
 20
11.441399404
 30
0.0
 10
15.6703283417
 20
11.4569469354
 30
0.0
 10
15.6873289864
 20
11.4743267803
 30
0.0
 10
15.704027483
 20
11.4935083989
 30
0.0
 10
15.7203962177
 20
11.5144584943
 30
0.0
 10
15.7364078583
 20
11.5371408823
 30
0.0
 10
15.7520353991
 20
11.5615164741
 30
0.0
 10
15.7672522893
 20
11.5875432578
 30
0.0
 10
15.7820324977
 20
11.6151763328
 30
0.0
 10
15.7963506393
 20
11.6443679952
 30
0.0
 10
15.8101819362
 20
11.6750676681
 30
0.0
 10
15.8235027395
 20
11.7072225495
 30
0.0
 10
15.840800942
 20
11.7526161916
 30
0.0
 10
15.8525473389
 20
11.7876931116
 30
0.0
 10
15.8599280379
 20
11.811577062
 30
0.0
  0
SPLINE
  5
3A1
100
AcDbEntity
  8
02___PRT_ALL_AXES
100
AcDbSpline
 62
7
  6
CONTINUOUS
 70
0
 71
3
 72
40
 73
36
 74
0
 42
0.0000001
 43
0.0000001
 44
0.0000000001
 40
0.0
 40
0.0
 40
0.0
 40
0.0
 40
0.0355829486
 40
0.0727603723
 40
0.1113432944
 40
0.1511261854
 40
0.1918901992
 40
0.2334060329
 40
0.3177285162
 40
0.4021604159
 40
0.4847521744
 40
0.5247734803
 40
0.5636426224
 40
0.6011508478
 40
0.6371051529
 40
0.6713317644
 40
0.7036802226
 40
0.7340283692
 40
0.7622886848
 40
0.788416616
 40
0.8124217259
 40
0.8343825873
 40
0.854465806
 40
0.8729473787
 40
0.8817177821
 40
0.8902494628
 40
0.8986116985
 40
0.9068792115
 40
0.9151299504
 40
0.9234424499
 40
0.9318931091
 40
0.9405537582
 40
0.9587416655
 40
0.978456468
 40
1.0
 40
1.0
 40
1.0
 40
1.0
 10
15.4978473013
 20
12.7022553451
 30
0.0
 10
15.4957417099
 20
12.6954416489
 30
0.0
 10
15.4917763417
 20
12.681402052
 30
0.0
 10
15.4866466071
 20
12.6596778014
 30
0.0
 10
15.4822301031
 20
12.636939395
 30
0.0
 10
15.4785573839
 20
12.6133420444
 30
0.0
 10
15.475653424
 20
12.5890457619
 30
0.0
 10
15.4728196784
 20
12.555770199
 30
0.0
 10
15.4713248213
 20
12.5136212929
 30
0.0
 10
15.4727524568
 20
12.4632339333
 30
0.0
 10
15.4766252347
 20
12.4218834077
 30
0.0
 10
15.4813446176
 20
12.3898586407
 30
0.0
 10
15.485597681
 20
12.3669147797
 30
0.0
 10
15.4905711137
 20
12.3449508304
 30
0.0
 10
15.496231096
 20
12.3241154982
 30
0.0
 10
15.5025388903
 20
12.3045497604
 30
0.0
 10
15.5094516478
 20
12.2863853914
 30
0.0
 10
15.5169228372
 20
12.2697440264
 30
0.0
 10
15.5249029431
 20
12.2547362011
 30
0.0
 10
15.5333406504
 20
12.2414605633
 30
0.0
 10
15.542183736
 20
12.2300037396
 30
0.0
 10
15.5513827096
 20
12.2204407093
 30
0.0
 10
15.56088623
 20
12.2128392737
 30
0.0
 10
15.5691697163
 20
12.2081111633
 30
0.0
 10
15.5758398146
 20
12.2054496669
 30
0.0
 10
15.5807874914
 20
12.2040118785
 30
0.0
 10
15.5857568274
 20
12.2031022786
 30
0.0
 10
15.5907383908
 20
12.2027232022
 30
0.0
 10
15.5957221126
 20
12.2028758137
 30
0.0
 10
15.6006978429
 20
12.2035595948
 30
0.0
 10
15.6056559865
 20
12.2047728277
 30
0.0
 10
15.6123374142
 20
12.2071289811
 30
0.0
 10
15.6206541925
 20
12.2114794301
 30
0.0
 10
15.630216212
 20
12.2186540295
 30
0.0
 10
15.6361181692
 20
12.2244812331
 30
0.0
 10
15.6390228278
 20
12.2276759786
 30
0.0
  0
SPLINE
  5
3A2
100
AcDbEntity
  8
02___PRT_ALL_AXES
100
AcDbSpline
 62
7
  6
CONTINUOUS
 70
0
 71
3
 72
23
 73
19
 74
0
 42
0.0000001
 43
0.0000001
 44
0.0000000001
 40
0.0
 40
0.0
 40
0.0
 40
0.0
 40
0.0426285406
 40
0.0859998602
 40
0.1308108133
 40
0.1776769838
 40
0.2271131899
 40
0.2795287793
 40
0.3352330698
 40
0.3944459476
 40
0.4573099849
 40
0.5239020235
 40
0.5942433383
 40
0.668308169
 40
0.7460307352
 40
0.8273109642
 40
0.9120191811
 40
1.0
 40
1.0
 40
1.0
 40
1.0
 10
15.515615294
 20
11.3872280483
 30
0.0
 10
15.5238361993
 20
11.3872280485
 30
0.0
 10
15.5404454129
 20
11.3884379838
 30
0.0
 10
15.5651638728
 20
11.3938539413
 30
0.0
 10
15.5896883067
 20
11.4028407178
 30
0.0
 10
15.6139292198
 20
11.4153486069
 30
0.0
 10
15.6378161649
 20
11.4313204337
 30
0.0
 10
15.6612819675
 20
11.4506943268
 30
0.0
 10
15.6842623317
 20
11.473403392
 30
0.0
 10
15.7066930636
 20
11.499374197
 30
0.0
 10
15.7285098749
 20
11.5285253147
 30
0.0
 10
15.7496485732
 20
11.56076637
 30
0.0
 10
15.7700456273
 20
11.5959975872
 30
0.0
 10
15.7896387439
 20
11.6341097306
 30
0.0
 10
15.8083673712
 20
11.6749842072
 30
0.0
 10
15.8261732089
 20
11.7184936307
 30
0.0
 10
15.8430002814
 20
11.7645012204
 30
0.0
 10
15.8533421333
 20
11.7961655703
 30
0.0
 10
15.8583516199
 20
11.8123762748
 30
0.0
  0
SPLINE
  5
3A3
100
AcDbEntity
  8
02___PRT_ALL_AXES
100
AcDbSpline
 62
7
  6
CONTINUOUS
 70
0
 71
3
 72
9
 73
5
 74
0
 42
0.0000001
 43
0.0000001
 44
0.0000000001
 40
0.0
 40
0.0
 40
0.0
 40
0.0
 40
0.2427226964
 40
1.0
 40
1.0
 40
1.0
 40
1.0
 10
15.4923298384
 20
12.70505259
 30
0.0
 10
15.4914286713
 20
12.7021364121
 30
0.0
 10
15.4878404511
 20
12.6900836529
 30
0.0
 10
15.4847332667
 20
12.6778892418
 30
0.0
 10
15.4826179093
 20
12.6686043807
 30
0.0
  0
SPLINE
  5
3A4
100
AcDbEntity
  8
02___PRT_ALL_AXES
100
AcDbSpline
 62
7
  6
CONTINUOUS
 70
0
 71
3
 72
30
 73
26
 74
0
 42
0.0000001
 43
0.0000001
 44
0.0000000001
 40
0.0
 40
0.0
 40
0.0
 40
0.0
 40
0.0722997211
 40
0.147975739
 40
0.2259658987
 40
0.3051473338
 40
0.3843668651
 40
0.4624703541
 40
0.538332025
 40
0.6108847605
 40
0.6791527932
 40
0.7114151938
 40
0.7423021192
 40
0.7717357554
 40
0.7996531277
 40
0.826008801
 40
0.8507781756
 40
0.8739617157
 40
0.895590253
 40
0.9157315486
 40
0.934498015
 40
0.9520547437
 40
0.968625917
 40
0.9844958117
 40
1.0
 40
1.0
 40
1.0
 40
1.0
 10
15.4826179093
 20
12.6686043807
 30
0.0
 10
15.4798523767
 20
12.656465729
 30
0.0
 10
15.4750189462
 20
12.6314279936
 30
0.0
 10
15.4698718448
 20
12.5928406854
 30
0.0
 10
15.4667192948
 20
12.5528505181
 30
0.0
 10
15.465616759
 20
12.5121423523
 30
0.0
 10
15.4665834166
 20
12.4714110629
 30
0.0
 10
15.4696024052
 20
12.4313529752
 30
0.0
 10
15.4746208798
 20
12.3926512133
 30
0.0
 10
15.481551479
 20
12.3559667728
 30
0.0
 10
15.4889527338
 20
12.3270688834
 30
0.0
 10
15.4957943418
 20
12.3054930745
 30
0.0
 10
15.5012226137
 20
12.29049819
 30
0.0
 10
15.507020906
 20
12.2764480298
 30
0.0
 10
15.5131648503
 20
12.2634020994
 30
0.0
 10
15.5196285303
 20
12.2514154987
 30
0.0
 10
15.5263851789
 20
12.2405385746
 30
0.0
 10
15.5334073969
 20
12.2308168158
 30
0.0
 10
15.5406676054
 20
12.2222908878
 30
0.0
 10
15.5481384249
 20
12.2149969952
 30
0.0
 10
15.5557929623
 20
12.2089676535
 30
0.0
 10
15.5636039014
 20
12.2042329922
 30
0.0
 10
15.5715429904
 20
12.2008218043
 30
0.0
 10
15.5795726188
 20
12.1987610199
 30
0.0
 10
15.5849856674
 20
12.1982994774
 30
0.0
 10
15.5876554218
 20
12.198299475
 30
0.0
  0
SPLINE
  5
3A5
100
AcDbEntity
  8
LAYER_CUT_FEAT
100
AcDbSpline
 62
7
  6
CONTINUOUS
 70
0
 71
3
 72
23
 73
19
 74
0
 42
0.0000001
 43
0.0000001
 44
0.0000000001
 40
0.0
 40
0.0
 40
0.0
 40
0.0
 40
0.0396832377
 40
0.0814155733
 40
0.1256939384
 40
0.1729008743
 40
0.223313687
 40
0.2771177201
 40
0.3344205149
 40
0.3952644385
 40
0.4596375254
 40
0.5274821264
 40
0.5987020656
 40
0.6731682214
 40
0.7507232542
 40
0.8311853185
 40
0.9143512395
 40
1.0
 40
1.0
 40
1.0
 40
1.0
 10
15.564529091
 20
11.408760494
 30
0.0
 10
15.5733511504
 20
11.4114884499
 30
0.0
 10
15.5910581102
 20
11.4184252337
 30
0.0
 10
15.6167131193
 20
11.4326190949
 30
0.0
 10
15.6419408918
 20
11.4507442355
 30
0.0
 10
15.6666548805
 20
11.4727191015
 30
0.0
 10
15.690780464
 20
11.4984587098
 30
0.0
 10
15.7142397888
 20
11.5278683883
 30
0.0
 10
15.7369553163
 20
11.5608428906
 30
0.0
 10
15.7588495689
 20
11.5972647926
 30
0.0
 10
15.7798461609
 20
11.6370043026
 30
0.0
 10
15.7998707429
 20
11.6799192256
 30
0.0
 10
15.8188515335
 20
11.725855431
 30
0.0
 10
15.8367200767
 20
11.7746473431
 30
0.0
 10
15.8534115031
 20
11.8261185719
 30
0.0
 10
15.868865122
 20
11.8800827752
 30
0.0
 10
15.8830244346
 20
11.9363436105
 30
0.0
 10
15.8914509074
 20
11.9747188817
 30
0.0
 10
15.8954485592
 20
11.9942441142
 30
0.0
  0
SPLINE
  5
3A6
100
AcDbEntity
  8
0
100
AcDbSpline
 62
7
  6
CONTINUOUS
 70
0
 71
3
 72
10
 73
6
 74
0
 42
0.0000001
 43
0.0000001
 44
0.0000000001
 40
0.0
 40
0.0
 40
0.0
 40
0.0
 40
0.5192001361
 40
0.7678740292
 40
1.0
 40
1.0
 40
1.0
 40
1.0
 10
15.115304194
 20
13.1863241577
 30
0.0
 10
15.1153788642
 20
13.1879216493
 30
0.0
 10
15.1153240878
 20
13.1902971946
 30
0.0
 10
15.1149132782
 20
13.1933517986
 30
0.0
 10
15.1145954349
 20
13.1948008489
 30
0.0
 10
15.1144069231
 20
13.1954905426
 30
0.0
  0
SPLINE
  5
3A7
100
AcDbEntity
  8
0
100
AcDbSpline
 62
7
  6
CONTINUOUS
 70
0
 71
3
 72
11
 73
7
 74
0
 42
0.0000001
 43
0.0000001
 44
0.0000000001
 40
0.0
 40
0.0
 40
0.0
 40
0.0
 40
0.2421285011
 40
0.5022513464
 40
0.7612101893
 40
1.0
 40
1.0
 40
1.0
 40
1.0
 10
15.1124428373
 20
13.2053732652
 30
0.0
 10
15.1123875245
 20
13.2051548253
 30
0.0
 10
15.1123088758
 20
13.204692344
 30
0.0
 10
15.1122738474
 20
13.2039833857
 30
0.0
 10
15.1123182769
 20
13.203278072
 30
0.0
 10
15.1124033404
 20
13.2028208998
 30
0.0
 10
15.1124619318
 20
13.2026065358
 30
0.0
  0
SPLINE
  5
3A8
100
AcDbEntity
  8
LAYER_CUT_FEAT
100
AcDbSpline
 62
7
  6
CONTINUOUS
 70
0
 71
3
 72
19
 73
15
 74
0
 42
0.0000001
 43
0.0000001
 44
0.0000000001
 40
0.0
 40
0.0
 40
0.0
 40
0.0
 40
0.1386323137
 40
0.2843710551
 40
0.4313524344
 40
0.5736248646
 40
0.6412377516
 40
0.7056233788
 40
0.7662113229
 40
0.8225177213
 40
0.8741703276
 40
0.9209432295
 40
0.9628062208
 40
1.0
 40
1.0
 40
1.0
 40
1.0
 10
15.8954485592
 20
11.9942441142
 30
0.0
 10
15.896186518
 20
11.9978484342
 30
0.0
 10
15.8973048412
 20
12.0053259303
 30
0.0
 10
15.8979876181
 20
12.0167660456
 30
0.0
 10
15.89770439
 20
12.0283199851
 30
0.0
 10
15.8966589745
 20
12.037747408
 30
0.0
 10
15.8953284026
 20
12.0449062869
 30
0.0
 10
15.894129573
 20
12.0498774201
 30
0.0
 10
15.8927278781
 20
12.0544828415
 30
0.0
 10
15.8911398531
 20
12.0586686277
 30
0.0
 10
15.8893842297
 20
12.0623861922
 30
0.0
 10
15.8874801453
 20
12.0655936737
 30
0.0
 10
15.8854486924
 20
12.068254473
 30
0.0
 10
15.8839362662
 20
12.0697256667
 30
0.0
 10
15.8831642061
 20
12.0703406651
 30
0.0
  0
ENDSEC
  0
SECTION
  2
OBJECTS
  0
DICTIONARY
  5
C
100
AcDbDictionary
280
0
281
1
  3
ACAD_GROUP
350
D
  3
ACAD_MLINESTYLE
350
17
  3
ACAD_LAYOUT
350
1A
  3
ACAD_PLOTSETTINGS
350
19
  3
ACAD_PLOTSTYLENAME
350
E
  0
DICTIONARY
  5
D
102
{ACAD_REACTORS
330
C
102
}
100
AcDbDictionary
280
0
281
1
  0
ACDBDICTIONARYWDFLT
  5
E
102
{ACAD_REACTORS
330
C
102
}
100
AcDbDictionary
281
1
  3
Normal
350
F
100
AcDbDictionaryWithDefault
340
F
  0
DICTIONARY
  5
17
102
{ACAD_REACTORS
330
C
102
}
100
AcDbDictionary
280
0
281
1
  3
Standard
350
18
  0
DICTIONARY
  5
19
102
{ACAD_REACTORS
330
C
102
}
100
AcDbDictionary
281
1
  0
DICTIONARY
  5
1A
102
{ACAD_REACTORS
330
C
102
}
100
AcDbDictionary
281
1
  3
Model
350
3A9
  3
Layout1
350
3AA
  0
ACDBPLACEHOLDER
  5
F
102
{ACAD_REACTORS
330
E
102
}
  0
MLINESTYLE
  5
18
102
{ACAD_REACTORS
330
17
102
}
100
AcDbMlineStyle
  2
STANDARD
 70
0
  3

 62
256
 51
90.0
 52
90.0
 71
2
 49
0.5
 62
256
  6
BYLAYER
 49
-0.5
 62
256
  6
BYLAYER
  0
LAYOUT
  5
3A9
102
{ACAD_REACTORS
330
1A
102
}
100
AcDbPlotSettings
  1

  2
none_device
  4
ANSI_C_(22.00_x_17.00_Inches)
  6

 40
0.0
 41
0.0
 42
0.0
 43
0.0
 44
558.8
 45
431.8
 46
0.0
 47
0.0
 48
0.0
 49
0.0
140
0.0
141
0.0
142
1.0
143
1.0
 70
1024
 72
0
 73
0
 74
0
  7

 75
0
147
1.0
148
0.0
149
0.0
100
AcDbLayout
  1
Model
 70
0
 71
0
 10
0.0
 20
0.0
 11
22.0
 21
17.0
 12
0.0
 22
0.0
 32
0.0
 14
0.0
 24
0.0
 34
0.0
 15
0.0
 25
0.0
 35
0.0
146
0.0
 13
0.0
 23
0.0
 33
0.0
 16
1.0
 26
0.0
 36
0.0
 17
0.0
 27
1.0
 37
0.0
 76
0
330
222
345
0
346
0
  0
LAYOUT
  5
3AA
102
{ACAD_REACTORS
330
1A
102
}
100
AcDbPlotSettings
  1

  2
none_device
  4
ANSI_C_(22.00_x_17.00_Inches)
  6

 40
0.0
 41
0.0
 42
0.0
 43
0.0
 44
558.8
 45
431.8
 46
0.0
 47
0.0
 48
0.0
 49
0.0
140
0.0
141
0.0
142
1.0
143
1.0
 70
0
 72
0
 73
0
 74
0
  7

 75
0
147
1.0
148
0.0
149
0.0
100
AcDbLayout
  1
Layout1
 70
0
 71
1
 10
0.0
 20
0.0
 11
22.0
 21
17.0
 12
0.0
 22
0.0
 32
0.0
 14
0.0
 24
0.0
 34
0.0
 15
0.0
 25
0.0
 35
0.0
146
0.0
 13
0.0
 23
0.0
 33
0.0
 16
1.0
 26
0.0
 36
0.0
 17
0.0
 27
1.0
 37
0.0
 76
0
330
223
345
0
346
0
  0
ENDSEC
  0
EOF