999
DXF file: _cgs_temp_output.dxf
999
Pro/ENGINEER 2016360 by Parametric Technology Corporation
  0
SECTION
  2
HEADER
  9
$ACADVER
  1
AC1021
  9
$DWGCODEPAGE
  3
ANSI_1252
  9
$EXTMAX
 10
22.0
 20
17.0
 30
0.0
  9
$EXTMIN
 10
0.0
 20
0.0
 30
0.0
  9
$LIMMIN
 10
0.0
 20
0.0
  9
$LIMMAX
 10
22.0
 20
17.0
  9
$VIEWCTR
 10
11.0
 20
8.5
  9
$VIEWSIZE
 40
17.0
  9
$CLAYER
  8
0
  9
$LTSCALE
 40
1.21
  9
$CELTYPE
  6
BYLAYER
  9
$DIMSCALE
 40
1.0
  9
$DIMASZ
 40
0.1875
  9
$DIMEXO
 40
0.0625
  9
$DIMDLI
 40
0.836
  9
$DIMEXE
 40
0.125
  9
$DIMCEN
 40
0.198
  9
$DIMLFAC
 40
1.0
  9
$DIMBLK
  1
_CLOSED
  9
$DIMALT
 70
0
  9
$DIMALTF
 40
25.4
  9
$DIMTXT
 40
0.15625
  9
$DIMTOL
 70
0
  9
$DIMLIM
 70
0
  9
$DIMTFAC
 40
1.0
  9
$DIMGAP
 40
0.09
  9
$DIMDSEP
 70
46
  9
$AUNITS
 70
0
  9
$PDMODE
 70
3
  9
$PDSIZE
 40
0.3125
  9
$HANDSEED
  5
2D4
  9
$TILEMODE
 70
1
  9
$MEASUREMENT
 70
0
  9
$INSUNITS
 70
1
  0
ENDSEC
  0
SECTION
  2
CLASSES
  0
CLASS
  1
ACDBDICTIONARYWDFLT
  2
AcDbDictionaryWithDefault
  3
AutoCAD 2000
 90
0
 91
1
280
0
281
0
  0
CLASS
  1
ACDBPLACEHOLDER
  2
AcDbPlaceHolder
  3
AutoCAD 2000
 90
0
 91
1
280
0
281
0
  0
CLASS
  1
LAYOUT
  2
AcDbLayout
  3
AutoCAD 2000
 90
0
 91
0
280
0
281
0
  0
ENDSEC
  0
SECTION
  2
TABLES
  0
TABLE
  2
VPORT
  5
8
100
AcDbSymbolTable
 70
2
  0
VPORT
  5
1F4
100
AcDbSymbolTableRecord
100
AcDbViewportTableRecord
  2
*ACTIVE
 70
0
 10
0.0
 20
0.0
 11
1.0
 21
1.0
 12
11.0
 22
8.5
 13
0.0
 23
0.0
 14
1.0
 24
1.0
 15
0.0
 25
0.0
 16
0.0
 26
0.0
 36
1.0
 17
0.0
 27
0.0
 37
0.0
 40
17.0
 41
1.2941176471
 42
50.0
 43
0.0
 44
0.0
 50
0.0
 51
0.0
 71
0
 72
100
 73
1
 74
1
 75
0
 76
0
 77
0
 78
0
  0
ENDTAB
  0
TABLE
  2
LTYPE
  5
5
100
AcDbSymbolTable
 70
6
  0
LTYPE
  5
14
100
AcDbSymbolTableRecord
100
AcDbLinetypeTableRecord
  2
BYBLOCK
 70
0
  3

 72
65
 73
0
 40
0.0
  0
LTYPE
  5
15
100
AcDbSymbolTableRecord
100
AcDbLinetypeTableRecord
  2
BYLAYER
 70
0
  3

 72
65
 73
0
 40
0.0
  0
LTYPE
  5
16
100
AcDbSymbolTableRecord
100
AcDbLinetypeTableRecord
  2
CONTINUOUS
 70
64
  3
Solid line
 72
65
 73
0
 40
0.0
  0
LTYPE
  5
1F5
100
AcDbSymbolTableRecord
100
AcDbLinetypeTableRecord
  2
CENTER
 70
64
  3
____ _ ____ _ ____ _ ____ _ ____ _ ____ _ ____
 72
65
 73
4
 40
0.6
 49
0.375
 74
0
 49
-0.075
 74
0
 49
0.075
 74
0
 49
-0.075
 74
0
  0
LTYPE
  5
1F6
100
AcDbSymbolTableRecord
100
AcDbLinetypeTableRecord
  2
HIDDEN
 70
64
  3
- - - - - - - - - - - - - - - - - - - -
 72
65
 73
2
 40
0.2
 49
0.1
 74
0
 49
-0.1
 74
0
  0
LTYPE
  5
1F7
100
AcDbSymbolTableRecord
100
AcDbLinetypeTableRecord
  2
PHANTOM
 70
64
  3
_____ _ _ _____ _ _ _____ _ _ _____
 72
65
 73
6
 40
0.8
 49
0.45
 74
0
 49
-0.05
 74
0
 49
0.1
 74
0
 49
-0.05
 74
0
 49
0.1
 74
0
 49
-0.05
 74
0
  0
LTYPE
  5
1F8
100
AcDbSymbolTableRecord
100
AcDbLinetypeTableRecord
  2
DOT
 70
64
  3
. . . . . . . . . . . . . . . . . . . .
 72
65
 73
2
 40
0.2
 49
0.1
 74
0
 49
-0.1
 74
0
  0
LTYPE
  5
1F9
100
AcDbSymbolTableRecord
100
AcDbLinetypeTableRecord
  2
DASHED
 70
64
  3
- - - - - - - - - - - - - - - - - - - -
 72
65
 73
2
 40
0.2
 49
0.1
 74
0
 49
-0.1
 74
0
  0
ENDTAB
  0
TABLE
  2
LAYER
  5
2
100
AcDbSymbolTable
 70
36
  0
LAYER
  5
10
100
AcDbSymbolTableRecord
100
AcDbLayerTableRecord
  2
0
 70
0
 62
7
  6
CONTINUOUS
370
-3
390
F
  0
LAYER
  5
1FA
100
AcDbSymbolTableRecord
100
AcDbLayerTableRecord
  2
DEFAULT_1
 70
0
 62
7
  6
CENTER
370
-3
390
F
  0
LAYER
  5
1FB
100
AcDbSymbolTableRecord
100
AcDbLayerTableRecord
  2
DEFAULT_2
 70
0
 62
8
  6
HIDDEN
370
-3
390
F
  0
LAYER
  5
1FC
100
AcDbSymbolTableRecord
100
AcDbLayerTableRecord
  2
DEFAULT_3
 70
0
 62
7
  6
PHANTOM
370
-3
390
F
  0
LAYER
  5
1FD
100
AcDbSymbolTableRecord
100
AcDbLayerTableRecord
  2
01_ALL_DTM_PLN
 70
0
 62
7
  6
CONTINUOUS
370
-3
390
F
  0
LAYER
  5
1FE
100
AcDbSymbolTableRecord
100
AcDbLayerTableRecord
  2
01__ASM_ALL_DTM_PLN
 70
0
 62
7
  6
CONTINUOUS
370
-3
390
F
  0
LAYER
  5
1FF
100
AcDbSymbolTableRecord
100
AcDbLayerTableRecord
  2
01__ASM_DEF_DTM_PLN
 70
0
 62
7
  6
CONTINUOUS
370
-3
390
F
  0
LAYER
  5
200
100
AcDbSymbolTableRecord
100
AcDbLayerTableRecord
  2
01___PRT_ALL_DTM_PLN
 70
0
 62
7
  6
CONTINUOUS
370
-3
390
F
  0
LAYER
  5
201
100
AcDbSymbolTableRecord
100
AcDbLayerTableRecord
  2
01___PRT_DEF_DTM_PLN
 70
0
 62
7
  6
CONTINUOUS
370
-3
390
F
  0
LAYER
  5
202
100
AcDbSymbolTableRecord
100
AcDbLayerTableRecord
  2
02_ALL_AXES
 70
0
 62
7
  6
CONTINUOUS
370
-3
390
F
  0
LAYER
  5
203
100
AcDbSymbolTableRecord
100
AcDbLayerTableRecord
  2
02__ASM_ALL_AXES
 70
0
 62
7
  6
CONTINUOUS
370
-3
390
F
  0
LAYER
  5
204
100
AcDbSymbolTableRecord
100
AcDbLayerTableRecord
  2
02___PRT_ALL_AXES
 70
0
 62
7
  6
CONTINUOUS
370
-3
390
F
  0
LAYER
  5
205
100
AcDbSymbolTableRecord
100
AcDbLayerTableRecord
  2
03_ALL_CURVES
 70
0
 62
7
  6
CONTINUOUS
370
-3
390
F
  0
LAYER
  5
206
100
AcDbSymbolTableRecord
100
AcDbLayerTableRecord
  2
03__ASM_ALL_CURVES
 70
0
 62
7
  6
CONTINUOUS
370
-3
390
F
  0
LAYER
  5
207
100
AcDbSymbolTableRecord
100
AcDbLayerTableRecord
  2
03___PRT_ALL_CURVES
 70
0
 62
7
  6
CONTINUOUS
370
-3
390
F
  0
LAYER
  5
208
100
AcDbSymbolTableRecord
100
AcDbLayerTableRecord
  2
04_ALL_DTM_PNT
 70
0
 62
7
  6
CONTINUOUS
370
-3
390
F
  0
LAYER
  5
209
100
AcDbSymbolTableRecord
100
AcDbLayerTableRecord
  2
04__ASM_ALL_DTM_PNT
 70
0
 62
7
  6
CONTINUOUS
370
-3
390
F
  0
LAYER
  5
20A
100
AcDbSymbolTableRecord
100
AcDbLayerTableRecord
  2
04___PRT_ALL_DTM_PNT
 70
0
 62
7
  6
CONTINUOUS
370
-3
390
F
  0
LAYER
  5
20B
100
AcDbSymbolTableRecord
100
AcDbLayerTableRecord
  2
05_ALL_DTM_CSYS
 70
0
 62
7
  6
CONTINUOUS
370
-3
390
F
  0
LAYER
  5
20C
100
AcDbSymbolTableRecord
100
AcDbLayerTableRecord
  2
05__ASM_ALL_DTM_CSYS
 70
0
 62
7
  6
CONTINUOUS
370
-3
390
F
  0
LAYER
  5
20D
100
AcDbSymbolTableRecord
100
AcDbLayerTableRecord
  2
05__ASM_DEF_DTM_CSYS
 70
0
 62
7
  6
CONTINUOUS
370
-3
390
F
  0
LAYER
  5
20E
100
AcDbSymbolTableRecord
100
AcDbLayerTableRecord
  2
05___PRT_ALL_DTM_CSYS
 70
0
 62
7
  6
CONTINUOUS
370
-3
390
F
  0
LAYER
  5
20F
100
AcDbSymbolTableRecord
100
AcDbLayerTableRecord
  2
05___PRT_DEF_DTM_CSYS
 70
0
 62
7
  6
CONTINUOUS
370
-3
390
F
  0
LAYER
  5
210
100
AcDbSymbolTableRecord
100
AcDbLayerTableRecord
  2
06_ALL_SURFS
 70
0
 62
7
  6
CONTINUOUS
370
-3
390
F
  0
LAYER
  5
211
100
AcDbSymbolTableRecord
100
AcDbLayerTableRecord
  2
06__ASM_ALL_SURFS
 70
0
 62
7
  6
CONTINUOUS
370
-3
390
F
  0
LAYER
  5
212
100
AcDbSymbolTableRecord
100
AcDbLayerTableRecord
  2
06___PRT_ALL_SURFS
 70
0
 62
7
  6
CONTINUOUS
370
-3
390
F
  0
LAYER
  5
213
100
AcDbSymbolTableRecord
100
AcDbLayerTableRecord
  2
07__ASM_ALL_SKELETONS
 70
0
 62
7
  6
CONTINUOUS
370
-3
390
F
  0
LAYER
  5
214
100
AcDbSymbolTableRecord
100
AcDbLayerTableRecord
  2
LAYER_AXIS
 70
0
 62
7
  6
CONTINUOUS
370
-3
390
F
  0
LAYER
  5
215
100
AcDbSymbolTableRecord
100
AcDbLayerTableRecord
  2
LAYER_CHAMFER_FEAT
 70
0
 62
7
  6
CONTINUOUS
370
-3
390
F
  0
LAYER
  5
216
100
AcDbSymbolTableRecord
100
AcDbLayerTableRecord
  2
LAYER_CUT_FEAT
 70
0
 62
7
  6
CONTINUOUS
370
-3
390
F
  0
LAYER
  5
217
100
AcDbSymbolTableRecord
100
AcDbLayerTableRecord
  2
LAYER_DATUM
 70
0
 62
7
  6
CONTINUOUS
370
-3
390
F
  0
LAYER
  5
218
100
AcDbSymbolTableRecord
100
AcDbLayerTableRecord
  2
LAYER_DIM
 70
0
 62
7
  6
CONTINUOUS
370
-3
390
F
  0
LAYER
  5
219
100
AcDbSymbolTableRecord
100
AcDbLayerTableRecord
  2
LAYER_FEATURE
 70
0
 62
7
  6
CONTINUOUS
370
-3
390
F
  0
LAYER
  5
21A
100
AcDbSymbolTableRecord
100
AcDbLayerTableRecord
  2
LAYER_GEOM_FEAT
 70
0
 62
7
  6
CONTINUOUS
370
-3
390
F
  0
LAYER
  5
21B
100
AcDbSymbolTableRecord
100
AcDbLayerTableRecord
  2
LAYER_NOGEOM_FEAT
 70
0
 62
7
  6
CONTINUOUS
370
-3
390
F
  0
LAYER
  5
21C
100
AcDbSymbolTableRecord
100
AcDbLayerTableRecord
  2
LAYER_PARAMETER_DIM
 70
0
 62
7
  6
CONTINUOUS
370
-3
390
F
  0
LAYER
  5
21D
100
AcDbSymbolTableRecord
100
AcDbLayerTableRecord
  2
LAYER_PROTRUSION_FEAT
 70
0
 62
7
  6
CONTINUOUS
370
-3
390
F
  0
LAYER
  5
21E
100
AcDbSymbolTableRecord
100
AcDbLayerTableRecord
  2
LAYER_QUILT
 70
0
 62
7
  6
CONTINUOUS
370
-3
390
F
  0
LAYER
  5
21F
100
AcDbSymbolTableRecord
100
AcDbLayerTableRecord
  2
LAYER_ROUND_FEAT
 70
0
 62
7
  6
CONTINUOUS
370
-3
390
F
  0
ENDTAB
  0
TABLE
  2
STYLE
  5
3
100
AcDbSymbolTable
 70
1
  0
STYLE
  5
11
100
AcDbSymbolTableRecord
100
AcDbTextStyleTableRecord
  2
STANDARD
 70
0
 40
0.0
 41
0.8
 50
0.0
 71
0
 42
0.2
  3
txt
  4

  0
STYLE
  5
220
100
AcDbSymbolTableRecord
100
AcDbTextStyleTableRecord
  2
TEXTSTYLE_1
 70
0
 40
0.0
 41
0.8
 50
0.0
 71
0
 42
0.2
  3
gdt
  4

  0
ENDTAB
  0
TABLE
  2
VIEW
  5
6
100
AcDbSymbolTable
 70
0
  0
ENDTAB
  0
TABLE
  2
UCS
  5
7
100
AcDbSymbolTable
 70
0
  0
ENDTAB
  0
TABLE
  2
APPID
  5
9
100
AcDbSymbolTable
 70
1
  0
APPID
  5
221
100
AcDbSymbolTableRecord
100
AcDbRegAppTableRecord
  2
ACAD
 70
0
  0
ENDTAB
  0
TABLE
  2
BLOCK_RECORD
  5
1
100
AcDbSymbolTable
 70
0
  0
BLOCK_RECORD
  5
222
100
AcDbSymbolTableRecord
100
AcDbBlockTableRecord
  2
*Model_Space
  0
BLOCK_RECORD
  5
223
100
AcDbSymbolTableRecord
100
AcDbBlockTableRecord
  2
*Paper_Space
  0
ENDTAB
  0
TABLE
  2
DIMSTYLE
  5
A
100
AcDbSymbolTable
 70
1
100
AcDbDimStyleTable
 71
0
  0
DIMSTYLE
105
224
100
AcDbSymbolTableRecord
100
AcDbDimStyleTableRecord
  2
STANDARD
 70
0
  3

  4

 40
1.0
 41
0.1875
 42
0.0625
 43
0.38
 44
0.125
 45
0.0
 46
0.0
 47
0.0001
 48
0.0001
140
0.15625
141
0.09
142
0.0
143
25.4
144
1.0
145
0.0
146
1.0
147
0.09
 71
0.0
 72
0.0
 73
1
 74
1
 75
0
 76
0
 77
0
 78
4
 79
1
170
0
171
3
172
0
173
0
174
0
175
0
176
0
177
0
178
0
270
2
179
4
271
4
272
4
273
2
274
2
275
0
280
0
281
0
282
0
283
1
284
4
285
0
286
0
287
3
288
0
340
11
278
46
  0
ENDTAB
  0
ENDSEC
  0
SECTION
  2
BLOCKS
  0
BLOCK
  5
20
100
AcDbEntity
  8
0
100
AcDbBlockBegin
  2
*Model_Space
 70
0
 10
0.0
 20
0.0
 30
0.0
  3
*Model_Space
  1

  0
ENDBLK
  5
21
100
AcDbEntity
  8
0
100
AcDbBlockEnd
  0
BLOCK
  5
1C
100
AcDbEntity
  8
0
100
AcDbBlockBegin
  2
*Paper_Space
 70
0
 10
0.0
 20
0.0
 30
0.0
  3
*Paper_Space
  1

  0
ENDBLK
  5
1D
100
AcDbEntity
  8
0
100
AcDbBlockEnd
  0
ENDSEC
  0
SECTION
  2
ENTITIES
  0
MTEXT
  5
225
100
AcDbEntity
  8
0
100
AcDbMText
 62
7
  6
CONTINUOUS
  7
STANDARD
 71
1
 72
1
 10
15.9560215477
 20
0.9479130325
 30
0.0
 11
1.0
 21
0.0
 31
0.0
 44
0.9
  1
SCALE: 1:0.500
 40
0.3
 41
3.36
  0
LINE
  5
226
100
AcDbEntity
  8
0
100
AcDbLine
 62
7
  6
CONTINUOUS
 10
0.0
 20
0.0
 11
0.0
 21
17.0
  0
LINE
  5
227
100
AcDbEntity
  8
0
100
AcDbLine
 62
7
  6
CONTINUOUS
 10
0.0
 20
0.0
 11
22.0
 21
0.0
  0
LINE
  5
228
100
AcDbEntity
  8
0
100
AcDbLine
 62
7
  6
CONTINUOUS
 10
0.0
 20
17.0
 11
22.0
 21
17.0
  0
LINE
  5
229
100
AcDbEntity
  8
0
100
AcDbLine
 62
7
  6
CONTINUOUS
 10
22.0
 20
0.0
 11
22.0
 21
17.0
  0
LINE
  5
22A
100
AcDbEntity
  8
LAYER_FEATURE
100
AcDbLine
 62
7
  6
CONTINUOUS
 10
6.4778672762
 20
4.1701198968
 11
6.4165268405
 21
4.1701198968
  0
LINE
  5
22B
100
AcDbEntity
  8
LAYER_FEATURE
100
AcDbLine
 62
7
  6
CONTINUOUS
 10
5.7828672762
 20
4.1701198968
 11
5.8442077119
 21
4.1701198968
  0
LINE
  5
22C
100
AcDbEntity
  8
02___PRT_ALL_AXES
100
AcDbLine
 62
7
  6
CONTINUOUS
 10
5.8703672762
 20
4.3196198968
 11
6.3903672762
 21
4.3196198968
  0
LINE
  5
22D
100
AcDbEntity
  8
LAYER_FEATURE
100
AcDbLine
 62
7
  6
CONTINUOUS
 10
5.7828672762
 20
6.8701198968
 11
5.7828672762
 21
4.1701198968
  0
LINE
  5
22E
100
AcDbEntity
  8
LAYER_FEATURE
100
AcDbLine
 62
7
  6
CONTINUOUS
 10
5.8442077119
 20
6.8701198968
 11
5.8442077119
 21
4.1701198968
  0
LINE
  5
22F
100
AcDbEntity
  8
LAYER_FEATURE
100
AcDbLine
 62
7
  6
CONTINUOUS
 10
5.8703672762
 20
6.7470488229
 11
5.8703672762
 21
4.2931909706
  0
LINE
  5
230
100
AcDbEntity
  8
LAYER_FEATURE
100
AcDbLine
 62
7
  6
CONTINUOUS
 10
6.4165268405
 20
6.8701198968
 11
6.3903672762
 21
6.7470488229
  0
LINE
  5
231
100
AcDbEntity
  8
LAYER_FEATURE
100
AcDbLine
 62
7
  6
CONTINUOUS
 10
5.8442077119
 20
4.1701198968
 11
5.8703672762
 21
4.2931909706
  0
LINE
  5
232
100
AcDbEntity
  8
LAYER_FEATURE
100
AcDbLine
 62
7
  6
CONTINUOUS
 10
6.4165268405
 20
4.1701198968
 11
6.3903672762
 21
4.2931909706
  0
LINE
  5
233
100
AcDbEntity
  8
LAYER_FEATURE
100
AcDbLine
 62
7
  6
CONTINUOUS
 10
5.8442077119
 20
6.8701198968
 11
5.8703672762
 21
6.7470488229
  0
LINE
  5
234
100
AcDbEntity
  8
LAYER_FEATURE
100
AcDbLine
 62
7
  6
CONTINUOUS
 10
6.3903672762
 20
6.7470488229
 11
6.3903672762
 21
4.2931909706
  0
LINE
  5
235
100
AcDbEntity
  8
LAYER_FEATURE
100
AcDbLine
 62
7
  6
CONTINUOUS
 10
6.4165268405
 20
6.8701198968
 11
6.4165268405
 21
4.1701198968
  0
LINE
  5
236
100
AcDbEntity
  8
LAYER_FEATURE
100
AcDbLine
 62
7
  6
CONTINUOUS
 10
6.4778672762
 20
6.8701198968
 11
6.4778672762
 21
4.1701198968
  0
LINE
  5
237
100
AcDbEntity
  8
LAYER_FEATURE
100
AcDbLine
 62
7
  6
CONTINUOUS
 10
5.8703672762
 20
6.3835638133
 11
6.3903672762
 21
6.3835638133
  0
LINE
  5
238
100
AcDbEntity
  8
0
100
AcDbLine
 62
7
  6
CONTINUOUS
 10
5.8703672762
 20
6.3879426658
 11
6.3903672762
 21
6.3879426658
  0
LINE
  5
239
100
AcDbEntity
  8
LAYER_FEATURE
100
AcDbLine
 62
7
  6
CONTINUOUS
 10
5.8703672762
 20
6.5254077432
 11
6.3903672762
 21
6.5254077432
  0
LINE
  5
23A
100
AcDbEntity
  8
LAYER_FEATURE
100
AcDbLine
 62
7
  6
CONTINUOUS
 10
5.8703672762
 20
6.5475124515
 11
6.3903672762
 21
6.5475124515
  0
LINE
  5
23B
100
AcDbEntity
  8
0
100
AcDbLine
 62
7
  6
CONTINUOUS
 10
5.8703672762
 20
6.5495001019
 11
6.3903672762
 21
6.5495001019
  0
LINE
  5
23C
100
AcDbEntity
  8
LAYER_FEATURE
100
AcDbLine
 62
7
  6
CONTINUOUS
 10
5.8703672762
 20
6.6462210022
 11
6.3903672762
 21
6.6462210022
  0
LINE
  5
23D
100
AcDbEntity
  8
LAYER_FEATURE
100
AcDbLine
 62
7
  6
CONTINUOUS
 10
5.8703672762
 20
6.6599433371
 11
6.3903672762
 21
6.6599433371
  0
LINE
  5
23E
100
AcDbEntity
  8
0
100
AcDbLine
 62
7
  6
CONTINUOUS
 10
5.8703672762
 20
6.6604465581
 11
6.3903672762
 21
6.6604465581
  0
LINE
  5
23F
100
AcDbEntity
  8
LAYER_FEATURE
100
AcDbLine
 62
7
  6
CONTINUOUS
 10
5.8703672762
 20
6.7105668496
 11
6.3903672762
 21
6.7105668496
  0
LINE
  5
240
100
AcDbEntity
  8
LAYER_FEATURE
100
AcDbLine
 62
7
  6
CONTINUOUS
 10
5.8703672762
 20
6.7152187159
 11
6.3903672762
 21
6.7152187159
  0
LINE
  5
241
100
AcDbEntity
  8
LAYER_FEATURE
100
AcDbLine
 62
7
  6
CONTINUOUS
 10
6.4778672762
 20
6.8701198968
 11
6.4165268405
 21
6.8701198968
  0
LINE
  5
242
100
AcDbEntity
  8
LAYER_FEATURE
100
AcDbLine
 62
7
  6
CONTINUOUS
 10
5.7828672762
 20
6.8701198968
 11
5.8442077119
 21
6.8701198968
  0
LINE
  5
243
100
AcDbEntity
  8
LAYER_FEATURE
100
AcDbLine
 62
7
  6
CONTINUOUS
 10
5.7233720839
 20
11.2500477814
 11
5.7847125196
 21
11.2500477814
  0
LINE
  5
244
100
AcDbEntity
  8
LAYER_FEATURE
100
AcDbLine
 62
7
  6
CONTINUOUS
 10
6.3570316482
 20
11.2500477814
 11
6.4183720839
 21
11.2500477814
  0
LINE
  5
245
100
AcDbEntity
  8
02___PRT_ALL_AXES
100
AcDbLine
 62
7
  6
CONTINUOUS
 10
5.8108720839
 20
11.3995477814
 11
6.3308720839
 21
11.3995477814
  0
LINE
  5
246
100
AcDbEntity
  8
LAYER_FEATURE
100
AcDbLine
 62
7
  6
CONTINUOUS
 10
5.8108720839
 20
11.7659825243
 11
6.3308720839
 21
11.7659825243
  0
LINE
  5
247
100
AcDbEntity
  8
LAYER_FEATURE
100
AcDbLine
 62
7
  6
CONTINUOUS
 10
6.3308720839
 20
11.9007610662
 11
5.8108720839
 21
11.9007610662
  0
LINE
  5
248
100
AcDbEntity
  8
0
100
AcDbLine
 62
7
  6
CONTINUOUS
 10
5.8108720839
 20
11.9362922638
 11
6.3308720839
 21
11.9362922638
  0
LINE
  5
249
100
AcDbEntity
  8
LAYER_FEATURE
100
AcDbLine
 62
7
  6
CONTINUOUS
 10
5.8108720839
 20
11.9438491866
 11
6.3308720839
 21
11.9438491866
  0
LINE
  5
24A
100
AcDbEntity
  8
LAYER_FEATURE
100
AcDbLine
 62
7
  6
CONTINUOUS
 10
5.8108720839
 20
11.9790286284
 11
6.3308720839
 21
11.9790286284
  0
LINE
  5
24B
100
AcDbEntity
  8
LAYER_FEATURE
100
AcDbLine
 62
7
  6
CONTINUOUS
 10
6.3308720839
 20
12.1027104363
 11
5.8108720839
 21
12.1027104363
  0
LINE
  5
24C
100
AcDbEntity
  8
LAYER_FEATURE
100
AcDbLine
 62
7
  6
CONTINUOUS
 10
6.3308720839
 20
12.1567685684
 11
5.8108720839
 21
12.1567685684
  0
LINE
  5
24D
100
AcDbEntity
  8
0
100
AcDbLine
 62
7
  6
CONTINUOUS
 10
5.8108720839
 20
12.1726365465
 11
6.3308720839
 21
12.1726365465
  0
LINE
  5
24E
100
AcDbEntity
  8
LAYER_FEATURE
100
AcDbLine
 62
7
  6
CONTINUOUS
 10
5.8108720839
 20
12.1839990458
 11
6.3308720839
 21
12.1839990458
  0
LINE
  5
24F
100
AcDbEntity
  8
LAYER_FEATURE
100
AcDbLine
 62
7
  6
CONTINUOUS
 10
5.8108720839
 20
12.223215226
 11
6.3308720839
 21
12.223215226
  0
LINE
  5
250
100
AcDbEntity
  8
LAYER_FEATURE
100
AcDbLine
 62
7
  6
CONTINUOUS
 10
5.7233720839
 20
11.2500477814
 11
5.7233720839
 21
13.9500477814
  0
LINE
  5
251
100
AcDbEntity
  8
LAYER_FEATURE
100
AcDbLine
 62
7
  6
CONTINUOUS
 10
5.7847125196
 20
11.2500477814
 11
5.7847125196
 21
13.9500477814
  0
LINE
  5
252
100
AcDbEntity
  8
LAYER_FEATURE
100
AcDbLine
 62
7
  6
CONTINUOUS
 10
6.3308720839
 20
12.3295983776
 11
5.8108720839
 21
12.3295983776
  0
LINE
  5
253
100
AcDbEntity
  8
LAYER_FEATURE
100
AcDbLine
 62
7
  6
CONTINUOUS
 10
5.8108720839
 20
11.3731188553
 11
5.8108720839
 21
13.8269767075
  0
LINE
  5
254
100
AcDbEntity
  8
LAYER_FEATURE
100
AcDbLine
 62
7
  6
CONTINUOUS
 10
6.3308720839
 20
12.3880940524
 11
5.8108720839
 21
12.3880940524
  0
LINE
  5
255
100
AcDbEntity
  8
LAYER_FEATURE
100
AcDbLine
 62
7
  6
CONTINUOUS
 10
5.8108720839
 20
12.445011326
 11
6.3308720839
 21
12.445011326
  0
LINE
  5
256
100
AcDbEntity
  8
LAYER_FEATURE
100
AcDbLine
 62
7
  6
CONTINUOUS
 10
5.8108720839
 20
12.4862977814
 11
6.3308720839
 21
12.4862977814
  0
LINE
  5
257
100
AcDbEntity
  8
LAYER_FEATURE
100
AcDbLine
 62
7
  6
CONTINUOUS
 10
6.3308720839
 20
13.8269767075
 11
6.3570316482
 21
13.9500477814
  0
LINE
  5
258
100
AcDbEntity
  8
LAYER_FEATURE
100
AcDbLine
 62
7
  6
CONTINUOUS
 10
5.7847125196
 20
11.2500477814
 11
5.8108720839
 21
11.3731188553
  0
LINE
  5
259
100
AcDbEntity
  8
LAYER_FEATURE
100
AcDbLine
 62
7
  6
CONTINUOUS
 10
6.3308720839
 20
12.5700477814
 11
5.8108720839
 21
12.5700477814
  0
LINE
  5
25A
100
AcDbEntity
  8
LAYER_FEATURE
100
AcDbLine
 62
7
  6
CONTINUOUS
 10
6.3308720839
 20
11.3731188553
 11
6.3570316482
 21
11.2500477814
  0
LINE
  5
25B
100
AcDbEntity
  8
LAYER_FEATURE
100
AcDbLine
 62
7
  6
CONTINUOUS
 10
5.7847125196
 20
13.9500477814
 11
5.8108720839
 21
13.8269767075
  0
LINE
  5
25C
100
AcDbEntity
  8
LAYER_FEATURE
100
AcDbLine
 62
7
  6
CONTINUOUS
 10
6.3308720839
 20
12.6300477814
 11
5.8108720839
 21
12.6300477814
  0
LINE
  5
25D
100
AcDbEntity
  8
LAYER_FEATURE
100
AcDbLine
 62
7
  6
CONTINUOUS
 10
5.8108720839
 20
12.7137977814
 11
6.3308720839
 21
12.7137977814
  0
LINE
  5
25E
100
AcDbEntity
  8
LAYER_FEATURE
100
AcDbLine
 62
7
  6
CONTINUOUS
 10
6.3308720839
 20
11.3731188553
 11
6.3308720839
 21
13.8269767075
  0
LINE
  5
25F
100
AcDbEntity
  8
LAYER_FEATURE
100
AcDbLine
 62
7
  6
CONTINUOUS
 10
6.3570316482
 20
11.2500477814
 11
6.3570316482
 21
13.9500477814
  0
LINE
  5
260
100
AcDbEntity
  8
LAYER_FEATURE
100
AcDbLine
 62
7
  6
CONTINUOUS
 10
6.4183720839
 20
11.2500477814
 11
6.4183720839
 21
13.9500477814
  0
LINE
  5
261
100
AcDbEntity
  8
02___PRT_ALL_AXES
100
AcDbLine
 62
7
  6
CONTINUOUS
 10
5.8108720839
 20
13.8005477814
 11
6.3308720839
 21
13.8005477814
  0
LINE
  5
262
100
AcDbEntity
  8
LAYER_FEATURE
100
AcDbLine
 62
7
  6
CONTINUOUS
 10
5.7233720839
 20
13.9500477814
 11
5.7847125196
 21
13.9500477814
  0
LINE
  5
263
100
AcDbEntity
  8
LAYER_FEATURE
100
AcDbLine
 62
7
  6
CONTINUOUS
 10
6.3570316482
 20
13.9500477814
 11
6.4183720839
 21
13.9500477814
  0
LINE
  5
264
100
AcDbEntity
  8
LAYER_FEATURE
100
AcDbLine
 62
7
  6
CONTINUOUS
 10
15.1510196969
 20
11.1608049929
 11
15.2075179796
 21
11.1608049929
  0
LINE
  5
265
100
AcDbEntity
  8
LAYER_FEATURE
100
AcDbLine
 62
7
  6
CONTINUOUS
 10
15.7346588051
 20
11.1608049929
 11
15.7911570877
 21
11.1608049929
  0
LINE
  5
266
100
AcDbEntity
  8
02___PRT_ALL_AXES
100
AcDbLine
 62
7
  6
CONTINUOUS
 10
15.2316125339
 20
11.3103049929
 11
15.4942084443
 21
11.3103049929
  0
LINE
  5
267
100
AcDbEntity
  8
02___PRT_ALL_AXES
100
AcDbLine
 62
7
  6
CONTINUOUS
 10
15.7318169304
 20
13.5032130179
 11
15.7149409692
 21
13.4973334756
  0
LINE
  5
268
100
AcDbEntity
  8
02___PRT_ALL_AXES
100
AcDbLine
 62
7
  6
CONTINUOUS
 10
15.7318169304
 20
11.5183969679
 11
15.7149409692
 21
11.5242765102
  0
LINE
  5
269
100
AcDbEntity
  8
LAYER_FEATURE
100
AcDbLine
 62
7
  6
CONTINUOUS
 10
14.8971250834
 20
13.1721815488
 11
14.9082243923
 21
13.2080989253
  0
LINE
  5
26A
100
AcDbEntity
  8
LAYER_FEATURE
100
AcDbLine
 62
7
  6
CONTINUOUS
 10
14.8095318022
 20
12.4782013268
 11
14.8094756769
 21
12.5382011537
  0
LINE
  5
26B
100
AcDbEntity
  8
LAYER_FEATURE
100
AcDbLine
 62
7
  6
CONTINUOUS
 10
14.8172890179
 20
12.7202036037
 11
14.8224335089
 21
12.7787311807
  0
LINE
  5
26C
100
AcDbEntity
  8
LAYER_FEATURE
100
AcDbLine
 62
7
  6
CONTINUOUS
 10
14.8458221449
 20
12.95170576
 11
14.8559092857
 21
13.0058262699
  0
LINE
  5
26D
100
AcDbEntity
  8
LAYER_FEATURE
100
AcDbLine
 62
7
  6
CONTINUOUS
 10
14.7712099497
 20
12.4128370894
 11
14.790687161
 21
12.4330849549
  0
LINE
  5
26E
100
AcDbEntity
  8
LAYER_FEATURE
100
AcDbLine
 62
7
  6
CONTINUOUS
 10
14.7742639192
 20
12.6783760085
 11
14.7950073492
 21
12.6869865744
  0
LINE
  5
26F
100
AcDbEntity
  8
LAYER_FEATURE
100
AcDbLine
 62
7
  6
CONTINUOUS
 10
14.7905468479
 20
12.5830845222
 11
14.771031981
 21
12.6030918674
  0
LINE
  5
270
100
AcDbEntity
  8
LAYER_FEATURE
100
AcDbLine
 62
7
  6
CONTINUOUS
 10
14.8078685766
 20
12.8333055169
 11
14.7905766993
 21
12.8639623966
  0
LINE
  5
271
100
AcDbEntity
  8
LAYER_FEATURE
100
AcDbLine
 62
7
  6
CONTINUOUS
 10
14.8464385966
 20
13.0673549886
 11
14.8322367959
 21
13.1071241389
  0
LINE
  5
272
100
AcDbEntity
  8
LAYER_FEATURE
100
AcDbLine
 62
7
  6
CONTINUOUS
 10
14.9043228463
 20
13.2734967197
 11
14.8939232597
 21
13.3203839492
  0
LINE
  5
273
100
AcDbEntity
  8
02___PRT_ALL_AXES
100
AcDbLine
 62
7
  6
CONTINUOUS
 10
15.4886428706
 20
12.2143180229
 11
15.4919784869
 21
12.2146539405
  0
LINE
  5
274
100
AcDbEntity
  8
02___PRT_ALL_AXES
100
AcDbLine
 62
7
  6
CONTINUOUS
 10
15.4919784869
 20
12.2146539405
 11
15.4852258626
 21
12.2146997737
  0
LINE
  5
275
100
AcDbEntity
  8
02___PRT_ALL_AXES
100
AcDbLine
 62
7
  6
CONTINUOUS
 10
15.4919784869
 20
12.2146539405
 11
15.4852236174
 21
12.214710862
  0
LINE
  5
276
100
AcDbEntity
  8
LAYER_FEATURE
100
AcDbLine
 62
7
  6
CONTINUOUS
 10
14.7663268796
 20
12.3941845782
 11
15.2109921134
 21
12.3941845782
  0
LINE
  5
277
100
AcDbEntity
  8
LAYER_FEATURE
100
AcDbLine
 62
7
  6
CONTINUOUS
 10
15.209183038
 20
12.4782013268
 11
14.8095318022
 21
12.4782013268
  0
LINE
  5
278
100
AcDbEntity
  8
LAYER_FEATURE
100
AcDbLine
 62
7
  6
CONTINUOUS
 10
15.2091519611
 20
12.5382011537
 11
14.8094756769
 21
12.5382011537
  0
LINE
  5
279
100
AcDbEntity
  8
LAYER_FEATURE
100
AcDbLine
 62
7
  6
CONTINUOUS
 10
14.7661140714
 20
12.6216839218
 11
15.2107251081
 21
12.6216839218
  0
LINE
  5
27A
100
AcDbEntity
  8
LAYER_FEATURE
100
AcDbLine
 62
7
  6
CONTINUOUS
 10
14.7678869681
 20
12.6629814324
 11
15.212361154
 21
12.6629814324
  0
LINE
  5
27B
100
AcDbEntity
  8
LAYER_FEATURE
100
AcDbLine
 62
7
  6
CONTINUOUS
 10
15.2153485938
 20
12.7202036037
 11
14.8172890179
 21
12.7202036037
  0
LINE
  5
27C
100
AcDbEntity
  8
LAYER_FEATURE
100
AcDbLine
 62
7
  6
CONTINUOUS
 10
15.219403899
 20
12.7787311807
 11
14.8224335089
 21
12.7787311807
  0
LINE
  5
27D
100
AcDbEntity
  8
LAYER_FEATURE
100
AcDbLine
 62
7
  6
CONTINUOUS
 10
14.7873931629
 20
12.8848984951
 11
15.2295584149
 21
12.8848984951
  0
LINE
  5
27E
100
AcDbEntity
  8
LAYER_FEATURE
100
AcDbLine
 62
7
  6
CONTINUOUS
 10
14.7927001928
 20
12.9241475244
 11
15.2342484485
 21
12.9241475244
  0
LINE
  5
27F
100
AcDbEntity
  8
0
100
AcDbLine
 62
7
  6
CONTINUOUS
 10
14.7997502927
 20
12.9355534867
 11
15.2356700093
 21
12.9355534867
  0
LINE
  5
280
100
AcDbEntity
  8
LAYER_FEATURE
100
AcDbLine
 62
7
  6
CONTINUOUS
 10
15.2378738174
 20
12.95170576
 11
14.8458221449
 21
12.95170576
  0
LINE
  5
281
100
AcDbEntity
  8
LAYER_FEATURE
100
AcDbLine
 62
7
  6
CONTINUOUS
 10
15.245670853
 20
13.0058262699
 11
14.8559092857
 21
13.0058262699
  0
LINE
  5
282
100
AcDbEntity
  8
LAYER_FEATURE
100
AcDbLine
 62
7
  6
CONTINUOUS
 10
14.8309472685
 20
13.129354458
 11
15.2673905485
 21
13.129354458
  0
LINE
  5
283
100
AcDbEntity
  8
02___PRT_ALL_AXES
100
AcDbLine
 62
7
  6
CONTINUOUS
 10
15.7213700013
 20
13.1975883739
 11
15.7256755958
 21
13.1980043686
  0
LINE
  5
284
100
AcDbEntity
  8
LAYER_FEATURE
100
AcDbLine
 62
7
  6
CONTINUOUS
 10
14.839522315
 20
13.164586896
 11
15.2747808102
 21
13.164586896
  0
LINE
  5
285
100
AcDbEntity
  8
0
100
AcDbLine
 62
7
  6
CONTINUOUS
 10
14.8456447994
 20
13.1721815488
 11
15.2763738442
 21
13.1721815488
  0
LINE
  5
286
100
AcDbEntity
  8
LAYER_FEATURE
100
AcDbLine
 62
7
  6
CONTINUOUS
 10
15.2845910125
 20
13.2080989253
 11
14.9082243923
 21
13.2080989253
  0
LINE
  5
287
100
AcDbEntity
  8
LAYER_FEATURE
100
AcDbLine
 62
7
  6
CONTINUOUS
 10
14.8945924036
 20
13.3427937679
 11
15.3207202178
 21
13.3427937679
  0
LINE
  5
288
100
AcDbEntity
  8
02___PRT_ALL_AXES
100
AcDbLine
 62
7
  6
CONTINUOUS
 10
15.2316125339
 20
13.7113049929
 11
15.4943223393
 21
13.7113049929
  0
LINE
  5
289
100
AcDbEntity
  8
LAYER_FEATURE
100
AcDbLine
 62
7
  6
CONTINUOUS
 10
15.1510196969
 20
13.8608049929
 11
15.2075179796
 21
13.8608049929
  0
LINE
  5
28A
100
AcDbEntity
  8
LAYER_FEATURE
100
AcDbLine
 62
7
  6
CONTINUOUS
 10
15.7346588051
 20
13.8608049929
 11
15.7911570877
 21
13.8608049929
  0
CIRCLE
  5
28B
100
AcDbEntity
  8
LAYER_FEATURE
100
AcDbCircle
 62
7
  6
CONTINUOUS
 10
15.5603552569
 20
5.4606247044
 40
1.35
  0
CIRCLE
  5
28C
100
AcDbEntity
  8
LAYER_FEATURE
100
AcDbCircle
 62
7
  6
CONTINUOUS
 10
15.5603552569
 20
5.4606247044
 40
1.2269289261
  0
CIRCLE
  5
28D
100
AcDbEntity
  8
02___PRT_ALL_AXES
100
AcDbCircle
 62
7
  6
CONTINUOUS
 10
15.5603552569
 20
5.4606247044
 40
1.0015
  0
CIRCLE
  5
28E
100
AcDbEntity
  8
LAYER_CUT_FEAT
100
AcDbCircle
 62
7
  6
CONTINUOUS
 10
15.5603552569
 20
5.4606247044
 40
0.9025
  0
ARC
  5
28F
100
AcDbEntity
  8
02___PRT_ALL_AXES
100
AcDbCircle
 62
7
  6
CONTINUOUS
 10
15.5603552569
 20
5.4606247044
 40
0.6875
100
AcDbArc
 50
153.9499278124
 51
231.0500721876
  0
ARC
  5
290
100
AcDbEntity
  8
02___PRT_ALL_AXES
100
AcDbCircle
 62
7
  6
CONTINUOUS
 10
15.5603552569
 20
5.4606247044
 40
0.6875
100
AcDbArc
 50
58.9499278124
 51
136.0500721876
  0
ARC
  5
291
100
AcDbEntity
  8
02___PRT_ALL_AXES
100
AcDbCircle
 62
7
  6
CONTINUOUS
 10
15.5603552569
 20
5.4606247044
 40
0.6875
100
AcDbArc
 50
248.9499278124
 51
41.0500721876
  0
ARC
  5
292
100
AcDbEntity
  8
02___PRT_ALL_AXES
100
AcDbCircle
 62
7
  6
CONTINUOUS
 10
15.5603552569
 20
5.4606247044
 40
0.6656478713
100
AcDbArc
 50
135.5426864311
 51
154.4573135689
  0
ARC
  5
293
100
AcDbEntity
  8
02___PRT_ALL_AXES
100
AcDbCircle
 62
7
  6
CONTINUOUS
 10
15.5603552569
 20
5.4606247044
 40
0.6437957425
100
AcDbArc
 50
59.5897023119
 51
230.4102976881
  0
ARC
  5
294
100
AcDbEntity
  8
02___PRT_ALL_AXES
100
AcDbCircle
 62
7
  6
CONTINUOUS
 10
15.5603552569
 20
5.4606247044
 40
0.6437957425
100
AcDbArc
 50
249.5897023119
 51
40.4102976881
  0
ARC
  5
295
100
AcDbEntity
  8
02___PRT_ALL_AXES
100
AcDbCircle
 62
7
  6
CONTINUOUS
 10
15.9821846258
 20
5.9633413702
 40
0.109375
100
AcDbArc
 50
308.6898214686
 51
151.3101785314
  0
ARC
  5
296
100
AcDbEntity
  8
02___PRT_ALL_AXES
100
AcDbCircle
 62
7
  6
CONTINUOUS
 10
15.2322302569
 20
4.8922955332
 40
0.109375
100
AcDbArc
 50
138.6898214686
 51
341.3101785314
  0
ARC
  5
297
100
AcDbEntity
  8
02___PRT_ALL_AXES
100
AcDbCircle
 62
7
  6
CONTINUOUS
 10
15.0227867279
 20
5.8370342408
 40
0.109375
100
AcDbArc
 50
55.1836503003
 51
234.8163496997
  0
ARC
  5
298
100
AcDbEntity
  8
02___PRT_ALL_AXES
100
AcDbCircle
 62
7
  6
CONTINUOUS
 10
20.1188101116
 20
76.8500260674
 40
65.1539451147
100
AcDbArc
 50
266.0772834204
 51
266.1923001208
  0
ARC
  5
299
100
AcDbEntity
  8
02___PRT_ALL_AXES
100
AcDbCircle
 62
7
  6
CONTINUOUS
 10
13.2459762763
 20
-21.0001997143
 40
33.023113793
100
AcDbArc
 50
85.443267215
 51
85.9389272447
  0
ARC
  5
29A
100
AcDbEntity
  8
LAYER_FEATURE
100
AcDbCircle
 62
7
  6
CONTINUOUS
 10
17.7972743302
 20
12.5122434248
 40
3.0331352981
100
AcDbArc
 50
177.1513929021
 51
177.932225455
  0
ARC
  5
29B
100
AcDbEntity
  8
LAYER_FEATURE
100
AcDbCircle
 62
7
  6
CONTINUOUS
 10
17.4295714552
 20
12.5476215246
 40
2.663618194
100
AcDbArc
 50
171.8735154404
 51
172.7254727006
  0
ARC
  5
29C
100
AcDbEntity
  8
LAYER_FEATURE
100
AcDbCircle
 62
7
  6
CONTINUOUS
 10
16.8176229092
 20
12.6644871696
 40
2.0403386231
100
AcDbArc
 50
165.8118877859
 51
166.8301630906
  0
SPLINE
  5
29D
100
AcDbEntity
  8
LAYER_CUT_FEAT
100
AcDbSpline
 62
7
  6
CONTINUOUS
 70
0
 71
3
 72
27
 73
23
 74
0
 42
0.0000001
 43
0.0000001
 44
0.0000000001
 40
0.0
 40
0.0
 40
0.0
 40
0.0
 40
0.0835111469
 40
0.1639083329
 40
0.2411670976
 40
0.3152835253
 40
0.3862766073
 40
0.4541914554
 40
0.5191027311
 40
0.5811185606
 40
0.640384714
 40
0.6970888453
 40
0.7514643505
 40
0.8037931727
 40
0.8292988651
 40
0.8544212665
 40
0.8792091152
 40
0.9037137734
 40
0.9279888829
 40
0.9520900446
 40
0.9760743644
 40
1.0
 40
1.0
 40
1.0
 40
1.0
 10
15.5657842734
 20
11.803852457
 30
0.0
 10
15.5695615388
 20
11.7961551994
 30
0.0
 10
15.5772281162
 20
11.7811698582
 30
0.0
 10
15.5893075036
 20
11.7595489238
 30
0.0
 10
15.6017296814
 20
11.7392445207
 30
0.0
 10
15.6144731453
 20
11.7202922538
 30
0.0
 10
15.6275162063
 20
11.7027249405
 30
0.0
 10
15.6408368012
 20
11.6865731268
 30
0.0
 10
15.6544126326
 20
11.6718649736
 30
0.0
 10
15.6682212483
 20
11.6586263342
 30
0.0
 10
15.6822399308
 20
11.6468808969
 30
0.0
 10
15.6964461465
 20
11.6366501554
 30
0.0
 10
15.7108156563
 20
11.6279541529
 30
0.0
 10
15.7230121173
 20
11.6219497605
 30
0.0
 10
15.7328042873
 20
11.6179593085
 30
0.0
 10
15.7401099108
 20
11.6153842641
 30
0.0
 10
15.7474355166
 20
11.6132032669
 30
0.0
 10
15.7547779613
 20
11.6114172698
 30
0.0
 10
15.7621338844
 20
11.6100272319
 30
0.0
 10
15.7695000202
 20
11.6090338193
 30
0.0
 10
15.7768727211
 20
11.6084375762
 30
0.0
 10
15.781792677
 20
11.6083049999
 30
0.0
 10
15.7842491303
 20
11.608304996
 30
0.0
  0
SPLINE
  5
29E
100
AcDbEntity
  8
02___PRT_ALL_AXES
100
AcDbSpline
 62
7
  6
CONTINUOUS
 70
0
 71
3
 72
39
 73
35
 74
0
 42
0.0000001
 43
0.0000001
 44
0.0000000001
 40
0.0
 40
0.0
 40
0.0
 40
0.0
 40
0.0461783307
 40
0.0913991069
 40
0.135631557
 40
0.1788496002
 40
0.2210282928
 40
0.2621457526
 40
0.3021829177
 40
0.341123823
 40
0.3789559125
 40
0.4156703282
 40
0.4512622889
 40
0.4857314714
 40
0.5190824442
 40
0.5513251624
 40
0.5824755269
 40
0.612555998
 40
0.6415962312
 40
0.6696337631
 40
0.6967147154
 40
0.7228944887
 40
0.7482383589
 40
0.7728219197
 40
0.7967312939
 40
0.8200630028
 40
0.8429233909
 40
0.865427506
 40
0.8876974334
 40
0.9098601183
 40
0.932044798
 40
0.9543802356
 40
0.9769919976
 40
1.0
 40
1.0
 40
1.0
 40
1.0
 10
16.0897485597
 20
11.8882626097
 30
0.0
 10
16.0871615712
 20
11.8798911116
 30
0.0
 10
16.0818875296
 20
11.8633686867
 30
0.0
 10
16.073584634
 20
11.8390077199
 30
0.0
 10
16.0649794862
 20
11.8153484876
 30
0.0
 10
16.0560812101
 20
11.7924159059
 30
0.0
 10
16.0468989993
 20
11.7702337426
 30
0.0
 10
16.0374424554
 20
11.7488251611
 30
0.0
 10
16.0277214238
 20
11.7282124395
 30
0.0
 10
16.0177460131
 20
11.7084170306
 30
0.0
 10
16.0075265823
 20
11.689459528
 30
0.0
 10
15.9970737157
 20
11.6713596433
 30
0.0
 10
15.9863982256
 20
11.6541361786
 30
0.0
 10
15.9755111233
 20
11.6378070146
 30
0.0
 10
15.9644235985
 20
11.6223891034
 30
0.0
 10
15.9531470009
 20
11.6078984594
 30
0.0
 10
15.9416928228
 20
11.5943501483
 30
0.0
 10
15.9300726927
 20
11.5817582761
 30
0.0
 10
15.9182983435
 20
11.5701360096
 30
0.0
 10
15.9063816084
 20
11.5594955902
 30
0.0
 10
15.8943344148
 20
11.5498483556
 30
0.0
 10
15.8821688092
 20
11.5412047454
 30
0.0
 10
15.8698969807
 20
11.5335743251
 30
0.0
 10
15.8575313043
 20
11.5269658112
 30
0.0
 10
15.8450844123
 20
11.5213870608
 30
0.0
 10
15.832569271
 20
11.5168450279
 30
0.0
 10
15.8199992616
 20
11.5133456468
 30
0.0
 10
15.8073882032
 20
11.5108937269
 30
0.0
 10
15.7947503435
 20
11.5094927908
 30
0.0
 10
15.7821002374
 20
11.509144933
 30
0.0
 10
15.7694526883
 20
11.5098506586
 30
0.0
 10
15.7568221628
 20
11.5116089744
 30
0.0
 10
15.7442240347
 20
11.5144169958
 30
0.0
 10
15.735939543
 20
11.5169606582
 30
0.0
 10
15.7318169304
 20
11.518396968
 30
0.0
  0
SPLINE
  5
29F
100
AcDbEntity
  8
02___PRT_ALL_AXES
100
AcDbSpline
 62
7
  6
CONTINUOUS
 70
0
 71
3
 72
46
 73
42
 74
0
 42
0.0000001
 43
0.0000001
 44
0.0000000001
 40
0.0
 40
0.0
 40
0.0
 40
0.0
 40
0.0246252324
 40
0.0512678644
 40
0.0798893012
 40
0.1104090006
 40
0.1427137517
 40
0.1766631726
 40
0.2120946463
 40
0.2488271687
 40
0.2866646654
 40
0.32539891
 40
0.364812198
 40
0.4046798506
 40
0.444772611
 40
0.4848589786
 40
0.5247075156
 40
0.5640891544
 40
0.602779535
 40
0.6405614112
 40
0.6772271606
 40
0.7125814617
 40
0.746444234
 40
0.7786539723
 40
0.8090716775
 40
0.8375856804
 40
0.8641177977
 40
0.8766299703
 40
0.8886371308
 40
0.9001430095
 40
0.9111555434
 40
0.9216873909
 40
0.9317564539
 40
0.9413867098
 40
0.9506086083
 40
0.9594599141
 40
0.9679858889
 40
0.9762395896
 40
0.984281283
 40
0.9921775097
 40
1.0
 40
1.0
 40
1.0
 40
1.0
 10
15.4682275535
 20
12.4196851727
 30
0.0
 10
15.4671553061
 20
12.4181813987
 30
0.0
 10
15.4650726049
 20
12.4149425067
 30
0.0
 10
15.46223285
 20
12.4096610753
 30
0.0
 10
15.4595716919
 20
12.4037986457
 30
0.0
 10
15.4571071219
 20
12.397394602
 30
0.0
 10
15.4548555244
 20
12.3904914982
 30
0.0
 10
15.4528321828
 20
12.3831357048
 30
0.0
 10
15.4510508568
 20
12.3753767756
 30
0.0
 10
15.4495237156
 20
12.367267147
 30
0.0
 10
15.4482612074
 20
12.3588617272
 30
0.0
 10
15.4472719787
 20
12.3502175042
 30
0.0
 10
15.4465628078
 20
12.3413931365
 30
0.0
 10
15.446138556
 20
12.3324485392
 30
0.0
 10
15.4460021321
 20
12.3234444645
 30
0.0
 10
15.4461544716
 20
12.3144420781
 30
0.0
 10
15.4465945302
 20
12.3055025344
 30
0.0
 10
15.4473192913
 20
12.2966865507
 30
0.0
 10
15.4483237875
 20
12.288053984
 30
0.0
 10
15.4496011344
 20
12.2796634113
 30
0.0
 10
15.4511425833
 20
12.2715717146
 30
0.0
 10
15.4529375874
 20
12.263833679
 30
0.0
 10
15.4549738931
 20
12.25650158
 30
0.0
 10
15.4572376337
 20
12.2496248485
 30
0.0
 10
15.4597135242
 20
12.2432495088
 30
0.0
 10
15.4623848732
 20
12.2374184486
 30
0.0
 10
15.4648045946
 20
12.2329608363
 30
0.0
 10
15.466831543
 20
12.2297113211
 30
0.0
 10
15.4683592489
 20
12.2274816598
 30
0.0
 10
15.4699216384
 20
12.2254154106
 30
0.0
 10
15.4715161878
 20
12.2235160466
 30
0.0
 10
15.473140287
 20
12.2217867721
 30
0.0
 10
15.4747913612
 20
12.2202305657
 30
0.0
 10
15.476466742
 20
12.2188500885
 30
0.0
 10
15.4781638265
 20
12.2176478613
 30
0.0
 10
15.4798798732
 20
12.2166260743
 30
0.0
 10
15.4816121554
 20
12.2157868139
 30
0.0
 10
15.4833577421
 20
12.215131871
 30
0.0
 10
15.4851136385
 20
12.2146628094
 30
0.0
 10
15.4868763301
 20
12.2143808371
 30
0.0
 10
15.4880561805
 20
12.2143180133
 30
0.0
 10
15.4886428706
 20
12.2143180165
 30
0.0
  0
SPLINE
  5
2A0
100
AcDbEntity
  8
02___PRT_ALL_AXES
100
AcDbSpline
 62
7
  6
CONTINUOUS
 70
0
 71
3
 72
23
 73
19
 74
0
 42
0.0000001
 43
0.0000001
 44
0.0000000001
 40
0.0
 40
0.0
 40
0.0
 40
0.0
 40
0.0888376409
 40
0.174505467
 40
0.2567846962
 40
0.335494344
 40
0.4104786557
 40
0.4816207752
 40
0.5488460967
 40
0.6121310695
 40
0.6715128681
 40
0.7271015292
 40
0.7790945523
 40
0.8277932425
 40
0.8736186965
 40
0.9171228279
 40
0.958986951
 40
1.0
 40
1.0
 40
1.0
 40
1.0
 10
15.7920674074
 20
11.8399048432
 30
0.0
 10
15.7925428403
 20
11.8380701019
 30
0.0
 10
15.7935340757
 20
11.8344805876
 30
0.0
 10
15.7951743938
 20
11.8292522672
 30
0.0
 10
15.7969364371
 20
11.8242922259
 30
0.0
 10
15.7988134915
 20
11.8196191513
 30
0.0
 10
15.8007985998
 20
11.815250413
 30
0.0
 10
15.8028843654
 20
11.8112022817
 30
0.0
 10
15.8050631413
 20
11.8074897438
 30
0.0
 10
15.8073270453
 20
11.8041264914
 30
0.0
 10
15.8096680704
 20
11.8011248989
 30
0.0
 10
15.8120781843
 20
11.798496064
 30
0.0
 10
15.8145494
 20
11.796249923
 30
0.0
 10
15.8170738113
 20
11.7943954704
 30
0.0
 10
15.8196432719
 20
11.7929410516
 30
0.0
 10
15.8222492758
 20
11.7918945362
 30
0.0
 10
15.8248807184
 20
11.7912630464
 30
0.0
 10
15.8266519464
 20
11.7911217758
 30
0.0
 10
15.8275269545
 20
11.79112178
 30
0.0
  0
SPLINE
  5
2A1
100
AcDbEntity
  8
02___PRT_ALL_AXES
100
AcDbSpline
 62
7
  6
CONTINUOUS
 70
0
 71
3
 72
64
 73
60
 74
0
 42
0.0000001
 43
0.0000001
 44
0.0000000001
 40
0.0
 40
0.0
 40
0.0
 40
0.0
 40
0.008204725
 40
0.0162541195
 40
0.0242052971
 40
0.0321180463
 40
0.0400532359
 40
0.0480711018
 40
0.056229603
 40
0.0645830213
 40
0.0731809164
 40
0.0820674736
 40
0.0866319921
 40
0.0912826413
 40
0.1008564433
 40
0.1108177403
 40
0.1211888835
 40
0.1319875531
 40
0.1432271932
 40
0.1549174352
 40
0.1670644946
 40
0.1796715309
 40
0.1927389689
 40
0.2062647811
 40
0.2202447369
 40
0.2346726186
 40
0.249540412
 40
0.2648384724
 40
0.2805556707
 40
0.2966795234
 40
0.3131963079
 40
0.3300911674
 40
0.3473482035
 40
0.364950563
 40
0.3828805157
 40
0.4011195278
 40
0.4196483303
 40
0.4384469828
 40
0.4574949349
 40
0.4767710839
 40
0.4962538317
 40
0.5357494202
 40
0.5758022276
 40
0.6162269578
 40
0.6568352905
 40
0.6974374251
 40
0.7378436116
 40
0.77786568
 40
0.8173185851
 40
0.836775621
 40
0.8560232138
 40
0.8750398273
 40
0.8938044276
 40
0.9122965429
 40
0.930496309
 40
0.9483845728
 40
0.9659428363
 40
0.983153625
 40
1.0
 40
1.0
 40
1.0
 40
1.0
 10
15.7318169308
 20
13.5032130104
 30
0.0
 10
15.7365436239
 20
13.5048597788
 30
0.0
 10
15.7460532696
 20
13.5077226658
 30
0.0
 10
15.7605403295
 20
13.510684377
 30
0.0
 10
15.775065773
 20
13.512258728
 30
0.0
 10
15.7896055015
 20
13.5124419021
 30
0.0
 10
15.8041367995
 20
13.5112336184
 30
0.0
 10
15.8186367
 20
13.5086364444
 30
0.0
 10
15.8330829793
 20
13.5046557936
 30
0.0
 10
15.8474544372
 20
13.4992993863
 30
0.0
 10
15.8617303812
 20
13.4925772233
 30
0.0
 10
15.8734266211
 20
13.4859063827
 30
0.0
 10
15.8827101735
 20
13.4799225336
 30
0.0
 10
15.8921220619
 20
13.4733765459
 30
0.0
 10
15.9037968143
 20
13.4643355406
 30
0.0
 10
15.9175030918
 20
13.4522779196
 30
0.0
 10
15.9310221451
 20
13.4389252476
 30
0.0
 10
15.9443357967
 20
13.4242964618
 30
0.0
 10
15.9574266492
 20
13.4084116127
 30
0.0
 10
15.9702772891
 20
13.3912924937
 30
0.0
 10
15.9828705523
 20
13.3729624929
 30
0.0
 10
15.9951895001
 20
13.3534466436
 30
0.0
 10
16.0072174793
 20
13.3327715997
 30
0.0
 10
16.018938159
 20
13.310965618
 30
0.0
 10
16.0303355694
 20
13.288058527
 30
0.0
 10
16.0413941377
 20
13.2640816902
 30
0.0
 10
16.0520987202
 20
13.239067965
 30
0.0
 10
16.0624346317
 20
13.2130516578
 30
0.0
 10
16.0723876733
 20
13.1860684763
 30
0.0
 10
16.0819441581
 20
13.1581554794
 30
0.0
 10
16.091090933
 20
13.1293510231
 30
0.0
 10
16.0998154002
 20
13.0996947066
 30
0.0
 10
16.1081055372
 20
13.0692273154
 30
0.0
 10
16.1159499154
 20
13.037990764
 30
0.0
 10
16.1233377169
 20
13.0060280371
 30
0.0
 10
16.1302587512
 20
12.9733831278
 30
0.0
 10
16.1367034686
 20
12.9401009795
 30
0.0
 10
16.1426629787
 20
12.906227412
 30
0.0
 10
16.1481290456
 20
12.8718090976
 30
0.0
 10
16.1530941702
 20
12.8368933464
 30
0.0
 10
16.1590639719
 20
12.7895267654
 30
0.0
 10
16.1652131669
 20
12.7294155389
 30
0.0
 10
16.1704694938
 20
12.6564036912
 30
0.0
 10
16.1736068927
 20
12.5825905808
 30
0.0
 10
16.1746079929
 20
12.5083826968
 30
0.0
 10
16.1734672409
 20
12.4341881378
 30
0.0
 10
16.1701909696
 20
12.3604149261
 30
0.0
 10
16.1647973155
 20
12.2874693295
 30
0.0
 10
16.1585346029
 20
12.227430593
 30
0.0
 10
16.1524750907
 20
12.1801350261
 30
0.0
 10
16.1474442031
 20
12.1452814482
 30
0.0
 10
16.1419133188
 20
12.1109315324
 30
0.0
 10
16.1358900271
 20
12.0771324916
 30
0.0
 10
16.1293826511
 20
12.0439308994
 30
0.0
 10
16.1224001686
 20
12.0113724478
 30
0.0
 10
16.1149522129
 20
11.9795020064
 30
0.0
 10
16.1070490469
 20
11.9483633217
 30
0.0
 10
16.0987016146
 20
11.9179995117
 30
0.0
 10
16.0927828872
 20
11.8980816971
 30
0.0
 10
16.0897485597
 20
11.8882626097
 30
0.0
  0
SPLINE
  5
2A2
100
AcDbEntity
  8
02___PRT_ALL_AXES
100
AcDbSpline
 62
7
  6
CONTINUOUS
 70
0
 71
3
 72
32
 73
28
 74
0
 42
0.0000001
 43
0.0000001
 44
0.0000000001
 40
0.0
 40
0.0
 40
0.0
 40
0.0
 40
0.0167644439
 40
0.0337496769
 40
0.0511660935
 40
0.0692050502
 40
0.0880333475
 40
0.1077908964
 40
0.1285905543
 40
0.1505199365
 40
0.1736440146
 40
0.1980075409
 40
0.2236378756
 40
0.2505474457
 40
0.2787354668
 40
0.3081899175
 40
0.3388890687
 40
0.3708023915
 40
0.4038918374
 40
0.4381127525
 40
0.5097338577
 40
0.5852072378
 40
0.6639980347
 40
0.7455175264
 40
0.8291353779
 40
0.9141893122
 40
1.0
 40
1.0
 40
1.0
 40
1.0
 10
15.6823518299
 20
13.2631039749
 30
0.0
 10
15.6816577614
 20
13.2631039805
 30
0.0
 10
15.6802589382
 20
13.2630157316
 30
0.0
 10
15.6781727505
 20
13.2626201906
 30
0.0
 10
15.6760983493
 20
13.2619628674
 30
0.0
 10
15.6740415364
 20
13.2610463786
 30
0.0
 10
15.6720070527
 20
13.2598738689
 30
0.0
 10
15.6699994749
 20
13.2584488253
 30
0.0
 10
15.6680231078
 20
13.2567751272
 30
0.0
 10
15.6660821878
 20
13.2548570025
 30
0.0
 10
15.6641809516
 20
13.2526990726
 30
0.0
 10
15.6623235814
 20
13.2503064697
 30
0.0
 10
15.6605142421
 20
13.2476848168
 30
0.0
 10
15.6587570815
 20
13.2448402412
 30
0.0
 10
15.6570561356
 20
13.241779423
 30
0.0
 10
15.6554153597
 20
13.2385095518
 30
0.0
 10
15.6538386192
 20
13.2350383112
 30
0.0
 10
15.6523296204
 20
13.2313738997
 30
0.0
 10
15.6508918931
 20
13.2275249566
 30
0.0
 10
15.649046607
 20
13.2220762475
 30
0.0
 10
15.6469526641
 20
13.214863182
 30
0.0
 10
15.6448100639
 20
13.2057563419
 30
0.0
 10
15.6430212926
 20
13.1961564989
 30
0.0
 10
15.6416034922
 20
13.186154609
 30
0.0
 10
15.6405702941
 20
13.1758452286
 30
0.0
 10
15.6399315801
 20
13.1653262158
 30
0.0
 10
15.6397731491
 20
13.1582519653
 30
0.0
 10
15.6397608749
 20
13.1546993189
 30
0.0
  0
SPLINE
  5
2A3
100
AcDbEntity
  8
LAYER_FEATURE
100
AcDbSpline
 62
7
  6
CONTINUOUS
 70
0
 71
3
 72
68
 73
64
 74
0
 42
0.0000001
 43
0.0000001
 44
0.0000000001
 40
0.0
 40
0.0
 40
0.0
 40
0.0
 40
0.0163580858
 40
0.0330510049
 40
0.0500641651
 40
0.0673825756
 40
0.0849903746
 40
0.1028711641
 40
0.1210079486
 40
0.1393832211
 40
0.1579789974
 40
0.176776863
 40
0.1957580148
 40
0.2149033029
 40
0.2536072195
 40
0.2927309867
 40
0.3321129044
 40
0.3715894139
 40
0.4109962794
 40
0.450169764
 40
0.4889478082
 40
0.5081391481
 40
0.5271722354
 40
0.5460278227
 40
0.5646869974
 40
0.5831312226
 40
0.6013423791
 40
0.6193028086
 40
0.6369953594
 40
0.6544034334
 40
0.6715110358
 40
0.6883028277
 40
0.7047641825
 40
0.7208812464
 40
0.7366410033
 40
0.7520313453
 40
0.767041151
 40
0.7816603709
 40
0.7958801233
 40
0.8096928013
 40
0.8230921932
 40
0.836073619
 40
0.8486340848
 40
0.8607724581
 40
0.8724896662
 40
0.8837889208
 40
0.8946759706
 40
0.9051593824
 40
0.9152508473
 40
0.9249655082
 40
0.9343222939
 40
0.9433442428
 40
0.9520587819
 40
0.9604979211
 40
0.9686983093
 40
0.9727225116
 40
0.9767028171
 40
0.9806450085
 40
0.9845550798
 40
0.9884392169
 40
0.9923037608
 40
0.9961551735
 40
1.0
 40
1.0
 40
1.0
 40
1.0
 10
15.3228522851
 20
13.3499784501
 30
0.0
 10
15.3189965696
 20
13.33750135
 30
0.0
 10
15.3114643135
 20
13.312211288
 30
0.0
 10
15.3008019682
 20
13.2736892748
 30
0.0
 10
15.2906709937
 20
13.2342320435
 30
0.0
 10
15.2810838721
 20
13.1938882232
 30
0.0
 10
15.2720523553
 20
13.1527070863
 30
0.0
 10
15.2635875281
 20
13.1107391348
 30
0.0
 10
15.2556997831
 20
13.0680357676
 30
0.0
 10
15.2483988038
 20
13.0246493189
 30
0.0
 10
15.2416935521
 20
12.9806329481
 30
0.0
 10
15.2355922731
 20
12.9360406297
 30
0.0
 10
15.230102415
 20
12.8909269127
 30
0.0
 10
15.2235836944
 20
12.8299359431
 30
0.0
 10
15.2170223614
 20
12.752785908
 30
0.0
 10
15.2117048098
 20
12.6593526486
 30
0.0
 10
15.2089415585
 20
12.5651917324
 30
0.0
 10
15.2087462104
 20
12.4707647052
 30
0.0
 10
15.2111197251
 20
12.3765335551
 30
0.0
 10
15.2160504237
 20
12.2829601719
 30
0.0
 10
15.2222912261
 20
12.2056475407
 30
0.0
 10
15.2285558253
 20
12.1444918346
 30
0.0
 10
15.2338584401
 20
12.099230579
 30
0.0
 10
15.2397746059
 20
12.0544739773
 30
0.0
 10
15.2462970999
 20
12.0102767805
 30
0.0
 10
15.2534179014
 20
11.9666931854
 30
0.0
 10
15.2611282702
 20
11.9237765964
 30
0.0
 10
15.2694187394
 20
11.8815796048
 30
0.0
 10
15.278279132
 20
11.8401539115
 30
0.0
 10
15.2876985728
 20
11.799550266
 30
0.0
 10
15.2976655024
 20
11.7598184027
 30
0.0
 10
15.3081676924
 20
11.7210069792
 30
0.0
 10
15.3191922612
 20
11.6831635146
 30
0.0
 10
15.3307256896
 20
11.6463343296
 30
0.0
 10
15.3427538405
 20
11.6105644889
 30
0.0
 10
15.3552619787
 20
11.5758977446
 30
0.0
 10
15.3682347913
 20
11.5423764815
 30
0.0
 10
15.3816564102
 20
11.5100416638
 30
0.0
 10
15.3955104356
 20
11.4789327832
 30
0.0
 10
15.4097799622
 20
11.4490878102
 30
0.0
 10
15.4244476065
 20
11.4205431465
 30
0.0
 10
15.4394955377
 20
11.3933335813
 30
0.0
 10
15.4549055082
 20
11.3674922497
 30
0.0
 10
15.4706588901
 20
11.3430505977
 30
0.0
 10
15.4867367133
 20
11.3200383536
 30
0.0
 10
15.5031197055
 20
11.2984835072
 30
0.0
 10
15.5197883323
 20
11.278412298
 30
0.0
 10
15.5367228361
 20
11.2598492169
 30
0.0
 10
15.5539032718
 20
11.2428170218
 30
0.0
 10
15.5713095175
 20
11.2273367729
 30
0.0
 10
15.5889213089
 20
11.2134278719
 30
0.0
 10
15.6067180805
 20
11.2011081499
 30
0.0
 10
15.6246793226
 20
11.1903938033
 30
0.0
 10
15.642782902
 20
11.1812998283
 30
0.0
 10
15.6580675211
 20
11.1750431713
 30
0.0
 10
15.67032072
 20
11.1708832895
 30
0.0
 10
15.6794742003
 20
11.1681938613
 30
0.0
 10
15.6886449383
 20
11.1659166695
 30
0.0
 10
15.6978302413
 20
11.1640524576
 30
0.0
 10
15.7070271609
 20
11.1626018443
 30
0.0
 10
15.7162328815
 20
11.1615653302
 30
0.0
 10
15.7254442471
 20
11.1609432944
 30
0.0
 10
15.7315893364
 20
11.1608049912
 30
0.0
 10
15.7346588051
 20
11.1608049937
 30
0.0
  0
SPLINE
  5
2A4
100
AcDbEntity
  8
02___PRT_ALL_AXES
100
AcDbSpline
 62
7
  6
CONTINUOUS
 70
0
 71
3
 72
38
 73
34
 74
0
 42
0.0000001
 43
0.0000001
 44
0.0000000001
 40
0.0
 40
0.0
 40
0.0
 40
0.0
 40
0.0191667501
 40
0.0385629672
 40
0.0583053239
 40
0.0785029165
 40
0.0992556161
 40
0.1206530419
 40
0.1427740859
 40
0.1656869397
 40
0.1894494752
 40
0.214109823
 40
0.2397070448
 40
0.2662719163
 40
0.2938276944
 40
0.3223908178
 40
0.3519715385
 40
0.382574562
 40
0.4141995944
 40
0.4468417963
 40
0.4804921894
 40
0.51513807
 40
0.5507633411
 40
0.5873487744
 40
0.6248722707
 40
0.663309122
 40
0.70263222
 40
0.7428122154
 40
0.7838176635
 40
0.8256153184
 40
0.8681701348
 40
0.9114450482
 40
1.0
 40
1.0
 40
1.0
 40
1.0
 10
15.7256755948
 20
11.8236055255
 30
0.0
 10
15.7226097954
 20
11.823838386
 30
0.0
 10
15.7164588762
 20
11.824578759
 30
0.0
 10
15.7072931402
 20
11.8264941493
 30
0.0
 10
15.6981608166
 20
11.8292156996
 30
0.0
 10
15.6890740869
 20
11.8327390619
 30
0.0
 10
15.6800435141
 20
11.8370590454
 30
0.0
 10
15.6710796375
 20
11.842169631
 30
0.0
 10
15.6621926041
 20
11.8480640288
 30
0.0
 10
15.6533923761
 20
11.8547347295
 30
0.0
 10
15.6446887687
 20
11.8621735184
 30
0.0
 10
15.6360915041
 20
11.8703714472
 30
0.0
 10
15.627610199
 20
11.8793187766
 30
0.0
 10
15.6192543964
 20
11.8890049869
 30
0.0
 10
15.6110335599
 20
11.8994187654
 30
0.0
 10
15.6029570597
 20
11.9105479867
 30
0.0
 10
15.595034129
 20
11.9223796903
 30
0.0
 10
15.5872738769
 20
11.9349001117
 30
0.0
 10
15.5796852677
 20
11.9480946896
 30
0.0
 10
15.5722770956
 20
11.9619480659
 30
0.0
 10
15.5650579528
 20
11.976444093
 30
0.0
 10
15.5580362405
 20
11.9915658703
 30
0.0
 10
15.5512201531
 20
12.0072957615
 30
0.0
 10
15.5446176494
 20
12.0236154028
 30
0.0
 10
15.5382364379
 20
12.040505725
 30
0.0
 10
15.5320839847
 20
12.0579469887
 30
0.0
 10
15.5261675016
 20
12.0759188074
 30
0.0
 10
15.5204939193
 20
12.094400153
 30
0.0
 10
15.5150698727
 20
12.1133694085
 30
0.0
 10
15.5099017381
 20
12.1328043509
 30
0.0
 10
15.5049955529
 20
12.1526822901
 30
0.0
 10
15.498763397
 20
12.1799541218
 30
0.0
 10
15.4945745094
 20
12.2006876399
 30
0.0
 10
15.4919784869
 20
12.2146539405
 30
0.0
  0
SPLINE
  5
2A5
100
AcDbEntity
  8
LAYER_FEATURE
100
AcDbSpline
 62
7
  6
CONTINUOUS
 70
0
 71
3
 72
23
 73
19
 74
0
 42
0.0000001
 43
0.0000001
 44
0.0000000001
 40
0.0
 40
0.0
 40
0.0
 40
0.0
 40
0.0532270998
 40
0.1067153581
 40
0.1607212345
 40
0.2154921215
 40
0.2712626134
 40
0.3282515592
 40
0.3866599471
 40
0.4466696966
 40
0.5084431976
 40
0.572123417
 40
0.6378344276
 40
0.7056823532
 40
0.7757564671
 40
0.8481303269
 40
0.9228629395
 40
1.0
 40
1.0
 40
1.0
 40
1.0
 10
15.2075179796
 20
13.8608049853
 30
0.0
 10
15.2127221488
 20
13.8608049802
 30
0.0
 10
15.2231603585
 20
13.8604062668
 30
0.0
 10
15.2387863178
 20
13.8586141534
 30
0.0
 10
15.2543831735
 20
13.8556296789
 30
0.0
 10
15.2699350536
 20
13.8514563151
 30
0.0
 10
15.2854279522
 20
13.8460987348
 30
0.0
 10
15.300847805
 20
13.8395626868
 30
0.0
 10
15.3161810237
 20
13.8318549519
 30
0.0
 10
15.3314142895
 20
13.8229832138
 30
0.0
 10
15.3465345319
 20
13.8129560076
 30
0.0
 10
15.361528864
 20
13.8017827143
 30
0.0
 10
15.3763845708
 20
13.7894736004
 30
0.0
 10
15.3910890548
 20
13.776039772
 30
0.0
 10
15.4056297988
 20
13.7614932216
 30
0.0
 10
15.4199944564
 20
13.7458467511
 30
0.0
 10
15.4341705379
 20
13.7291144305
 30
0.0
 10
15.4433414366
 20
13.7174314148
 30
0.0
 10
15.447895125
 20
13.711419392
 30
0.0
  0
SPLINE
  5
2A6
100
AcDbEntity
  8
LAYER_FEATURE
100
AcDbSpline
 62
7
  6
CONTINUOUS
 70
0
 71
3
 72
23
 73
19
 74
0
 42
0.0000001
 43
0.0000001
 44
0.0000000001
 40
0.0
 40
0.0
 40
0.0
 40
0.0
 40
0.0532328518
 40
0.1067266638
 40
0.1607377129
 40
0.2155132275
 40
0.2712876355
 40
0.3282796409
 40
0.3866901536
 40
0.4467010155
 40
0.5084745303
 40
0.5721536171
 40
0.6378623777
 40
0.7057069243
 40
0.7757765074
 40
0.8481447154
 40
0.9228706416
 40
1.0
 40
1.0
 40
1.0
 40
1.0
 10
15.2075179796
 20
11.1608050005
 30
0.0
 10
15.2127199161
 20
11.1608049954
 30
0.0
 10
15.2231536212
 20
11.1612033939
 30
0.0
 10
15.2387728671
 20
11.162993942
 30
0.0
 10
15.2543630502
 20
11.1659758449
 30
0.0
 10
15.2699083136
 20
11.1701456379
 30
0.0
 10
15.2853946728
 20
11.1754986338
 30
0.0
 10
15.3008080914
 20
11.1820290746
 30
0.0
 10
15.3161349836
 20
11.1897302322
 30
0.0
 10
15.331362046
 20
11.1985944318
 30
0.0
 10
15.3464762324
 20
11.2086131311
 30
0.0
 10
15.3614646804
 20
11.2197769574
 30
0.0
 10
15.3763146673
 20
11.2320756963
 30
0.0
 10
15.3910136186
 20
11.2454982471
 30
0.0
 10
15.4055490429
 20
11.2600326208
 30
0.0
 10
15.4199086099
 20
11.27566604
 30
0.0
 10
15.434079825
 20
11.2923844801
 30
0.0
 10
15.4432477352
 20
11.3040579128
 30
0.0
 10
15.4477999733
 20
11.3100650089
 30
0.0
  0
SPLINE
  5
2A7
100
AcDbEntity
  8
LAYER_FEATURE
100
AcDbSpline
 62
7
  6
CONTINUOUS
 70
0
 71
3
 72
68
 73
64
 74
0
 42
0.0000001
 43
0.0000001
 44
0.0000000001
 40
0.0
 40
0.0
 40
0.0
 40
0.0
 40
0.0038448265
 40
0.0076962392
 40
0.0115607831
 40
0.0154449202
 40
0.0193549915
 40
0.0232971829
 40
0.0272774884
 40
0.0313016907
 40
0.0395020789
 40
0.0479412181
 40
0.0566557572
 40
0.0656777061
 40
0.0750344918
 40
0.0847491527
 40
0.0948406176
 40
0.1053240294
 40
0.1162110792
 40
0.1275103338
 40
0.1392275419
 40
0.1513659152
 40
0.163926381
 40
0.1769078068
 40
0.1903071987
 40
0.2041198767
 40
0.2183396291
 40
0.232958849
 40
0.2479686547
 40
0.2633589967
 40
0.2791187536
 40
0.2952358175
 40
0.3116971723
 40
0.3284889642
 40
0.3455965666
 40
0.3630046406
 40
0.3806971914
 40
0.3986576209
 40
0.4168687774
 40
0.4353130026
 40
0.4539721773
 40
0.4728277646
 40
0.4918608519
 40
0.5110521918
 40
0.549830236
 40
0.5890037206
 40
0.6284105861
 40
0.6678870956
 40
0.7072690133
 40
0.7463927805
 40
0.7850966971
 40
0.8042419852
 40
0.823223137
 40
0.8420210026
 40
0.8606167789
 40
0.8789920514
 40
0.8971288359
 40
0.9150096254
 40
0.9326174244
 40
0.9499358349
 40
0.9669489951
 40
0.9836419142
 40
1.0
 40
1.0
 40
1.0
 40
1.0
 10
15.7911570877
 20
13.8608049922
 30
0.0
 10
15.7942265565
 20
13.8608049947
 30
0.0
 10
15.8003716458
 20
13.8606666914
 30
0.0
 10
15.8095830113
 20
13.8600446556
 30
0.0
 10
15.8187887319
 20
13.8590081416
 30
0.0
 10
15.8279856515
 20
13.8575575282
 30
0.0
 10
15.8371709545
 20
13.8556933163
 30
0.0
 10
15.8463416925
 20
13.8534161245
 30
0.0
 10
15.8554951728
 20
13.8507266963
 30
0.0
 10
15.8677483717
 20
13.8465668145
 30
0.0
 10
15.8830329908
 20
13.8403101575
 30
0.0
 10
15.9011365702
 20
13.8312161825
 30
0.0
 10
15.9190978123
 20
13.8205018359
 30
0.0
 10
15.9368945839
 20
13.8081821139
 30
0.0
 10
15.9545063753
 20
13.7942732129
 30
0.0
 10
15.971912621
 20
13.778792964
 30
0.0
 10
15.9890930567
 20
13.7617607689
 30
0.0
 10
16.0060275605
 20
13.7431976878
 30
0.0
 10
16.0226961874
 20
13.7231264786
 30
0.0
 10
16.0390791795
 20
13.7015716322
 30
0.0
 10
16.0551570027
 20
13.6785593882
 30
0.0
 10
16.0709103846
 20
13.6541177361
 30
0.0
 10
16.0863203551
 20
13.6282764045
 30
0.0
 10
16.1013682863
 20
13.6010668393
 30
0.0
 10
16.1160359306
 20
13.5725221756
 30
0.0
 10
16.1303054572
 20
13.5426772026
 30
0.0
 10
16.1441594826
 20
13.511568322
 30
0.0
 10
16.1575811015
 20
13.4792335043
 30
0.0
 10
16.1705539141
 20
13.4457122412
 30
0.0
 10
16.1830620523
 20
13.4110454969
 30
0.0
 10
16.1950902033
 20
13.3752756562
 30
0.0
 10
16.2066236316
 20
13.3384464712
 30
0.0
 10
16.2176482004
 20
13.3006030066
 30
0.0
 10
16.2281503904
 20
13.2617915831
 30
0.0
 10
16.23811732
 20
13.2220597199
 30
0.0
 10
16.2475367608
 20
13.1814560743
 30
0.0
 10
16.2563971534
 20
13.140030381
 30
0.0
 10
16.2646876226
 20
13.0978333894
 30
0.0
 10
16.2723979914
 20
13.0549168004
 30
0.0
 10
16.2795187929
 20
13.0113332053
 30
0.0
 10
16.2860412869
 20
12.9671360085
 30
0.0
 10
16.2919574527
 20
12.9223794068
 30
0.0
 10
16.2972600675
 20
12.8771181512
 30
0.0
 10
16.3035246667
 20
12.8159624451
 30
0.0
 10
16.3097654691
 20
12.7386498139
 30
0.0
 10
16.3146961677
 20
12.6450764307
 30
0.0
 10
16.3170696824
 20
12.5508452806
 30
0.0
 10
16.3168743343
 20
12.4564182535
 30
0.0
 10
16.3141110831
 20
12.3622573372
 30
0.0
 10
16.3087935314
 20
12.2688240778
 30
0.0
 10
16.3022321985
 20
12.1916740427
 30
0.0
 10
16.2957134779
 20
12.1306830731
 30
0.0
 10
16.2902236197
 20
12.0855693561
 30
0.0
 10
16.2841223408
 20
12.0409770377
 30
0.0
 10
16.277417089
 20
11.9969606669
 30
0.0
 10
16.2701161097
 20
11.9535742182
 30
0.0
 10
16.2622283648
 20
11.910870851
 30
0.0
 10
16.2537635375
 20
11.8689028995
 30
0.0
 10
16.2447320207
 20
11.8277217626
 30
0.0
 10
16.2351448991
 20
11.7873779423
 30
0.0
 10
16.2250139246
 20
11.7479207111
 30
0.0
 10
16.2143515793
 20
11.7093986979
 30
0.0
 10
16.2068193232
 20
11.6841086358
 30
0.0
 10
16.2029636077
 20
11.6716315357
 30
0.0
  0
SPLINE
  5
2A8
100
AcDbEntity
  8
LAYER_FEATURE
100
AcDbSpline
 62
7
  6
CONTINUOUS
 70
0
 71
3
 72
39
 73
35
 74
0
 42
0.0000001
 43
0.0000001
 44
0.0000000001
 40
0.0
 40
0.0
 40
0.0
 40
0.0
 40
0.0212769805
 40
0.0426477427
 40
0.0642045486
 40
0.0860367268
 40
0.1082294314
 40
0.1308626295
 40
0.1540103791
 40
0.1777403604
 40
0.2021136227
 40
0.2271845602
 40
0.2530010567
 40
0.2796047186
 40
0.307031172
 40
0.3353104562
 40
0.3644674123
 40
0.3945220379
 40
0.4254898696
 40
0.4573823626
 40
0.4902072078
 40
0.5239686095
 40
0.5586675988
 40
0.5943022926
 40
0.630868091
 40
0.6683578902
 40
0.7067623015
 40
0.7460698034
 40
0.7862668444
 40
0.8273381134
 40
0.8692665
 40
0.9120330868
 40
0.9556186933
 40
1.0
 40
1.0
 40
1.0
 40
1.0
 10
15.7911570877
 20
11.1608049937
 30
0.0
 10
15.7960882264
 20
11.1608049977
 30
0.0
 10
15.8059759309
 20
11.1611628144
 30
0.0
 10
15.8207809171
 20
11.1627712727
 30
0.0
 10
15.8355613509
 20
11.1654501466
 30
0.0
 10
15.8503037771
 20
11.1691967225
 30
0.0
 10
15.8649962768
 20
11.1740073037
 30
0.0
 10
15.8796268602
 20
11.1798772567
 30
0.0
 10
15.8941838929
 20
11.1868011545
 30
0.0
 10
15.9086559374
 20
11.1947728304
 30
0.0
 10
15.9230317767
 20
11.2037853621
 30
0.0
 10
15.9373003596
 20
11.213831121
 30
0.0
 10
15.9514507537
 20
11.2249018042
 30
0.0
 10
15.9654721281
 20
11.2369884084
 30
0.0
 10
15.9793537686
 20
11.2500811888
 30
0.0
 10
15.9930850353
 20
11.2641696986
 30
0.0
 10
16.0066553598
 20
11.2792427763
 30
0.0
 10
16.0200542816
 20
11.2952885052
 30
0.0
 10
16.0332714448
 20
11.3122942254
 30
0.0
 10
16.0462965877
 20
11.3302465547
 30
0.0
 10
16.0591195625
 20
11.3491313767
 30
0.0
 10
16.0717303787
 20
11.3689338242
 30
0.0
 10
16.0841191769
 20
11.3896383173
 30
0.0
 10
16.0962762385
 20
11.4112285725
 30
0.0
 10
16.1081920252
 20
11.4336875918
 30
0.0
 10
16.1198571826
 20
11.4569976812
 30
0.0
 10
16.1312625277
 20
11.4811404811
 30
0.0
 10
16.1423990632
 20
11.5060969667
 30
0.0
 10
16.1532580299
 20
11.5318474601
 30
0.0
 10
16.1638308576
 20
11.5583716534
 30
0.0
 10
16.1741091709
 20
11.5856485728
 30
0.0
 10
16.184084942
 20
11.6136568723
 30
0.0
 10
16.1937501412
 20
11.6423741488
 30
0.0
 10
16.1999267577
 20
11.6618042854
 30
0.0
 10
16.2029636077
 20
11.6716315357
 30
0.0
  0
SPLINE
  5
2A9
100
AcDbEntity
  8
LAYER_CUT_FEAT
100
AcDbSpline
 62
7
  6
CONTINUOUS
 70
0
 71
3
 72
67
 73
63
 74
0
 42
0.0000001
 43
0.0000001
 44
0.0000000001
 40
0.0
 40
0.0
 40
0.0
 40
0.0
 40
0.0038601976
 40
0.0077284267
 40
0.0116126568
 40
0.0155207368
 40
0.0194603357
 40
0.023438898
 40
0.0315392196
 40
0.0398773698
 40
0.048501047
 40
0.057451775
 40
0.0667648664
 40
0.0764696483
 40
0.0865898513
 40
0.0971440794
 40
0.1081463063
 40
0.1196063567
 40
0.1315303548
 40
0.1439211288
 40
0.1567785691
 40
0.1700999428
 40
0.1838801676
 40
0.1981120494
 40
0.2127864899
 40
0.2278926673
 40
0.2434181949
 40
0.259349262
 40
0.2756707586
 40
0.292366388
 40
0.3094187678
 40
0.3268095226
 40
0.3445193701
 40
0.3625281996
 40
0.3808151472
 40
0.3993586657
 40
0.4181365917
 40
0.4371262099
 40
0.4563043151
 40
0.4951298848
 40
0.5344213454
 40
0.5739813669
 40
0.6136102719
 40
0.6531077837
 40
0.692274769
 40
0.7309149925
 40
0.7499781048
 40
0.7688381813
 40
0.7874723155
 40
0.8058581296
 40
0.8239738371
 40
0.8417983092
 40
0.859311144
 40
0.8764927391
 40
0.8933243694
 40
0.9097882689
 40
0.9258677239
 40
0.9415471605
 40
0.9568122851
 40
0.9716501115
 40
0.9860493235
 40
1.0
 40
1.0
 40
1.0
 40
1.0
 10
15.7842491303
 20
13.4133049898
 30
0.0
 10
15.7819872182
 20
13.4133049933
 30
0.0
 10
15.7774578874
 20
13.4131926172
 30
0.0
 10
15.7706695245
 20
13.412687202
 30
0.0
 10
15.7638862411
 20
13.4118450886
 30
0.0
 10
15.7571109179
 20
13.4106666297
 30
0.0
 10
15.7503459446
 20
13.4091522956
 30
0.0
 10
15.7412904642
 20
13.4066718487
 30
0.0
 10
15.7299832244
 20
13.4027095974
 30
0.0
 10
15.7165872294
 20
13.3966506489
 30
0.0
 10
15.7032997013
 20
13.3892699808
 30
0.0
 10
15.6901405928
 20
13.3805807104
 30
0.0
 10
15.6771281704
 20
13.3705971597
 30
0.0
 10
15.6642806916
 20
13.3593351316
 30
0.0
 10
15.6516161136
 20
13.3468119017
 30
0.0
 10
15.6391522702
 20
13.3330463218
 30
0.0
 10
15.6269068479
 20
13.318058882
 30
0.0
 10
15.6148973722
 20
13.3018717609
 30
0.0
 10
15.6031411654
 20
13.2845088502
 30
0.0
 10
15.5916553006
 20
13.2659957591
 30
0.0
 10
15.5804565534
 20
13.2463598025
 30
0.0
 10
15.5695613564
 20
13.2256299756
 30
0.0
 10
15.5589857564
 20
13.2038369202
 30
0.0
 10
15.5487453752
 20
13.1810128833
 30
0.0
 10
15.538855375
 20
13.1571916702
 30
0.0
 10
15.5293304255
 20
13.1324085947
 30
0.0
 10
15.5201846741
 20
13.1067004251
 30
0.0
 10
15.5114317202
 20
13.0801053271
 30
0.0
 10
15.5030845902
 20
13.0526628052
 30
0.0
 10
15.4951557145
 20
13.0244136413
 30
0.0
 10
15.4876569071
 20
12.9953998328
 30
0.0
 10
15.4805993454
 20
12.9656645276
 30
0.0
 10
15.4739935524
 20
12.9352519591
 30
0.0
 10
15.4678493799
 20
12.9042073779
 30
0.0
 10
15.4621759938
 20
12.872576986
 30
0.0
 10
15.4569818553
 20
12.8404078568
 30
0.0
 10
15.4522747257
 20
12.8077479034
 30
0.0
 10
15.4480615859
 20
12.7746456562
 30
0.0
 10
15.4430911491
 20
12.7298038592
 30
0.0
 10
15.4381670885
 20
12.6729958143
 30
0.0
 10
15.4343334206
 20
12.6041382901
 30
0.0
 10
15.4325742175
 20
12.5347255104
 30
0.0
 10
15.432899999
 20
12.4651706574
 30
0.0
 10
15.4353088155
 20
12.3958869637
 30
0.0
 10
15.4397862507
 20
12.3272868412
 30
0.0
 10
15.4452430402
 20
12.2707774076
 30
0.0
 10
15.4506350146
 20
12.2262380293
 30
0.0
 10
15.4551575287
 20
12.1934062743
 30
0.0
 10
15.4601697286
 20
12.1610472679
 30
0.0
 10
15.4656641809
 20
12.1292090893
 30
0.0
 10
15.4716326766
 20
12.0979391554
 30
0.0
 10
15.4780663158
 20
12.067283999
 30
0.0
 10
15.4849555018
 20
12.0372892376
 30
0.0
 10
15.4922899613
 20
12.0079994937
 30
0.0
 10
15.5000587604
 20
11.9794583309
 30
0.0
 10
15.5082503215
 20
11.9517081841
 30
0.0
 10
15.5168524434
 20
11.924790304
 30
0.0
 10
15.5258523212
 20
11.8987446647
 30
0.0
 10
15.5352365602
 20
11.87360999
 30
0.0
 10
15.5449912531
 20
11.8494234419
 30
0.0
 10
15.5551017843
 20
11.8262212564
 30
0.0
 10
15.5621830549
 20
11.8111909687
 30
0.0
 10
15.5657842734
 20
11.803852457
 30
0.0
  0
SPLINE
  5
2AA
100
AcDbEntity
  8
LAYER_FEATURE
100
AcDbSpline
 62
7
  6
CONTINUOUS
 70
0
 71
3
 72
39
 73
35
 74
0
 42
0.0000001
 43
0.0000001
 44
0.0000000001
 40
0.0
 40
0.0
 40
0.0
 40
0.0
 40
0.0443813067
 40
0.0879669132
 40
0.1307335
 40
0.1726618866
 40
0.2137331556
 40
0.2539301966
 40
0.2932376985
 40
0.3316421098
 40
0.369131909
 40
0.4056977074
 40
0.4413324012
 40
0.4760313905
 40
0.5097927922
 40
0.5426176374
 40
0.5745101304
 40
0.6054779621
 40
0.6355325877
 40
0.6646895438
 40
0.692968828
 40
0.7203952814
 40
0.7469989433
 40
0.7728154398
 40
0.7978863773
 40
0.8222596396
 40
0.8459896209
 40
0.8691373705
 40
0.8917705686
 40
0.9139632732
 40
0.9357954514
 40
0.9573522573
 40
0.9787230195
 40
1.0
 40
1.0
 40
1.0
 40
1.0
 10
15.3228522851
 20
13.3499784501
 30
0.0
 10
15.3258891352
 20
13.3598057004
 30
0.0
 10
15.3320657516
 20
13.379235837
 30
0.0
 10
15.3417309509
 20
13.4079531135
 30
0.0
 10
15.3517067219
 20
13.435961413
 30
0.0
 10
15.3619850352
 20
13.4632383324
 30
0.0
 10
15.3725578629
 20
13.4897625258
 30
0.0
 10
15.3834168296
 20
13.5155130191
 30
0.0
 10
15.3945533651
 20
13.5404695047
 30
0.0
 10
15.4059587102
 20
13.5646123047
 30
0.0
 10
15.4176238676
 20
13.587922394
 30
0.0
 10
15.4295396543
 20
13.6103814133
 30
0.0
 10
15.4416967159
 20
13.6319716686
 30
0.0
 10
15.4540855141
 20
13.6526761616
 30
0.0
 10
15.4666963304
 20
13.6724786091
 30
0.0
 10
15.4795193051
 20
13.6913634311
 30
0.0
 10
15.492544448
 20
13.7093157604
 30
0.0
 10
15.5057616112
 20
13.7263214806
 30
0.0
 10
15.5191605331
 20
13.7423672095
 30
0.0
 10
15.5327308575
 20
13.7574402872
 30
0.0
 10
15.5464621242
 20
13.771528797
 30
0.0
 10
15.5603437647
 20
13.7846215774
 30
0.0
 10
15.5743651391
 20
13.7967081816
 30
0.0
 10
15.5885155332
 20
13.8077788648
 30
0.0
 10
15.6027841161
 20
13.8178246237
 30
0.0
 10
15.6171599554
 20
13.8268371554
 30
0.0
 10
15.631632
 20
13.8348088313
 30
0.0
 10
15.6461890326
 20
13.8417327291
 30
0.0
 10
15.660819616
 20
13.8476026821
 30
0.0
 10
15.6755121157
 20
13.8524132634
 30
0.0
 10
15.690254542
 20
13.8561598393
 30
0.0
 10
15.7050349757
 20
13.8588387132
 30
0.0
 10
15.719839962
 20
13.8604471714
 30
0.0
 10
15.7297276664
 20
13.8608049881
 30
0.0
 10
15.7346588051
 20
13.8608049922
 30
0.0
  0
SPLINE
  5
2AB
100
AcDbEntity
  8
LAYER_FEATURE
100
AcDbSpline
 62
7
  6
CONTINUOUS
 70
0
 71
3
 72
67
 73
63
 74
0
 42
0.0000001
 43
0.0000001
 44
0.0000000001
 40
0.0
 40
0.0
 40
0.0
 40
0.0
 40
0.0163581013
 40
0.0330510694
 40
0.0500642491
 40
0.0673826926
 40
0.0849905208
 40
0.1028713409
 40
0.1210081566
 40
0.1393834611
 40
0.15797927
 40
0.1767771682
 40
0.1957583526
 40
0.2149036734
 40
0.2536076561
 40
0.292731491
 40
0.3321134768
 40
0.371590054
 40
0.4109969877
 40
0.45017054
 40
0.4889486503
 40
0.5081400228
 40
0.5271731428
 40
0.546028763
 40
0.5646879707
 40
0.5831322282
 40
0.601343416
 40
0.6193038759
 40
0.6369964566
 40
0.65440456
 40
0.6715121917
 40
0.6883040129
 40
0.7047653969
 40
0.720882489
 40
0.7366422729
 40
0.7520326412
 40
0.7670424724
 40
0.7816617173
 40
0.7958814943
 40
0.8096941963
 40
0.8230936114
 40
0.8360750592
 40
0.8486355463
 40
0.8607739405
 40
0.872491169
 40
0.8837904436
 40
0.8946775128
 40
0.905160943
 40
0.9152524249
 40
0.9249671014
 40
0.9343239024
 40
0.9433458667
 40
0.9520604213
 40
0.9604995757
 40
0.9686999787
 40
0.9767027777
 40
0.9806449746
 40
0.9845550535
 40
0.9884391969
 40
0.9923037475
 40
0.9961551669
 40
1.0
 40
1.0
 40
1.0
 40
1.0
 10
14.739213177
 20
13.3499784501
 30
0.0
 10
14.7353574644
 20
13.3375013597
 30
0.0
 10
14.7278252081
 20
13.3122112914
 30
0.0
 10
14.7171628607
 20
13.2736892807
 30
0.0
 10
14.7070318864
 20
13.2342320382
 30
0.0
 10
14.6974447643
 20
13.1938882245
 30
0.0
 10
14.688413247
 20
13.1527070861
 30
0.0
 10
14.6799484189
 20
13.1107391359
 30
0.0
 10
14.6720606734
 20
13.0680357688
 30
0.0
 10
14.6647596948
 20
13.0246493193
 30
0.0
 10
14.6580544452
 20
12.9806329472
 30
0.0
 10
14.6519531674
 20
12.9360406281
 30
0.0
 10
14.6464633092
 20
12.8909269113
 30
0.0
 10
14.6399445872
 20
12.8299359428
 30
0.0
 10
14.6333832504
 20
12.7527859085
 30
0.0
 10
14.6280656988
 20
12.659352649
 30
0.0
 10
14.6253024545
 20
12.5651917324
 30
0.0
 10
14.6251071055
 20
12.4707647052
 30
0.0
 10
14.6274806138
 20
12.3765335547
 30
0.0
 10
14.6324113121
 20
12.2829601716
 30
0.0
 10
14.6386521197
 20
12.2056475416
 30
0.0
 10
14.6449167207
 20
12.1444918367
 30
0.0
 10
14.6502193351
 20
12.0992305811
 30
0.0
 10
14.6561354988
 20
12.0544739782
 30
0.0
 10
14.6626579902
 20
12.0102767795
 30
0.0
 10
14.6697787904
 20
11.9666931832
 30
0.0
 10
14.67748916
 20
11.9237765945
 30
0.0
 10
14.6857796307
 20
11.8815796042
 30
0.0
 10
14.6946400248
 20
11.8401539126
 30
0.0
 10
14.7040594665
 20
11.7995502684
 30
0.0
 10
14.7140263963
 20
11.7598184055
 30
0.0
 10
14.7245285855
 20
11.7210069809
 30
0.0
 10
14.7355531524
 20
11.6831635143
 30
0.0
 10
14.7470865801
 20
11.6463343282
 30
0.0
 10
14.7591147315
 20
11.6105644877
 30
0.0
 10
14.7716228704
 20
11.5758977443
 30
0.0
 10
14.7845956835
 20
11.5423764821
 30
0.0
 10
14.7980173025
 20
11.5100416648
 30
0.0
 10
14.8118713277
 20
11.478932784
 30
0.0
 10
14.8261408539
 20
11.4490878105
 30
0.0
 10
14.840808498
 20
11.4205431466
 30
0.0
 10
14.8558564298
 20
11.3933335823
 30
0.0
 10
14.8712664007
 20
11.3674922516
 30
0.0
 10
14.8870197826
 20
11.3430505998
 30
0.0
 10
14.9030976056
 20
11.3200383549
 30
0.0
 10
14.9194805972
 20
11.2984835067
 30
0.0
 10
14.9361492233
 20
11.2784122954
 30
0.0
 10
14.9530837269
 20
11.2598492131
 30
0.0
 10
14.9702641615
 20
11.2428170199
 30
0.0
 10
14.9876704136
 20
11.2273367745
 30
0.0
 10
15.0052821892
 20
11.2134278812
 30
0.0
 10
15.0230790196
 20
11.2011081452
 30
0.0
 10
15.0410400515
 20
11.1903938471
 30
0.0
 10
15.059144376
 20
11.181299686
 30
0.0
 10
15.0773692178
 20
11.1738390206
 30
0.0
 10
15.0927179254
 20
11.1689677553
 30
0.0
 10
15.1050057547
 20
11.1659167257
 30
0.0
 10
15.1141911513
 20
11.1640524341
 30
0.0
 10
15.1233880483
 20
11.1626018538
 30
0.0
 10
15.1325937746
 20
11.1615653321
 30
0.0
 10
15.1418051381
 20
11.1609432837
 30
0.0
 10
15.1479502282
 20
11.1608050035
 30
0.0
 10
15.1510196969
 20
11.1608050005
 30
0.0
  0
SPLINE
  5
2AC
100
AcDbEntity
  8
LAYER_FEATURE
100
AcDbSpline
 62
7
  6
CONTINUOUS
 70
0
 71
3
 72
39
 73
35
 74
0
 42
0.0000001
 43
0.0000001
 44
0.0000000001
 40
0.0
 40
0.0
 40
0.0
 40
0.0
 40
0.0443812481
 40
0.0879669295
 40
0.1307335086
 40
0.172661876
 40
0.2137331571
 40
0.2539301992
 40
0.2932376968
 40
0.3316421073
 40
0.369131911
 40
0.4056977099
 40
0.4413323968
 40
0.4760313903
 40
0.5097927974
 40
0.5426176342
 40
0.5745101269
 40
0.6054779669
 40
0.6355325892
 40
0.664689538
 40
0.6929688298
 40
0.7203952869
 40
0.7469989387
 40
0.7728154376
 40
0.7978863828
 40
0.8222596394
 40
0.8459896168
 40
0.869137373
 40
0.8917705712
 40
0.9139632708
 40
0.935795451
 40
0.9573522592
 40
0.9787230199
 40
1.0
 40
1.0
 40
1.0
 40
1.0
 10
14.739213177
 20
13.3499784501
 30
0.0
 10
14.742250023
 20
13.3598056874
 30
0.0
 10
14.7484266424
 20
13.379235827
 30
0.0
 10
14.7580918397
 20
13.4079531063
 30
0.0
 10
14.7680676133
 20
13.4359614167
 30
0.0
 10
14.7783459293
 20
13.4632383314
 30
0.0
 10
14.7889187548
 20
13.489762524
 30
0.0
 10
14.7997777195
 20
13.5155130204
 30
0.0
 10
14.8109142578
 20
13.5404695038
 30
0.0
 10
14.8223196045
 20
13.5646123027
 30
0.0
 10
14.8339847581
 20
13.587922395
 30
0.0
 10
14.8459005433
 20
13.6103814146
 30
0.0
 10
14.8580576122
 20
13.6319716652
 30
0.0
 10
14.8704464065
 20
13.6526761611
 30
0.0
 10
14.8830572168
 20
13.6724786128
 30
0.0
 10
14.8958802004
 20
13.691363428
 30
0.0
 10
14.9089053433
 20
13.7093157569
 30
0.0
 10
14.9221224985
 20
13.7263214848
 30
0.0
 10
14.9355214233
 20
13.7423672107
 30
0.0
 10
14.9490917557
 20
13.7574402801
 30
0.0
 10
14.9628230145
 20
13.7715287985
 30
0.0
 10
14.9767046505
 20
13.7846215846
 30
0.0
 10
14.9907260368
 20
13.7967081737
 30
0.0
 10
15.0048764275
 20
13.8077788605
 30
0.0
 10
15.0191450017
 20
13.8178246338
 30
0.0
 10
15.0335208484
 20
13.8268371537
 30
0.0
 10
15.0479928969
 20
13.8348088197
 30
0.0
 10
15.0625499212
 20
13.8417327361
 30
0.0
 10
15.0771805056
 20
13.8476026898
 30
0.0
 10
15.0918730113
 20
13.8524132498
 30
0.0
 10
15.1066154336
 20
13.8561598372
 30
0.0
 10
15.1213958658
 20
13.8588387286
 30
0.0
 10
15.1362008548
 20
13.8604471589
 30
0.0
 10
15.1460885583
 20
13.8608049902
 30
0.0
 10
15.1510196969
 20
13.8608049853
 30
0.0
  0
SPLINE
  5
2AD
100
AcDbEntity
  8
02___PRT_ALL_AXES
100
AcDbSpline
 62
7
  6
CONTINUOUS
 70
0
 71
3
 72
35
 73
31
 74
0
 42
0.0000001
 43
0.0000001
 44
0.0000000001
 40
0.0
 40
0.0
 40
0.0
 40
0.0
 40
0.0746183729
 40
0.1494972294
 40
0.2241877918
 40
0.2982430346
 40
0.3348957387
 40
0.3712252747
 40
0.4071784112
 40
0.4427029319
 40
0.4777477951
 40
0.5122632977
 40
0.546201246
 40
0.5795151341
 40
0.6121603334
 40
0.6440942934
 40
0.6752767584
 40
0.7056700024
 40
0.7352390878
 40
0.7639521519
 40
0.7917807295
 40
0.8187001171
 40
0.8446897883
 40
0.8697338726
 40
0.893821716
 40
0.91694851
 40
0.9391160992
 40
0.9603336984
 40
0.9806192832
 40
1.0
 40
1.0
 40
1.0
 40
1.0
 10
15.4682275535
 20
12.4196851727
 30
0.0
 10
15.4672290933
 20
12.4388597516
 30
0.0
 10
15.4658686286
 20
12.4773120668
 30
0.0
 10
15.4657168975
 20
12.5350089631
 30
0.0
 10
15.4674474803
 20
12.5925355051
 30
0.0
 10
15.4704580675
 20
12.640156307
 30
0.0
 10
15.4738068613
 20
12.6778445682
 30
0.0
 10
15.4767686386
 20
12.7057200342
 30
0.0
 10
15.4801837241
 20
12.7332510687
 30
0.0
 10
15.4840461096
 20
12.7603891359
 30
0.0
 10
15.4883489449
 20
12.7870862839
 30
0.0
 10
15.493084614
 20
12.8132953772
 30
0.0
 10
15.4982447324
 20
12.8389701421
 30
0.0
 10
15.5038201667
 20
12.86406526
 30
0.0
 10
15.509801051
 20
12.8885364462
 30
0.0
 10
15.5161768054
 20
12.912340531
 30
0.0
 10
15.5229361566
 20
12.9354355371
 30
0.0
 10
15.5300671598
 20
12.9577807563
 30
0.0
 10
15.5375572232
 20
12.979336824
 30
0.0
 10
15.5453931345
 20
13.0000657917
 30
0.0
 10
15.553561089
 20
13.019931197
 30
0.0
 10
15.5620467218
 20
13.038898131
 30
0.0
 10
15.570835144
 20
13.0569333001
 30
0.0
 10
15.5799109817
 20
13.0740050896
 30
0.0
 10
15.5892584181
 20
13.0900836034
 30
0.0
 10
15.598861258
 20
13.1051407529
 30
0.0
 10
15.6087029113
 20
13.1191501612
 30
0.0
 10
15.6187667371
 20
13.1320875804
 30
0.0
 10
15.6290350618
 20
13.1439296927
 30
0.0
 10
15.636165008
 20
13.1512439258
 30
0.0
 10
15.6397608749
 20
13.1546993189
 30
0.0
  0
LINE
  5
2AE
100
AcDbEntity
  8
02___PRT_ALL_AXES
100
AcDbLine
 62
7
  6
CONTINUOUS
 10
15.7213700013
 20
13.1975883739
 11
15.6425265798
 21
13.1916317508
  0
SPLINE
  5
2AF
100
AcDbEntity
  8
LAYER_FEATURE
100
AcDbSpline
 62
7
  6
CONTINUOUS
 70
0
 71
3
 72
24
 73
20
 74
0
 42
0.0000001
 43
0.0000001
 44
0.0000000001
 40
0.0
 40
0.0
 40
0.0
 40
0.0
 40
0.0836660423
 40
0.1647132336
 40
0.2430320459
 40
0.3185262421
 40
0.391116283
 40
0.4607407319
 40
0.527358926
 40
0.5909538675
 40
0.6515357265
 40
0.7091459605
 40
0.7638621285
 40
0.8158033726
 40
0.8651363806
 40
0.9120813699
 40
0.9569172207
 40
0.9786557931
 40
1.0
 40
1.0
 40
1.0
 40
1.0
 10
15.4633730418
 20
13.1296591106
 30
0.0
 10
15.4671571079
 20
13.141904353
 30
0.0
 10
15.4749357644
 20
13.165911635
 30
0.0
 10
15.4874491854
 20
13.2009809499
 30
0.0
 10
15.5006002116
 20
13.2344757578
 30
0.0
 10
15.5143588871
 20
13.266319719
 30
0.0
 10
15.5286940167
 20
13.2964407085
 30
0.0
 10
15.5435732418
 20
13.3247705651
 30
0.0
 10
15.5589631515
 20
13.3512453195
 30
0.0
 10
15.5748294428
 20
13.3758053011
 30
0.0
 10
15.5911370903
 20
13.3983952333
 30
0.0
 10
15.6078505169
 20
13.4189642476
 30
0.0
 10
15.6249338536
 20
13.4374658487
 30
0.0
 10
15.642350838
 20
13.4538576434
 30
0.0
 10
15.6600657154
 20
13.4681013542
 30
0.0
 10
15.678040054
 20
13.4801612736
 30
0.0
 10
15.6933635288
 20
13.4884503736
 30
0.0
 10
15.7056807377
 20
13.4939105471
 30
0.0
 10
15.7118533262
 20
13.4962577482
 30
0.0
 10
15.7149409694
 20
13.4973334708
 30
0.0
  0
SPLINE
  5
2B0
100
AcDbEntity
  8
02___PRT_ALL_AXES
100
AcDbSpline
 62
7
  6
CONTINUOUS
 70
0
 71
3
 72
33
 73
29
 74
0
 42
0.0000001
 43
0.0000001
 44
0.0000000001
 40
0.0
 40
0.0
 40
0.0
 40
0.0
 40
0.0161690664
 40
0.0326006172
 40
0.0495419716
 40
0.0672133727
 40
0.0763858214
 40
0.0858075729
 40
0.1054621709
 40
0.1262993332
 40
0.1484034977
 40
0.1718318085
 40
0.1966179848
 40
0.222775688
 40
0.2503016182
 40
0.2791780431
 40
0.3093747779
 40
0.3408507722
 40
0.3735556363
 40
0.4074308199
 40
0.4424105214
 40
0.5153822181
 40
0.5918375523
 40
0.6710656261
 40
0.7523037822
 40
0.834753237
 40
0.9175936205
 40
1.0
 40
1.0
 40
1.0
 40
1.0
 10
15.8275269545
 20
11.79112178
 30
0.0
 10
15.8282988637
 20
11.7911217837
 30
0.0
 10
15.8298573239
 20
11.7912312231
 30
0.0
 10
15.8321781123
 20
11.7917214091
 30
0.0
 10
15.8344820392
 20
11.7925350624
 30
0.0
 10
15.8363582999
 20
11.7934677666
 30
0.0
 10
15.8378408637
 20
11.7943631364
 30
0.0
 10
15.83935288
 20
11.7953882426
 30
0.0
 10
15.8412217031
 20
11.7968728522
 30
0.0
 10
15.8433906482
 20
11.7989333215
 30
0.0
 10
15.8455115158
 20
11.8012912248
 30
0.0
 10
15.847578456
 20
11.803939509
 30
0.0
 10
15.8495858622
 20
11.8068705572
 30
0.0
 10
15.8515281272
 20
11.8100758945
 30
0.0
 10
15.8533997519
 20
11.8135462664
 30
0.0
 10
15.8551953613
 20
11.8172716313
 30
0.0
 10
15.856909751
 20
11.8212411781
 30
0.0
 10
15.858537943
 20
11.8254433466
 30
0.0
 10
15.8600751682
 20
11.8298658703
 30
0.0
 10
15.8615169521
 20
11.8344958521
 30
0.0
 10
15.863331861
 20
11.8410197651
 30
0.0
 10
15.8653209119
 20
11.8496006428
 30
0.0
 10
15.8672361232
 20
11.8603515805
 30
0.0
 10
15.8686894322
 20
11.8715725048
 30
0.0
 10
15.869663557
 20
11.8831319697
 30
0.0
 10
15.8701469291
 20
11.8948948545
 30
0.0
 10
15.8701337924
 20
11.906723143
 30
0.0
 10
15.8697920722
 20
11.9146074385
 30
0.0
 10
15.8695364733
 20
11.9185331968
 30
0.0
  0
SPLINE
  5
2B1
100
AcDbEntity
  8
LAYER_FEATURE
100
AcDbSpline
 62
7
  6
CONTINUOUS
 70
0
 71
3
 72
99
 73
95
 74
0
 42
0.0000001
 43
0.0000001
 44
0.0000000001
 40
0.0
 40
0.0
 40
0.0
 40
0.0
 40
0.0178412071
 40
0.0361831519
 40
0.0549943238
 40
0.0742409385
 40
0.0938874902
 40
0.1138968377
 40
0.1342304219
 40
0.1548484491
 40
0.1757100653
 40
0.1967735239
 40
0.2179963484
 40
0.2393354938
 40
0.2607475032
 40
0.2821886636
 40
0.3036151592
 40
0.3249832258
 40
0.3462493049
 40
0.367370198
 40
0.388303223
 40
0.4090063738
 40
0.4294384831
 40
0.4495593875
 40
0.4693300999
 40
0.4887129906
 40
0.5076719791
 40
0.526172735
 40
0.5441828959
 40
0.5616723064
 40
0.5786132867
 40
0.5949809318
 40
0.6107534497
 40
0.6184110076
 40
0.6259132495
 40
0.6332585109
 40
0.6404454203
 40
0.6474728993
 40
0.6543401936
 40
0.6610469005
 40
0.6675929778
 40
0.673978793
 40
0.6802051366
 40
0.686273259
 40
0.6921849161
 40
0.6979423874
 40
0.7035485368
 40
0.7090068425
 40
0.7143214394
 40
0.7245373784
 40
0.7294529549
 40
0.7342488484
 40
0.738933111
 40
0.7435146696
 40
0.7480033129
 40
0.7524096819
 40
0.7567452282
 40
0.7610221427
 40
0.7652532713
 40
0.7694519891
 40
0.7736320618
 40
0.7778074851
 40
0.781992312
 40
0.7862004788
 40
0.7904456363
 40
0.7947409961
 40
0.799099192
 40
0.8035321769
 40
0.8080511314
 40
0.8126664113
 40
0.8173875178
 40
0.822223075
 40
0.8322653857
 40
0.837487551
 40
0.8428503033
 40
0.8483582374
 40
0.8540152668
 40
0.8598246554
 40
0.8657890608
 40
0.8719105884
 40
0.8781908109
 40
0.8846308237
 40
0.8912312714
 40
0.8979923736
 40
0.9049139714
 40
0.9119955335
 40
0.9192361955
 40
0.9266347807
 40
0.9341898098
 40
0.9418995372
 40
0.9497619477
 40
0.9659350457
 40
0.9826889852
 40
1.0
 40
1.0
 40
1.0
 40
1.0
 10
15.3927978436
 20
13.2734762437
 30
0.0
 10
15.3878663974
 20
13.2575180781
 30
0.0
 10
15.3783309686
 20
13.2250082096
 30
0.0
 10
15.365167814
 20
13.1752285357
 30
0.0
 10
15.352970052
 20
13.1238502552
 30
0.0
 10
15.3417672616
 20
13.0709972363
 30
0.0
 10
15.3315864261
 20
13.0167964021
 30
0.0
 10
15.3224521269
 20
12.9613780815
 30
0.0
 10
15.3143864008
 20
12.9048755367
 30
0.0
 10
15.3074087194
 20
12.8474246795
 30
0.0
 10
15.3015359304
 20
12.7891637223
 30
0.0
 10
15.2967822194
 20
12.7302328481
 30
0.0
 10
15.2931590609
 20
12.6707738686
 30
0.0
 10
15.2906752009
 20
12.6109298782
 30
0.0
 10
15.2893366377
 20
12.5508449049
 30
0.0
 10
15.2891466076
 20
12.4906635618
 30
0.0
 10
15.2901055721
 20
12.430530696
 30
0.0
 10
15.2922112097
 20
12.370591037
 30
0.0
 10
15.2954584347
 20
12.310988845
 30
0.0
 10
15.2998394067
 20
12.2518675615
 30
0.0
 10
15.3053435527
 20
12.193369461
 30
0.0
 10
15.3119575798
 20
12.1356353033
 30
0.0
 10
15.3196655153
 20
12.0788039901
 30
0.0
 10
15.3284487512
 20
12.0230122292
 30
0.0
 10
15.3382860896
 20
11.9683942004
 30
0.0
 10
15.3491537951
 20
11.9150812252
 30
0.0
 10
15.3610256436
 20
11.8632014388
 30
0.0
 10
15.3738730044
 20
11.8128794817
 30
0.0
 10
15.3876649169
 20
11.7642361755
 30
0.0
 10
15.4023681655
 20
11.717388283
 30
0.0
 10
15.4179474145
 20
11.6724479862
 30
0.0
 10
15.4343651287
 20
11.6295233925
 30
0.0
 10
15.4488517554
 20
11.595187504
 30
0.0
 10
15.460845924
 20
11.5688280409
 30
0.0
 10
15.4699374614
 20
11.5498200044
 30
0.0
 10
15.4792078605
 20
11.5313904423
 30
0.0
 10
15.4886515836
 20
11.5135503593
 30
0.0
 10
15.4982629722
 20
11.4963104854
 30
0.0
 10
15.5080362802
 20
11.4796811687
 30
0.0
 10
15.5179656318
 20
11.4636723746
 30
0.0
 10
15.5280451318
 20
11.4482937269
 30
0.0
 10
15.5382687356
 20
11.4335544345
 30
0.0
 10
15.5486303598
 20
11.4194633431
 30
0.0
 10
15.5591238623
 20
11.4060289171
 30
0.0
 10
15.5697429691
 20
11.393259206
 30
0.0
 10
15.5804814634
 20
11.3811618745
 30
0.0
 10
15.5913328427
 20
11.3697443078
 30
0.0
 10
15.6022911767
 20
11.3590129471
 30
0.0
 10
15.6168427076
 20
11.3458039074
 30
0.0
 10
15.6317715146
 20
11.33378025
 30
0.0
 10
15.6470592033
 20
11.3230785111
 30
0.0
 10
15.65845263
 20
11.3158697153
 30
0.0
 10
15.6699129807
 20
11.3093807835
 30
0.0
 10
15.6814337063
 20
11.3036156718
 30
0.0
 10
15.6930078828
 20
11.2985782429
 30
0.0
 10
15.704628554
 20
11.2942718684
 30
0.0
 10
15.7162886253
 20
11.2906994755
 30
0.0
 10
15.7279809256
 20
11.2878636427
 30
0.0
 10
15.739698135
 20
11.2857663576
 30
0.0
 10
15.7514328588
 20
11.2844091896
 30
0.0
 10
15.7631776113
 20
11.2837931704
 30
0.0
 10
15.7749248594
 20
11.2839187111
 30
0.0
 10
15.7866670571
 20
11.2847857841
 30
0.0
 10
15.7983966853
 20
11.286393686
 30
0.0
 10
15.8101062874
 20
11.2887412317
 30
0.0
 10
15.8217884812
 20
11.2918267366
 30
0.0
 10
15.8334360198
 20
11.2956479349
 30
0.0
 10
15.8450417265
 20
11.3002022103
 30
0.0
 10
15.8565985904
 20
11.305486435
 30
0.0
 10
15.8680996061
 20
11.3114970373
 30
0.0
 10
15.8795381936
 20
11.3182303149
 30
0.0
 10
15.8948889264
 20
11.3282913344
 30
0.0
 10
15.9098949974
 20
11.3396927963
 30
0.0
 10
15.9245307678
 20
11.3522957786
 30
0.0
 10
15.935556084
 20
11.3625694588
 30
0.0
 10
15.9464786825
 20
11.3735336762
 30
0.0
 10
15.9572926214
 20
11.3851822662
 30
0.0
 10
15.967991372
 20
11.3975080866
 30
0.0
 10
15.9785686707
 20
11.4105037419
 30
0.0
 10
15.9890181979
 20
11.4241614445
 30
0.0
 10
15.9993337835
 20
11.4384729766
 30
0.0
 10
16.0095092743
 20
11.4534297616
 30
0.0
 10
16.019538593
 20
11.4690228333
 30
0.0
 10
16.0294157836
 20
11.4852428215
 30
0.0
 10
16.0391349045
 20
11.5020800134
 30
0.0
 10
16.0486901652
 20
11.5195242918
 30
0.0
 10
16.058075837
 20
11.5375651866
 30
0.0
 10
16.0672862754
 20
11.5561918779
 30
0.0
 10
16.0763159734
 20
11.5753931526
 30
0.0
 10
16.0851595278
 20
11.595157536
 30
0.0
 10
16.0968049498
 20
11.6225019519
 30
0.0
 10
16.1108392463
 20
11.6580248158
 30
0.0
 10
16.1266998902
 20
11.7023096544
 30
0.0
 10
16.1365423263
 20
11.7326498098
 30
0.0
 10
16.1413272233
 20
11.7481337421
 30
0.0
  0
SPLINE
  5
2B2
100
AcDbEntity
  8
LAYER_FEATURE
100
AcDbSpline
 62
7
  6
CONTINUOUS
 70
0
 71
3
 72
68
 73
64
 74
0
 42
0.0000001
 43
0.0000001
 44
0.0000000001
 40
0.0
 40
0.0
 40
0.0
 40
0.0
 40
0.0163580858
 40
0.0330510049
 40
0.0500641651
 40
0.0673825756
 40
0.0849903746
 40
0.1028711641
 40
0.1210079486
 40
0.1393832211
 40
0.1579789974
 40
0.176776863
 40
0.1957580148
 40
0.2149033029
 40
0.2536072195
 40
0.2927309867
 40
0.3321129044
 40
0.3715894139
 40
0.4109962794
 40
0.450169764
 40
0.4889478082
 40
0.5081391481
 40
0.5271722354
 40
0.5460278227
 40
0.5646869974
 40
0.5831312226
 40
0.6013423791
 40
0.6193028086
 40
0.6369953594
 40
0.6544034334
 40
0.6715110358
 40
0.6883028277
 40
0.7047641825
 40
0.7208812464
 40
0.7366410033
 40
0.7520313453
 40
0.767041151
 40
0.7816603709
 40
0.7958801233
 40
0.8096928013
 40
0.8230921932
 40
0.836073619
 40
0.8486340848
 40
0.8607724581
 40
0.8724896662
 40
0.8837889208
 40
0.8946759706
 40
0.9051593824
 40
0.9152508473
 40
0.9249655082
 40
0.9343222939
 40
0.9433442428
 40
0.9520587819
 40
0.9604979211
 40
0.9686983093
 40
0.9727225116
 40
0.9767028171
 40
0.9806450085
 40
0.9845550798
 40
0.9884392169
 40
0.9923037608
 40
0.9961551735
 40
1.0
 40
1.0
 40
1.0
 40
1.0
 10
15.3793505678
 20
13.3499784501
 30
0.0
 10
15.3754948522
 20
13.33750135
 30
0.0
 10
15.3679625962
 20
13.312211288
 30
0.0
 10
15.3573002509
 20
13.2736892748
 30
0.0
 10
15.3471692763
 20
13.2342320435
 30
0.0
 10
15.3375821548
 20
13.1938882232
 30
0.0
 10
15.328550638
 20
13.1527070863
 30
0.0
 10
15.3200858107
 20
13.1107391348
 30
0.0
 10
15.3121980658
 20
13.0680357676
 30
0.0
 10
15.3048970865
 20
13.0246493189
 30
0.0
 10
15.2981918347
 20
12.9806329481
 30
0.0
 10
15.2920905558
 20
12.9360406297
 30
0.0
 10
15.2866006976
 20
12.8909269127
 30
0.0
 10
15.280081977
 20
12.8299359431
 30
0.0
 10
15.2735206441
 20
12.752785908
 30
0.0
 10
15.2682030924
 20
12.6593526486
 30
0.0
 10
15.2654398412
 20
12.5651917324
 30
0.0
 10
15.2652444931
 20
12.4707647052
 30
0.0
 10
15.2676180077
 20
12.3765335551
 30
0.0
 10
15.2725487064
 20
12.2829601719
 30
0.0
 10
15.2787895088
 20
12.2056475407
 30
0.0
 10
15.285054108
 20
12.1444918346
 30
0.0
 10
15.2903567228
 20
12.099230579
 30
0.0
 10
15.2962728886
 20
12.0544739773
 30
0.0
 10
15.3027953826
 20
12.0102767805
 30
0.0
 10
15.3099161841
 20
11.9666931854
 30
0.0
 10
15.3176265529
 20
11.9237765964
 30
0.0
 10
15.3259170221
 20
11.8815796048
 30
0.0
 10
15.3347774147
 20
11.8401539115
 30
0.0
 10
15.3441968555
 20
11.799550266
 30
0.0
 10
15.3541637851
 20
11.7598184027
 30
0.0
 10
15.3646659751
 20
11.7210069792
 30
0.0
 10
15.3756905439
 20
11.6831635146
 30
0.0
 10
15.3872239722
 20
11.6463343296
 30
0.0
 10
15.3992521232
 20
11.6105644889
 30
0.0
 10
15.4117602614
 20
11.5758977446
 30
0.0
 10
15.424733074
 20
11.5423764815
 30
0.0
 10
15.4381546928
 20
11.5100416638
 30
0.0
 10
15.4520087183
 20
11.4789327832
 30
0.0
 10
15.4662782449
 20
11.4490878102
 30
0.0
 10
15.4809458892
 20
11.4205431465
 30
0.0
 10
15.4959938204
 20
11.3933335813
 30
0.0
 10
15.5114037909
 20
11.3674922497
 30
0.0
 10
15.5271571727
 20
11.3430505977
 30
0.0
 10
15.543234996
 20
11.3200383536
 30
0.0
 10
15.5596179881
 20
11.2984835072
 30
0.0
 10
15.5762866149
 20
11.278412298
 30
0.0
 10
15.5932211188
 20
11.2598492169
 30
0.0
 10
15.6104015545
 20
11.2428170218
 30
0.0
 10
15.6278078001
 20
11.2273367729
 30
0.0
 10
15.6454195916
 20
11.2134278719
 30
0.0
 10
15.6632163632
 20
11.2011081499
 30
0.0
 10
15.6811776053
 20
11.1903938033
 30
0.0
 10
15.6992811847
 20
11.1812998283
 30
0.0
 10
15.7145658038
 20
11.1750431713
 30
0.0
 10
15.7268190027
 20
11.1708832895
 30
0.0
 10
15.735972483
 20
11.1681938613
 30
0.0
 10
15.745143221
 20
11.1659166695
 30
0.0
 10
15.7543285239
 20
11.1640524576
 30
0.0
 10
15.7635254435
 20
11.1626018443
 30
0.0
 10
15.7727311641
 20
11.1615653302
 30
0.0
 10
15.7819425297
 20
11.1609432944
 30
0.0
 10
15.788087619
 20
11.1608049912
 30
0.0
 10
15.7911570877
 20
11.1608049937
 30
0.0
  0
SPLINE
  5
2B3
100
AcDbEntity
  8
02___PRT_ALL_AXES
100
AcDbSpline
 62
7
  6
CONTINUOUS
 70
0
 71
3
 72
67
 73
63
 74
0
 42
0.0000001
 43
0.0000001
 44
0.0000000001
 40
0.0
 40
0.0
 40
0.0
 40
0.0
 40
0.003921388
 40
0.0078387425
 40
0.011761264
 40
0.015698285
 40
0.0196589862
 40
0.0236522803
 40
0.0317684449
 40
0.0401144562
 40
0.0487486848
 40
0.0577220237
 40
0.0670776684
 40
0.076851312
 40
0.0870716132
 40
0.0977608016
 40
0.1089353296
 40
0.1206065088
 40
0.1327811002
 40
0.1454618438
 40
0.1586479233
 40
0.1723353691
 40
0.1865174052
 40
0.2011847486
 40
0.2163258679
 40
0.2319272068
 40
0.2479733794
 40
0.2644473422
 40
0.2813305481
 40
0.2986030833
 40
0.3162437919
 40
0.3342303893
 40
0.3525395673
 40
0.3711470923
 40
0.3900278973
 40
0.4091561695
 40
0.4285054351
 40
0.4677568339
 40
0.507561557
 40
0.5476919822
 40
0.5879172343
 40
0.6280054974
 40
0.6677263167
 40
0.7068529127
 40
0.7261248297
 40
0.7451660438
 40
0.7639503129
 40
0.7824520863
 40
0.8006465901
 40
0.8185099163
 40
0.8360191175
 40
0.8531523069
 40
0.8698887667
 40
0.8862090652
 40
0.9020951867
 40
0.9175306732
 40
0.9325007863
 40
0.9469926748
 40
0.9609956226
 40
0.9745011581
 40
0.9875036462
 40
1.0
 40
1.0
 40
1.0
 40
1.0
 10
15.7256755948
 20
13.1980044528
 30
0.0
 10
15.7275118207
 20
13.1981439132
 30
0.0
 10
15.7311904706
 20
13.1983261263
 30
0.0
 10
15.7367160771
 20
13.1983069251
 30
0.0
 10
15.742240407
 20
13.1979948826
 30
0.0
 10
15.7477607787
 20
13.197390205
 30
0.0
 10
15.7532749895
 20
13.1964930911
 30
0.0
 10
15.7606543466
 20
13.1948995836
 30
0.0
 10
15.7698788213
 20
13.1921580176
 30
0.0
 10
15.7808160003
 20
13.1877232129
 30
0.0
 10
15.7916651917
 20
13.1821355173
 30
0.0
 10
15.8024076651
 20
13.175406806
 30
0.0
 10
15.8130264722
 20
13.1675501744
 30
0.0
 10
15.82350476
 20
13.158580077
 30
0.0
 10
15.8338259931
 20
13.1485123552
 30
0.0
 10
15.8439737489
 20
13.1373643497
 30
0.0
 10
15.8539317288
 20
13.1251549885
 30
0.0
 10
15.8636837715
 20
13.111904853
 30
0.0
 10
15.8732139007
 20
13.0976362135
 30
0.0
 10
15.8825063747
 20
13.0823730361
 30
0.0
 10
15.8915457411
 20
13.0661409708
 30
0.0
 10
15.9003168874
 20
13.0489673255
 30
0.0
 10
15.9088050874
 20
13.0308810282
 30
0.0
 10
15.9169960432
 20
13.0119125818
 30
0.0
 10
15.9248759225
 20
12.9920940131
 30
0.0
 10
15.9324313918
 20
12.9714588179
 30
0.0
 10
15.9396496489
 20
12.9500419032
 30
0.0
 10
15.9465184496
 20
12.9278795249
 30
0.0
 10
15.9530261323
 20
12.9050092232
 30
0.0
 10
15.9591616409
 20
12.8814697562
 30
0.0
 10
15.9649145464
 20
12.857301032
 30
0.0
 10
15.9702750665
 20
12.8325440391
 30
0.0
 10
15.9752340821
 20
12.807240777
 30
0.0
 10
15.9797831589
 20
12.7814341743
 30
0.0
 10
15.9839145439
 20
12.7551680513
 30
0.0
 10
15.9876212504
 20
12.7284869067
 30
0.0
 10
15.9920094303
 20
12.6922479718
 30
0.0
 10
15.9963784656
 20
12.646233376
 30
0.0
 10
15.9998218575
 20
12.5903587646
 30
0.0
 10
16.0014667439
 20
12.5339446509
 30
0.0
 10
16.0013018961
 20
12.4773738481
 30
0.0
 10
15.9993284475
 20
12.4210294782
 30
0.0
 10
15.9955598719
 20
12.3652938777
 30
0.0
 10
15.9909220107
 20
12.3194405167
 30
0.0
 10
15.9863214388
 20
12.2833648214
 30
0.0
 10
15.9824593471
 20
12.2568295315
 30
0.0
 10
15.9781750551
 20
12.23072558
 30
0.0
 10
15.9734758091
 20
12.2050971874
 30
0.0
 10
15.9683696168
 20
12.1799878683
 30
0.0
 10
15.9628651618
 20
12.1554402191
 30
0.0
 10
15.9569718065
 20
12.1314958807
 30
0.0
 10
15.9506995704
 20
12.108195457
 30
0.0
 10
15.944059113
 20
12.0855784463
 30
0.0
 10
15.9370617126
 20
12.0636831713
 30
0.0
 10
15.9297192466
 20
12.0425467118
 30
0.0
 10
15.9220441671
 20
12.0222048364
 30
0.0
 10
15.9140494727
 20
12.0026919512
 30
0.0
 10
15.9057486796
 20
11.9840410033
 30
0.0
 10
15.8971558083
 20
11.9662835336
 30
0.0
 10
15.8882852493
 20
11.9494493029
 30
0.0
 10
15.8791521204
 20
11.9335671323
 30
0.0
 10
15.8727713317
 20
11.9234294841
 30
0.0
 10
15.8695364733
 20
11.9185331968
 30
0.0
  0
SPLINE
  5
2B4
100
AcDbEntity
  8
LAYER_CUT_FEAT
100
AcDbSpline
 62
7
  6
CONTINUOUS
 70
0
 71
3
 72
27
 73
23
 74
0
 42
0.0000001
 43
0.0000001
 44
0.0000000001
 40
0.0
 40
0.0
 40
0.0
 40
0.0
 40
0.0835111469
 40
0.1639083329
 40
0.2411670976
 40
0.3152835253
 40
0.3862766073
 40
0.4541914554
 40
0.5191027311
 40
0.5811185606
 40
0.640384714
 40
0.6970888453
 40
0.7514643505
 40
0.8037931727
 40
0.8292988651
 40
0.8544212665
 40
0.8792091152
 40
0.9037137734
 40
0.9279888829
 40
0.9520900446
 40
0.9760743644
 40
1.0
 40
1.0
 40
1.0
 40
1.0
 10
16.0027139872
 20
13.2177575288
 30
0.0
 10
15.9989367218
 20
13.2254547864
 30
0.0
 10
15.9912701444
 20
13.2404401276
 30
0.0
 10
15.979190757
 20
13.2620610621
 30
0.0
 10
15.9667685792
 20
13.2823654652
 30
0.0
 10
15.9540251153
 20
13.301317732
 30
0.0
 10
15.9409820543
 20
13.3188850453
 30
0.0
 10
15.9276614594
 20
13.335036859
 30
0.0
 10
15.914085628
 20
13.3497450122
 30
0.0
 10
15.9002770122
 20
13.3629836516
 30
0.0
 10
15.8862583298
 20
13.3747290889
 30
0.0
 10
15.8720521141
 20
13.3849598304
 30
0.0
 10
15.8576826043
 20
13.393655833
 30
0.0
 10
15.8454861433
 20
13.3996602253
 30
0.0
 10
15.8356939733
 20
13.4036506773
 30
0.0
 10
15.8283883498
 20
13.4062257217
 30
0.0
 10
15.821062744
 20
13.4084067189
 30
0.0
 10
15.8137202993
 20
13.410192716
 30
0.0
 10
15.8063643762
 20
13.4115827539
 30
0.0
 10
15.7989982403
 20
13.4125761665
 30
0.0
 10
15.7916255395
 20
13.4131724097
 30
0.0
 10
15.7867055836
 20
13.4133049859
 30
0.0
 10
15.7842491303
 20
13.4133049898
 30
0.0
  0
SPLINE
  5
2B5
100
AcDbEntity
  8
LAYER_FEATURE
100
AcDbSpline
 62
7
  6
CONTINUOUS
 70
0
 71
3
 72
56
 73
52
 74
0
 42
0.0000001
 43
0.0000001
 44
0.0000000001
 40
0.0
 40
0.0
 40
0.0
 40
0.0
 40
0.0079087202
 40
0.0160273533
 40
0.0243882133
 40
0.0330198943
 40
0.0419472694
 40
0.0511916076
 40
0.0607707662
 40
0.0706994231
 40
0.0809893262
 40
0.0916495409
 40
0.1026866978
 40
0.1141052217
 40
0.1259075388
 40
0.1380942601
 40
0.1506643479
 40
0.163615271
 40
0.1769431374
 40
0.1906428116
 40
0.2047080139
 40
0.2191314164
 40
0.2339047301
 40
0.2490187791
 40
0.2644635667
 40
0.2802283324
 40
0.2963016129
 40
0.3126712956
 40
0.3293246646
 40
0.3462484429
 40
0.380850499
 40
0.4163627226
 40
0.4526627124
 40
0.48962264
 40
0.5271102713
 40
0.5649899143
 40
0.6031233608
 40
0.6413707841
 40
0.6795916391
 40
0.7176455465
 40
0.7553931872
 40
0.7926971935
 40
0.8294230731
 40
0.8654401377
 40
0.9006224912
 40
0.9178634055
 40
0.9348511482
 40
0.9515718285
 40
0.9680119231
 40
0.9841589016
 40
1.0
 40
1.0
 40
1.0
 40
1.0
 10
15.7149409695
 20
11.5242765157
 30
0.0
 10
15.710676326
 20
11.5257623009
 30
0.0
 10
15.7021478238
 20
11.5291105098
 30
0.0
 10
15.6895817405
 20
11.5351389407
 30
0.0
 10
15.6771035871
 20
11.5422253748
 30
0.0
 10
15.6647275314
 20
11.5503608467
 30
0.0
 10
15.6524661476
 20
11.5595359244
 30
0.0
 10
15.6403322022
 20
11.569740138
 30
0.0
 10
15.6283382251
 20
11.5809621328
 30
0.0
 10
15.6164966677
 20
11.593189595
 30
0.0
 10
15.6048198733
 20
11.6064092358
 30
0.0
 10
15.5933200672
 20
11.6206067556
 30
0.0
 10
15.5820093553
 20
11.6357668511
 30
0.0
 10
15.570899703
 20
11.6518732116
 30
0.0
 10
15.5600029176
 20
11.6689085217
 30
0.0
 10
15.5493306209
 20
11.6868544609
 30
0.0
 10
15.5388942232
 20
11.7056917145
 30
0.0
 10
15.5287049173
 20
11.7254000013
 30
0.0
 10
15.5187736552
 20
11.7459580926
 30
0.0
 10
15.5091111358
 20
11.7673438322
 30
0.0
 10
15.4997277747
 20
11.7895341508
 30
0.0
 10
15.4906336977
 20
11.8125050966
 30
0.0
 10
15.4818387312
 20
11.8362318668
 30
0.0
 10
15.4733523874
 20
11.8606888341
 30
0.0
 10
15.4651838532
 20
11.8858495725
 30
0.0
 10
15.4573419669
 20
11.9116868793
 30
0.0
 10
15.4498352159
 20
11.9381728191
 30
0.0
 10
15.4426717456
 20
11.9652787288
 30
0.0
 10
15.435859272
 20
11.9929753569
 30
0.0
 10
15.4271901803
 20
12.0309312519
 30
0.0
 10
15.4173038859
 20
12.0796478598
 30
0.0
 10
15.407034809
 20
12.1395475045
 30
0.0
 10
15.3983190066
 20
12.2010527567
 30
0.0
 10
15.3911943702
 20
12.2638973834
 30
0.0
 10
15.3856919186
 20
12.3278098701
 30
0.0
 10
15.3818355606
 20
12.3925138303
 30
0.0
 10
15.3796421003
 20
12.4577294465
 30
0.0
 10
15.379121068
 20
12.5231746405
 30
0.0
 10
15.3802747317
 20
12.5885663297
 30
0.0
 10
15.3830980842
 20
12.653621663
 30
0.0
 10
15.3875788164
 20
12.7180592783
 30
0.0
 10
15.3936974633
 20
12.7816004833
 30
0.0
 10
15.4014273772
 20
12.8439706881
 30
0.0
 10
15.410734954
 20
12.9048998805
 30
0.0
 10
15.4198324006
 20
12.9545837488
 30
0.0
 10
15.4278841587
 20
12.9933939368
 30
0.0
 10
15.4342495921
 20
13.021783594
 30
0.0
 10
15.4409751517
 20
13.0496198645
 30
0.0
 10
15.4480536022
 20
13.076872872
 30
0.0
 10
15.4554772324
 20
13.1035128145
 30
0.0
 10
15.4607023473
 20
13.1210167398
 30
0.0
 10
15.4633730418
 20
13.1296591106
 30
0.0
  0
SPLINE
  5
2B6
100
AcDbEntity
  8
02___PRT_ALL_AXES
100
AcDbSpline
 62
7
  6
CONTINUOUS
 70
0
 71
3
 72
56
 73
52
 74
0
 42
0.0000001
 43
0.0000001
 44
0.0000000001
 40
0.0
 40
0.0
 40
0.0
 40
0.0
 40
0.0079087203
 40
0.0160273549
 40
0.0243882161
 40
0.0330198955
 40
0.0419472683
 40
0.0511916073
 40
0.0607707685
 40
0.0706994264
 40
0.0809893269
 40
0.0916495391
 40
0.1026866977
 40
0.1141052247
 40
0.1259075419
 40
0.13809426
 40
0.1506643461
 40
0.1636152715
 40
0.1769431407
 40
0.1906428139
 40
0.2047080132
 40
0.219131415
 40
0.2339047313
 40
0.2490187823
 40
0.2644635682
 40
0.2802283314
 40
0.2963016121
 40
0.3126712972
 40
0.329324667
 40
0.3462484437
 40
0.3808504988
 40
0.4163627242
 40
0.452662712
 40
0.4896226413
 40
0.5271102715
 40
0.5649899148
 40
0.6031233612
 40
0.6413707846
 40
0.6795916393
 40
0.717645547
 40
0.7553931873
 40
0.7926971937
 40
0.8294230736
 40
0.8654401376
 40
0.9006224915
 40
0.9178634062
 40
0.9348511477
 40
0.9515718278
 40
0.9680119276
 40
0.9841588923
 40
1.0
 40
1.0
 40
1.0
 40
1.0
 10
15.7318169304
 20
11.518396968
 30
0.0
 10
15.7275268728
 20
11.5198916153
 30
0.0
 10
15.7189475367
 20
11.5232597668
 30
0.0
 10
15.7063065656
 20
11.5293241396
 30
0.0
 10
15.6937540468
 20
11.536452812
 30
0.0
 10
15.68130423
 20
11.544636764
 30
0.0
 10
15.6689697659
 20
11.553866515
 30
0.0
 10
15.6567635057
 20
11.5641315469
 30
0.0
 10
15.6446980502
 20
11.5754204305
 30
0.0
 10
15.6327859215
 20
11.5877207692
 30
0.0
 10
15.621039531
 20
11.6010191898
 30
0.0
 10
15.6094711842
 20
11.615301319
 30
0.0
 10
15.5980930651
 20
11.6305517699
 30
0.0
 10
15.5869172055
 20
11.6467541279
 30
0.0
 10
15.5759554777
 20
11.6638909658
 30
0.0
 10
15.5652195709
 20
11.6819438536
 30
0.0
 10
15.5547209713
 20
11.7008933709
 30
0.0
 10
15.5444709425
 20
11.72071912
 30
0.0
 10
15.5344804963
 20
11.7413997389
 30
0.0
 10
15.5247603883
 20
11.7629129323
 30
0.0
 10
15.5153210994
 20
11.7852354965
 30
0.0
 10
15.5061728216
 20
11.808343344
 30
0.0
 10
15.497325443
 20
11.8322115258
 30
0.0
 10
15.4887885257
 20
11.8568142556
 30
0.0
 10
15.4805713055
 20
11.8821249454
 30
0.0
 10
15.4726826788
 20
11.9081162345
 30
0.0
 10
15.4651311884
 20
11.9347600261
 30
0.0
 10
15.4579250301
 20
11.9620274859
 30
0.0
 10
15.4510719573
 20
11.9898891825
 30
0.0
 10
15.4423511941
 20
12.028071286
 30
0.0
 10
15.4324059764
 20
12.0770782359
 30
0.0
 10
15.422075708
 20
12.1373348733
 30
0.0
 10
15.4133079477
 20
12.1992066855
 30
0.0
 10
15.4061408623
 20
12.2624258562
 30
0.0
 10
15.4006056084
 20
12.3267192503
 30
0.0
 10
15.3967262698
 20
12.3918088349
 30
0.0
 10
15.3945197395
 20
12.4574131254
 30
0.0
 10
15.3939955951
 20
12.5232483615
 30
0.0
 10
15.3951561433
 20
12.5890297741
 30
0.0
 10
15.3979963146
 20
12.6544728263
 30
0.0
 10
15.4025037568
 20
12.7192944786
 30
0.0
 10
15.4086588673
 20
12.7832143786
 30
0.0
 10
15.4164348492
 20
12.8459562994
 30
0.0
 10
15.4257979006
 20
12.907248619
 30
0.0
 10
15.4349495635
 20
12.9572285955
 30
0.0
 10
15.4430493099
 20
12.9962700852
 30
0.0
 10
15.4494526807
 20
13.0248289392
 30
0.0
 10
15.4562183233
 20
13.0528311115
 30
0.0
 10
15.4633389594
 20
13.0802465374
 30
0.0
 10
15.4708068321
 20
13.1070452501
 30
0.0
 10
15.4760630878
 20
13.1246534932
 30
0.0
 10
15.4787497009
 20
13.1333473761
 30
0.0
  0
SPLINE
  5
2B7
100
AcDbEntity
  8
LAYER_FEATURE
100
AcDbSpline
 62
7
  6
CONTINUOUS
 70
0
 71
3
 72
14
 73
10
 74
0
 42
0.0000001
 43
0.0000001
 44
0.0000000001
 40
0.0
 40
0.0
 40
0.0
 40
0.0
 40
0.213305375
 40
0.3287145395
 40
0.4502694261
 40
0.5781256744
 40
0.7123642916
 40
0.8530114466
 40
1.0
 40
1.0
 40
1.0
 40
1.0
 10
14.8335386709
 20
12.9355062514
 30
0.0
 10
14.8347090779
 20
12.9363756193
 30
0.0
 10
14.8363936556
 20
12.9378802841
 30
0.0
 10
14.8384686363
 20
12.9401543619
 30
0.0
 10
14.8400309805
 20
12.9421001373
 30
0.0
 10
14.8415543759
 20
12.9442359859
 30
0.0
 10
14.843035824
 20
12.9465574919
 30
0.0
 10
14.8444718037
 20
12.9490591148
 30
0.0
 10
14.8453769804
 20
12.9508050873
 30
0.0
 10
14.8458221449
 20
12.95170576
 30
0.0
  0
SPLINE
  5
2B8
100
AcDbEntity
  8
LAYER_FEATURE
100
AcDbSpline
 62
7
  6
CONTINUOUS
 70
0
 71
3
 72
21
 73
17
 74
0
 42
0.0000001
 43
0.0000001
 44
0.0000000001
 40
0.0
 40
0.0
 40
0.0
 40
0.0
 40
0.0386555826
 40
0.078347523
 40
0.1200269072
 40
0.1644761058
 40
0.2122921298
 40
0.2638970035
 40
0.3195591189
 40
0.3794219128
 40
0.4435253598
 40
0.5118255614
 40
0.584212064
 40
0.6605177106
 40
0.8239461154
 40
1.0
 40
1.0
 40
1.0
 40
1.0
 10
14.7997502927
 20
12.9355534709
 30
0.0
 10
14.7995665872
 20
12.9355534739
 30
0.0
 10
14.7991934204
 20
12.9355193605
 30
0.0
 10
14.7986409327
 20
12.9353671861
 30
0.0
 10
14.798095794
 20
12.9351156806
 30
0.0
 10
14.7975608173
 20
12.9347671734
 30
0.0
 10
14.797038138
 20
12.9343240006
 30
0.0
 10
14.7965298321
 20
12.9337886393
 30
0.0
 10
14.796037956
 20
12.9331637754
 30
0.0
 10
14.7955646648
 20
12.9324523929
 30
0.0
 10
14.7951120967
 20
12.931657892
 30
0.0
 10
14.794682362
 20
12.930784083
 30
0.0
 10
14.7942775123
 20
12.9298351595
 30
0.0
 10
14.7937617522
 20
12.9284438892
 30
0.0
 10
14.793198849
 20
12.9265473842
 30
0.0
 10
14.7928534943
 20
12.9249700326
 30
0.0
 10
14.7927001928
 20
12.9241475244
 30
0.0
  0
SPLINE
  5
2B9
100
AcDbEntity
  8
LAYER_FEATURE
100
AcDbSpline
 62
7
  6
CONTINUOUS
 70
0
 71
3
 72
18
 73
14
 74
0
 42
0.0000001
 43
0.0000001
 44
0.0000000001
 40
0.0
 40
0.0
 40
0.0
 40
0.0
 40
0.0426399227
 40
0.0860225069
 40
0.1308449491
 40
0.1777233021
 40
0.2271723174
 40
0.2796014309
 40
0.3944581953
 40
0.5238845265
 40
0.6682832248
 40
0.8272919151
 40
1.0
 40
1.0
 40
1.0
 40
1.0
 10
14.8456447994
 20
13.1721815408
 30
0.0
 10
14.8454979438
 20
13.1721815449
 30
0.0
 10
14.8452012424
 20
13.1721599348
 30
0.0
 10
14.844759684
 20
13.1720631808
 30
0.0
 10
14.8443215899
 20
13.1719026467
 30
0.0
 10
14.843888566
 20
13.1716792099
 30
0.0
 10
14.8434618453
 20
13.1713938999
 30
0.0
 10
14.8428854535
 20
13.1709179264
 30
0.0
 10
14.8421905578
 20
13.1701620411
 30
0.0
 10
14.8414272939
 20
13.1690586038
 30
0.0
 10
14.8407174842
 20
13.1677448792
 30
0.0
 10
14.8400694094
 20
13.1662367192
 30
0.0
 10
14.8396979345
 20
13.165155201
 30
0.0
 10
14.839522315
 20
13.164586896
 30
0.0
  0
SPLINE
  5
2BA
100
AcDbEntity
  8
LAYER_CUT_FEAT
100
AcDbSpline
 62
7
  6
CONTINUOUS
 70
0
 71
3
 72
67
 73
63
 74
0
 42
0.0000001
 43
0.0000001
 44
0.0000000001
 40
0.0
 40
0.0
 40
0.0
 40
0.0
 40
0.0038601976
 40
0.0077284267
 40
0.0116126568
 40
0.0155207368
 40
0.0194603357
 40
0.023438898
 40
0.0315392196
 40
0.0398773698
 40
0.048501047
 40
0.057451775
 40
0.0667648664
 40
0.0764696483
 40
0.0865898513
 40
0.0971440794
 40
0.1081463063
 40
0.1196063567
 40
0.1315303548
 40
0.1439211288
 40
0.1567785691
 40
0.1700999428
 40
0.1838801676
 40
0.1981120494
 40
0.2127864899
 40
0.2278926673
 40
0.2434181949
 40
0.259349262
 40
0.2756707586
 40
0.292366388
 40
0.3094187678
 40
0.3268095226
 40
0.3445193701
 40
0.3625281996
 40
0.3808151472
 40
0.3993586657
 40
0.4181365917
 40
0.4371262099
 40
0.4563043151
 40
0.4951298848
 40
0.5344213454
 40
0.5739813669
 40
0.6136102719
 40
0.6531077837
 40
0.692274769
 40
0.7309149925
 40
0.7499781048
 40
0.7688381813
 40
0.7874723155
 40
0.8058581296
 40
0.8239738371
 40
0.8417983092
 40
0.859311144
 40
0.8764927391
 40
0.8933243694
 40
0.9097882689
 40
0.9258677239
 40
0.9415471605
 40
0.9568122851
 40
0.9716501115
 40
0.9860493235
 40
1.0
 40
1.0
 40
1.0
 40
1.0
 10
15.7842491303
 20
11.608304996
 30
0.0
 10
15.7865110424
 20
11.6083049925
 30
0.0
 10
15.7910403732
 20
11.6084173686
 30
0.0
 10
15.797828736
 20
11.6089227838
 30
0.0
 10
15.8046120195
 20
11.6097648972
 30
0.0
 10
15.8113873427
 20
11.6109433561
 30
0.0
 10
15.818152316
 20
11.6124576902
 30
0.0
 10
15.8272077964
 20
11.6149381371
 30
0.0
 10
15.8385150362
 20
11.6189003885
 30
0.0
 10
15.8519110312
 20
11.6249593369
 30
0.0
 10
15.8651985593
 20
11.632340005
 30
0.0
 10
15.8783576677
 20
11.6410292755
 30
0.0
 10
15.8913700901
 20
11.6510128261
 30
0.0
 10
15.904217569
 20
11.6622748542
 30
0.0
 10
15.916882147
 20
11.6747980841
 30
0.0
 10
15.9293459904
 20
11.688563664
 30
0.0
 10
15.9415914127
 20
11.7035511039
 30
0.0
 10
15.9536008884
 20
11.7197382249
 30
0.0
 10
15.9653570952
 20
11.7371011356
 30
0.0
 10
15.97684296
 20
11.7556142267
 30
0.0
 10
15.9880417072
 20
11.7752501834
 30
0.0
 10
15.9989369042
 20
11.7959800103
 30
0.0
 10
16.0095125042
 20
11.8177730656
 30
0.0
 10
16.0197528854
 20
11.8405971025
 30
0.0
 10
16.0296428856
 20
11.8644183156
 30
0.0
 10
16.0391678351
 20
11.8892013911
 30
0.0
 10
16.0483135865
 20
11.9149095608
 30
0.0
 10
16.0570665403
 20
11.9415046587
 30
0.0
 10
16.0654136704
 20
11.9689471807
 30
0.0
 10
16.073342546
 20
11.9971963445
 30
0.0
 10
16.0808413535
 20
12.026210153
 30
0.0
 10
16.0878989152
 20
12.0559454582
 30
0.0
 10
16.0945047082
 20
12.0863580267
 30
0.0
 10
16.1006488807
 20
12.1174026079
 30
0.0
 10
16.1063222668
 20
12.1490329998
 30
0.0
 10
16.1115164053
 20
12.181202129
 30
0.0
 10
16.1162235349
 20
12.2138620824
 30
0.0
 10
16.1204366746
 20
12.2469643296
 30
0.0
 10
16.1254071115
 20
12.2918061266
 30
0.0
 10
16.1303311721
 20
12.3486141715
 30
0.0
 10
16.13416484
 20
12.4174716957
 30
0.0
 10
16.1359240431
 20
12.4868844755
 30
0.0
 10
16.1355982616
 20
12.5564393284
 30
0.0
 10
16.1331894451
 20
12.6257230221
 30
0.0
 10
16.1287120099
 20
12.6943231446
 30
0.0
 10
16.1232552204
 20
12.7508325782
 30
0.0
 10
16.1178632459
 20
12.7953719565
 30
0.0
 10
16.1133407319
 20
12.8282037115
 30
0.0
 10
16.1083285319
 20
12.8605627179
 30
0.0
 10
16.1028340797
 20
12.8924008965
 30
0.0
 10
16.096865584
 20
12.9236708304
 30
0.0
 10
16.0904319447
 20
12.9543259868
 30
0.0
 10
16.0835427588
 20
12.9843207482
 30
0.0
 10
16.0762082993
 20
13.0136104921
 30
0.0
 10
16.0684395002
 20
13.0421516549
 30
0.0
 10
16.0602479391
 20
13.0699018017
 30
0.0
 10
16.0516458172
 20
13.0968196818
 30
0.0
 10
16.0426459394
 20
13.1228653211
 30
0.0
 10
16.0332617004
 20
13.1479999958
 30
0.0
 10
16.0235070075
 20
13.172186544
 30
0.0
 10
16.0133964763
 20
13.1953887294
 30
0.0
 10
16.0063152056
 20
13.2104190172
 30
0.0
 10
16.0027139872
 20
13.2177575288
 30
0.0
  0
SPLINE
  5
2BB
100
AcDbEntity
  8
LAYER_FEATURE
100
AcDbSpline
 62
7
  6
CONTINUOUS
 70
0
 71
3
 72
99
 73
95
 74
0
 42
0.0000001
 43
0.0000001
 44
0.0000000001
 40
0.0
 40
0.0
 40
0.0
 40
0.0
 40
0.0173110148
 40
0.0340649543
 40
0.0502380523
 40
0.0581004628
 40
0.0658101902
 40
0.0733652193
 40
0.0807638045
 40
0.0880044665
 40
0.0950860286
 40
0.1020076264
 40
0.1087687286
 40
0.1153691763
 40
0.1218091891
 40
0.1280894116
 40
0.1342109392
 40
0.1401753446
 40
0.1459847332
 40
0.1516417626
 40
0.1571496967
 40
0.162512449
 40
0.1677346143
 40
0.177776925
 40
0.1826124822
 40
0.1873335887
 40
0.1919488686
 40
0.1964678231
 40
0.200900808
 40
0.2052590039
 40
0.2095543637
 40
0.2137995212
 40
0.218007688
 40
0.2221925149
 40
0.2263679382
 40
0.2305480109
 40
0.2347467287
 40
0.2389778573
 40
0.2432547718
 40
0.2475903181
 40
0.2519966871
 40
0.2564853304
 40
0.261066889
 40
0.2657511516
 40
0.2705470451
 40
0.2754626216
 40
0.2856785606
 40
0.2909931575
 40
0.2964514632
 40
0.3020576126
 40
0.3078150839
 40
0.313726741
 40
0.3197948634
 40
0.326021207
 40
0.3324070222
 40
0.3389530995
 40
0.3456598064
 40
0.3525271007
 40
0.3595545797
 40
0.3667414891
 40
0.3740867505
 40
0.3815889924
 40
0.3892465503
 40
0.4050190682
 40
0.4213867133
 40
0.4383276936
 40
0.4558171041
 40
0.473827265
 40
0.4923280209
 40
0.5112870094
 40
0.5306699001
 40
0.5504406125
 40
0.5705615169
 40
0.5909936262
 40
0.611696777
 40
0.632629802
 40
0.6537506951
 40
0.6750167742
 40
0.6963848408
 40
0.7178113364
 40
0.7392524968
 40
0.7606645062
 40
0.7820036516
 40
0.8032264761
 40
0.8242899347
 40
0.8451515509
 40
0.8657695781
 40
0.8861031623
 40
0.9061125098
 40
0.9257590615
 40
0.9450056762
 40
0.9638168481
 40
0.9821587929
 40
1.0
 40
1.0
 40
1.0
 40
1.0
 10
15.3927978436
 20
13.2734762437
 30
0.0
 10
15.3975827406
 20
13.288960176
 30
0.0
 10
15.4074251767
 20
13.3193003314
 30
0.0
 10
15.4232858206
 20
13.36358517
 30
0.0
 10
15.4373201171
 20
13.399108034
 30
0.0
 10
15.4489655391
 20
13.4264524498
 30
0.0
 10
15.4578090935
 20
13.4462168332
 30
0.0
 10
15.4668387915
 20
13.465418108
 30
0.0
 10
15.4760492299
 20
13.4840447992
 30
0.0
 10
15.4854349017
 20
13.502085694
 30
0.0
 10
15.4949901623
 20
13.5195299724
 30
0.0
 10
15.5047092833
 20
13.5363671643
 30
0.0
 10
15.5145864739
 20
13.5525871525
 30
0.0
 10
15.5246157926
 20
13.5681802242
 30
0.0
 10
15.5347912834
 20
13.5831370092
 30
0.0
 10
15.545106869
 20
13.5974485414
 30
0.0
 10
15.5555563961
 20
13.6111062439
 30
0.0
 10
15.5661336949
 20
13.6241018992
 30
0.0
 10
15.5768324455
 20
13.6364277196
 30
0.0
 10
15.5876463844
 20
13.6480763096
 30
0.0
 10
15.5985689829
 20
13.659040527
 30
0.0
 10
15.6095942991
 20
13.6693142072
 30
0.0
 10
15.6242300694
 20
13.6819171895
 30
0.0
 10
15.6392361405
 20
13.6933186515
 30
0.0
 10
15.6545868732
 20
13.7033796709
 30
0.0
 10
15.6660254608
 20
13.7101129485
 30
0.0
 10
15.6775264765
 20
13.7161235508
 30
0.0
 10
15.6890833404
 20
13.7214077755
 30
0.0
 10
15.7006890471
 20
13.7259620509
 30
0.0
 10
15.7123365857
 20
13.7297832492
 30
0.0
 10
15.7240187795
 20
13.7328687541
 30
0.0
 10
15.7357283816
 20
13.7352162998
 30
0.0
 10
15.7474580098
 20
13.7368242017
 30
0.0
 10
15.7592002074
 20
13.7376912747
 30
0.0
 10
15.7709474556
 20
13.7378168154
 30
0.0
 10
15.7826922081
 20
13.7372007962
 30
0.0
 10
15.7944269318
 20
13.7358436282
 30
0.0
 10
15.8061441413
 20
13.7337463431
 30
0.0
 10
15.8178364416
 20
13.7309105103
 30
0.0
 10
15.8294965129
 20
13.7273381174
 30
0.0
 10
15.8411171841
 20
13.7230317429
 30
0.0
 10
15.8526913606
 20
13.717994314
 30
0.0
 10
15.8642120862
 20
13.7122292023
 30
0.0
 10
15.8756724369
 20
13.7057402705
 30
0.0
 10
15.8870658636
 20
13.6985314747
 30
0.0
 10
15.9023535523
 20
13.6878297358
 30
0.0
 10
15.9172823593
 20
13.6758060784
 30
0.0
 10
15.9318338902
 20
13.6625970388
 30
0.0
 10
15.9427922241
 20
13.651865678
 30
0.0
 10
15.9536436035
 20
13.6404481113
 30
0.0
 10
15.9643820978
 20
13.6283507798
 30
0.0
 10
15.9750012046
 20
13.6155810688
 30
0.0
 10
15.9854947071
 20
13.6021466427
 30
0.0
 10
15.9958563313
 20
13.5880555513
 30
0.0
 10
16.0060799351
 20
13.5733162589
 30
0.0
 10
16.016159435
 20
13.5579376113
 30
0.0
 10
16.0260887867
 20
13.5419288171
 30
0.0
 10
16.0358620947
 20
13.5252995004
 30
0.0
 10
16.0454734833
 20
13.5080596265
 30
0.0
 10
16.0549172064
 20
13.4902195435
 30
0.0
 10
16.0641876055
 20
13.4717899814
 30
0.0
 10
16.0732791429
 20
13.452781945
 30
0.0
 10
16.0852733114
 20
13.4264224818
 30
0.0
 10
16.0997599382
 20
13.3920865934
 30
0.0
 10
16.1161776524
 20
13.3491619996
 30
0.0
 10
16.1317569014
 20
13.3042217028
 30
0.0
 10
16.14646015
 20
13.2573738103
 30
0.0
 10
16.1602520625
 20
13.2087305042
 30
0.0
 10
16.1730994232
 20
13.158408547
 30
0.0
 10
16.1849712718
 20
13.1065287606
 30
0.0
 10
16.1958389773
 20
13.0532157854
 30
0.0
 10
16.2056763157
 20
12.9985977567
 30
0.0
 10
16.2144595516
 20
12.9428059957
 30
0.0
 10
16.2221674871
 20
12.8859746825
 30
0.0
 10
16.2287815142
 20
12.8282405248
 30
0.0
 10
16.2342856602
 20
12.7697424244
 30
0.0
 10
16.2386666321
 20
12.7106211408
 30
0.0
 10
16.2419138572
 20
12.6510189488
 30
0.0
 10
16.2440194948
 20
12.5910792898
 30
0.0
 10
16.2449784593
 20
12.530946424
 30
0.0
 10
16.2447884291
 20
12.4707650809
 30
0.0
 10
16.243449866
 20
12.4106801076
 30
0.0
 10
16.240966006
 20
12.3508361172
 30
0.0
 10
16.2373428475
 20
12.2913771377
 30
0.0
 10
16.2325891365
 20
12.2324462635
 30
0.0
 10
16.2267163475
 20
12.1741853064
 30
0.0
 10
16.2197386661
 20
12.1167344491
 30
0.0
 10
16.21167294
 20
12.0602319043
 30
0.0
 10
16.2025386408
 20
12.0048135837
 30
0.0
 10
16.1923578053
 20
11.9506127495
 30
0.0
 10
16.1811550149
 20
11.8977597306
 30
0.0
 10
16.1689572529
 20
11.8463814501
 30
0.0
 10
16.1557940983
 20
11.7966017762
 30
0.0
 10
16.1462586695
 20
11.7640919077
 30
0.0
 10
16.1413272233
 20
11.7481337421
 30
0.0
  0
SPLINE
  5
2BC
100
AcDbEntity
  8
LAYER_FEATURE
100
AcDbSpline
 62
7
  6
CONTINUOUS
 70
0
 71
3
 72
39
 73
35
 74
0
 42
0.0000001
 43
0.0000001
 44
0.0000000001
 40
0.0
 40
0.0
 40
0.0
 40
0.0
 40
0.0443813067
 40
0.0879669132
 40
0.1307335
 40
0.1726618866
 40
0.2137331556
 40
0.2539301966
 40
0.2932376985
 40
0.3316421098
 40
0.369131909
 40
0.4056977074
 40
0.4413324012
 40
0.4760313905
 40
0.5097927922
 40
0.5426176374
 40
0.5745101304
 40
0.6054779621
 40
0.6355325877
 40
0.6646895438
 40
0.692968828
 40
0.7203952814
 40
0.7469989433
 40
0.7728154398
 40
0.7978863773
 40
0.8222596396
 40
0.8459896209
 40
0.8691373705
 40
0.8917705686
 40
0.9139632732
 40
0.9357954514
 40
0.9573522573
 40
0.9787230195
 40
1.0
 40
1.0
 40
1.0
 40
1.0
 10
15.3793505678
 20
13.3499784501
 30
0.0
 10
15.3823874178
 20
13.3598057004
 30
0.0
 10
15.3885640343
 20
13.379235837
 30
0.0
 10
15.3982292335
 20
13.4079531135
 30
0.0
 10
15.4082050046
 20
13.435961413
 30
0.0
 10
15.4184833178
 20
13.4632383324
 30
0.0
 10
15.4290561455
 20
13.4897625258
 30
0.0
 10
15.4399151123
 20
13.5155130191
 30
0.0
 10
15.4510516478
 20
13.5404695047
 30
0.0
 10
15.4624569929
 20
13.5646123047
 30
0.0
 10
15.4741221503
 20
13.587922394
 30
0.0
 10
15.486037937
 20
13.6103814133
 30
0.0
 10
15.4981949986
 20
13.6319716686
 30
0.0
 10
15.5105837968
 20
13.6526761616
 30
0.0
 10
15.523194613
 20
13.6724786091
 30
0.0
 10
15.5360175878
 20
13.6913634311
 30
0.0
 10
15.5490427307
 20
13.7093157604
 30
0.0
 10
15.5622598939
 20
13.7263214806
 30
0.0
 10
15.5756588157
 20
13.7423672095
 30
0.0
 10
15.5892291402
 20
13.7574402872
 30
0.0
 10
15.6029604068
 20
13.771528797
 30
0.0
 10
15.6168420474
 20
13.7846215774
 30
0.0
 10
15.6308634218
 20
13.7967081816
 30
0.0
 10
15.6450138159
 20
13.8077788648
 30
0.0
 10
15.6592823988
 20
13.8178246237
 30
0.0
 10
15.6736582381
 20
13.8268371554
 30
0.0
 10
15.6881302826
 20
13.8348088313
 30
0.0
 10
15.7026873153
 20
13.8417327291
 30
0.0
 10
15.7173178987
 20
13.8476026821
 30
0.0
 10
15.7320103983
 20
13.8524132634
 30
0.0
 10
15.7467528246
 20
13.8561598393
 30
0.0
 10
15.7615332584
 20
13.8588387132
 30
0.0
 10
15.7763382446
 20
13.8604471714
 30
0.0
 10
15.7862259491
 20
13.8608049881
 30
0.0
 10
15.7911570877
 20
13.8608049922
 30
0.0
  0
SPLINE
  5
2BD
100
AcDbEntity
  8
LAYER_FEATURE
100
AcDbSpline
 62
7
  6
CONTINUOUS
 70
0
 71
3
 72
37
 73
33
 74
0
 42
0.0000001
 43
0.0000001
 44
0.0000000001
 40
0.0
 40
0.0
 40
0.0
 40
0.0
 40
0.0222987871
 40
0.0446762891
 40
0.0672101936
 40
0.0899762072
 40
0.1130471629
 40
0.1364923008
 40
0.1603766981
 40
0.1847608084
 40
0.2352296453
 40
0.2614266474
 40
0.2883159956
 40
0.3159336536
 40
0.3443110724
 40
0.3734754066
 40
0.4034497211
 40
0.4342533451
 40
0.4659020338
 40
0.4984082635
 40
0.5317814969
 40
0.566028311
 40
0.6011527104
 40
0.6371562514
 40
0.674038213
 40
0.7117958272
 40
0.7504242989
 40
0.7899170969
 40
0.8302660215
 40
0.871460946
 40
0.9134907358
 40
1.0
 40
1.0
 40
1.0
 40
1.0
 10
15.2316125339
 20
13.7113049882
 30
0.0
 10
15.227690234
 20
13.7113049828
 30
0.0
 10
15.2198294351
 20
13.7110506305
 30
0.0
 10
15.2080550299
 20
13.709906934
 30
0.0
 10
15.1962960122
 20
13.7080018372
 30
0.0
 10
15.184560895
 20
13.7053367688
 30
0.0
 10
15.1728572116
 20
13.7019138001
 30
0.0
 10
15.1611927174
 20
13.6977355645
 30
0.0
 10
15.1495745331
 20
13.6928048387
 30
0.0
 10
15.1339791114
 20
13.6851457697
 30
0.0
 10
15.1186721776
 20
13.6760399756
 30
0.0
 10
15.1037149679
 20
13.6656368502
 30
0.0
 10
15.0924380643
 20
13.6570058568
 30
0.0
 10
15.0812511361
 20
13.6476503405
 30
0.0
 10
15.0701603561
 20
13.6375758904
 30
0.0
 10
15.0591727869
 20
13.6267890469
 30
0.0
 10
15.0482951272
 20
13.6152966668
 30
0.0
 10
15.0375341633
 20
13.6031060116
 30
0.0
 10
15.0268965532
 20
13.5902247999
 30
0.0
 10
15.0163889057
 20
13.5766611682
 30
0.0
 10
15.0060178037
 20
13.5624236484
 30
0.0
 10
14.9957896896
 20
13.5475212386
 30
0.0
 10
14.9857109873
 20
13.5319633165
 30
0.0
 10
14.9757880177
 20
13.5157596862
 30
0.0
 10
14.9660269855
 20
13.4989205735
 30
0.0
 10
14.9564340636
 20
13.4814565791
 30
0.0
 10
14.9470152601
 20
13.4633787308
 30
0.0
 10
14.9377765046
 20
13.4446984119
 30
0.0
 10
14.9287236804
 20
13.4254274547
 30
0.0
 10
14.9198623729
 20
13.405577937
 30
0.0
 10
14.9081984333
 20
13.3780935433
 30
0.0
 10
14.8999274213
 20
13.3570446398
 30
0.0
 10
14.8945924036
 20
13.3427937679
 30
0.0
  0
SPLINE
  5
2BE
100
AcDbEntity
  8
LAYER_FEATURE
100
AcDbSpline
 62
7
  6
CONTINUOUS
 70
0
 71
3
 72
67
 73
63
 74
0
 42
0.0000001
 43
0.0000001
 44
0.0000000001
 40
0.0
 40
0.0
 40
0.0
 40
0.0
 40
0.0163581013
 40
0.0330510694
 40
0.0500642491
 40
0.0673826926
 40
0.0849905208
 40
0.1028713409
 40
0.1210081566
 40
0.1393834611
 40
0.15797927
 40
0.1767771682
 40
0.1957583526
 40
0.2149036734
 40
0.2536076561
 40
0.292731491
 40
0.3321134768
 40
0.371590054
 40
0.4109969877
 40
0.45017054
 40
0.4889486503
 40
0.5081400228
 40
0.5271731428
 40
0.546028763
 40
0.5646879707
 40
0.5831322282
 40
0.601343416
 40
0.6193038759
 40
0.6369964566
 40
0.65440456
 40
0.6715121917
 40
0.6883040129
 40
0.7047653969
 40
0.720882489
 40
0.7366422729
 40
0.7520326412
 40
0.7670424724
 40
0.7816617173
 40
0.7958814943
 40
0.8096941963
 40
0.8230936114
 40
0.8360750592
 40
0.8486355463
 40
0.8607739405
 40
0.872491169
 40
0.8837904436
 40
0.8946775128
 40
0.905160943
 40
0.9152524249
 40
0.9249671014
 40
0.9343239024
 40
0.9433458667
 40
0.9520604213
 40
0.9604995757
 40
0.9686999787
 40
0.9767027777
 40
0.9806449746
 40
0.9845550535
 40
0.9884391969
 40
0.9923037475
 40
0.9961551669
 40
1.0
 40
1.0
 40
1.0
 40
1.0
 10
14.7957114596
 20
13.3499784501
 30
0.0
 10
14.7918557471
 20
13.3375013597
 30
0.0
 10
14.7843234908
 20
13.3122112914
 30
0.0
 10
14.7736611434
 20
13.2736892807
 30
0.0
 10
14.7635301691
 20
13.2342320382
 30
0.0
 10
14.753943047
 20
13.1938882245
 30
0.0
 10
14.7449115297
 20
13.1527070861
 30
0.0
 10
14.7364467015
 20
13.1107391359
 30
0.0
 10
14.7285589561
 20
13.0680357688
 30
0.0
 10
14.7212579775
 20
13.0246493193
 30
0.0
 10
14.7145527279
 20
12.9806329472
 30
0.0
 10
14.7084514501
 20
12.9360406281
 30
0.0
 10
14.7029615918
 20
12.8909269113
 30
0.0
 10
14.6964428698
 20
12.8299359428
 30
0.0
 10
14.6898815331
 20
12.7527859085
 30
0.0
 10
14.6845639815
 20
12.659352649
 30
0.0
 10
14.6818007372
 20
12.5651917324
 30
0.0
 10
14.6816053881
 20
12.4707647052
 30
0.0
 10
14.6839788964
 20
12.3765335547
 30
0.0
 10
14.6889095948
 20
12.2829601716
 30
0.0
 10
14.6951504024
 20
12.2056475416
 30
0.0
 10
14.7014150033
 20
12.1444918367
 30
0.0
 10
14.7067176178
 20
12.0992305811
 30
0.0
 10
14.7126337815
 20
12.0544739782
 30
0.0
 10
14.7191562728
 20
12.0102767795
 30
0.0
 10
14.7262770731
 20
11.9666931832
 30
0.0
 10
14.7339874427
 20
11.9237765945
 30
0.0
 10
14.7422779134
 20
11.8815796042
 30
0.0
 10
14.7511383075
 20
11.8401539126
 30
0.0
 10
14.7605577492
 20
11.7995502684
 30
0.0
 10
14.770524679
 20
11.7598184055
 30
0.0
 10
14.7810268682
 20
11.7210069809
 30
0.0
 10
14.7920514351
 20
11.6831635143
 30
0.0
 10
14.8035848628
 20
11.6463343282
 30
0.0
 10
14.8156130142
 20
11.6105644877
 30
0.0
 10
14.8281211531
 20
11.5758977443
 30
0.0
 10
14.8410939662
 20
11.5423764821
 30
0.0
 10
14.8545155852
 20
11.5100416648
 30
0.0
 10
14.8683696104
 20
11.478932784
 30
0.0
 10
14.8826391366
 20
11.4490878105
 30
0.0
 10
14.8973067806
 20
11.4205431466
 30
0.0
 10
14.9123547125
 20
11.3933335823
 30
0.0
 10
14.9277646834
 20
11.3674922516
 30
0.0
 10
14.9435180653
 20
11.3430505998
 30
0.0
 10
14.9595958883
 20
11.3200383549
 30
0.0
 10
14.9759788799
 20
11.2984835067
 30
0.0
 10
14.9926475059
 20
11.2784122954
 30
0.0
 10
15.0095820095
 20
11.2598492131
 30
0.0
 10
15.0267624442
 20
11.2428170199
 30
0.0
 10
15.0441686963
 20
11.2273367745
 30
0.0
 10
15.0617804718
 20
11.2134278812
 30
0.0
 10
15.0795773022
 20
11.2011081452
 30
0.0
 10
15.0975383342
 20
11.1903938471
 30
0.0
 10
15.1156426587
 20
11.181299686
 30
0.0
 10
15.1338675005
 20
11.1738390206
 30
0.0
 10
15.1492162081
 20
11.1689677553
 30
0.0
 10
15.1615040374
 20
11.1659167257
 30
0.0
 10
15.170689434
 20
11.1640524341
 30
0.0
 10
15.179886331
 20
11.1626018538
 30
0.0
 10
15.1890920573
 20
11.1615653321
 30
0.0
 10
15.1983034208
 20
11.1609432837
 30
0.0
 10
15.2044485109
 20
11.1608050035
 30
0.0
 10
15.2075179796
 20
11.1608050005
 30
0.0
  0
SPLINE
  5
2BF
100
AcDbEntity
  8
LAYER_FEATURE
100
AcDbSpline
 62
7
  6
CONTINUOUS
 70
0
 71
3
 72
39
 73
35
 74
0
 42
0.0000001
 43
0.0000001
 44
0.0000000001
 40
0.0
 40
0.0
 40
0.0
 40
0.0
 40
0.0468666628
 40
0.0926901666
 40
0.1374356636
 40
0.1810729176
 40
0.2235737675
 40
0.2649138093
 40
0.3050722013
 40
0.344032154
 40
0.3817812911
 40
0.4183120875
 40
0.4536223732
 40
0.4877158992
 40
0.5206029784
 40
0.5523012103
 40
0.582836272
 40
0.6122427784
 40
0.6405651992
 40
0.6678587912
 40
0.694190492
 40
0.7196396874
 40
0.7442987281
 40
0.76827305
 40
0.7916807489
 40
0.8146514596
 40
0.8373244543
 40
0.8598459754
 40
0.882365944
 40
0.9050343186
 40
0.9279974511
 40
0.951394788
 40
0.9753561879
 40
1.0
 40
1.0
 40
1.0
 40
1.0
 10
14.857347844
 20
13.2734762437
 30
0.0
 10
14.860736446
 20
13.2844417638
 30
0.0
 10
14.8676533216
 20
13.3060630488
 30
0.0
 10
14.8785776167
 20
13.3378999838
 30
0.0
 10
14.8899240178
 20
13.368747973
 30
0.0
 10
14.9016788104
 20
13.39856992
 30
0.0
 10
14.9138280598
 20
13.4273304051
 30
0.0
 10
14.9263572387
 20
13.4549950901
 30
0.0
 10
14.939251447
 20
13.4815310351
 30
0.0
 10
14.9524953514
 20
13.5069066508
 30
0.0
 10
14.9660732409
 20
13.5310917579
 30
0.0
 10
14.979969051
 20
13.5540576125
 30
0.0
 10
14.9941663931
 20
13.5757769355
 30
0.0
 10
15.0086485871
 20
13.5962239372
 30
0.0
 10
15.0233986977
 20
13.6153743341
 30
0.0
 10
15.038399561
 20
13.6332053652
 30
0.0
 10
15.0536338218
 20
13.6496957866
 30
0.0
 10
15.069083963
 20
13.6648258528
 30
0.0
 10
15.0847323202
 20
13.6785772873
 30
0.0
 10
15.100561078
 20
13.6909332421
 30
0.0
 10
15.1165522409
 20
13.7018782483
 30
0.0
 10
15.1326875575
 20
13.7113981839
 30
0.0
 10
15.1489484118
 20
13.7194802584
 30
0.0
 10
15.1653156792
 20
13.7261130439
 30
0.0
 10
15.1817695704
 20
13.7312865977
 30
0.0
 10
15.1982895159
 20
13.7349926805
 30
0.0
 10
15.2148541483
 20
13.7372250503
 30
0.0
 10
15.2314414332
 20
13.7379797863
 30
0.0
 10
15.2480289455
 20
13.7372555424
 30
0.0
 10
15.2645942805
 20
13.7350536126
 30
0.0
 10
15.2811153228
 20
13.7313779026
 30
0.0
 10
15.2975709571
 20
13.7262344588
 30
0.0
 10
15.3139395629
 20
13.7196320233
 30
0.0
 10
15.3246180109
 20
13.7143448206
 30
0.0
 10
15.3299283335
 20
13.7114774379
 30
0.0
  0
SPLINE
  5
2C0
100
AcDbEntity
  8
LAYER_FEATURE
100
AcDbSpline
 62
7
  6
CONTINUOUS
 70
0
 71
3
 72
75
 73
71
 74
0
 42
0.0000001
 43
0.0000001
 44
0.0000000001
 40
0.0
 40
0.0
 40
0.0
 40
0.0
 40
0.0170807082
 40
0.0345414619
 40
0.0523640638
 40
0.0705295839
 40
0.0890180499
 40
0.1078087364
 40
0.1268801522
 40
0.1462101407
 40
0.1657759362
 40
0.1855542308
 40
0.2055212351
 40
0.2256527385
 40
0.2459241675
 40
0.2663106428
 40
0.3073268688
 40
0.3484995678
 40
0.3896243661
 40
0.4101055805
 40
0.4304984681
 40
0.4507778866
 40
0.4709189397
 40
0.4908970326
 40
0.5106879302
 40
0.5302678146
 40
0.5496133455
 40
0.5687017216
 40
0.5875107443
 40
0.6060188839
 40
0.6242053488
 40
0.6420501591
 40
0.6595342241
 40
0.6766394256
 40
0.6933487085
 40
0.7096461786
 40
0.725517211
 40
0.7409485699
 40
0.7559285432
 40
0.7704470931
 40
0.7844960287
 40
0.7980692021
 40
0.8111627322
 40
0.8237752636
 40
0.8359082623
 40
0.8475663544
 40
0.8587577102
 40
0.8694944729
 40
0.8797932276
 40
0.8896754943
 40
0.8991682185
 40
0.9083042119
 40
0.917122476
 40
0.9256683184
 40
0.9298559867
 40
0.9339953227
 40
0.9380936048
 40
0.9421583966
 40
0.9461974973
 40
0.9502188944
 40
0.954230707
 40
0.9582411263
 40
0.962258354
 40
0.9662905412
 40
0.9703457249
 40
0.9744317769
 40
0.9785563423
 40
0.9827268053
 40
0.9912313465
 40
1.0
 40
1.0
 40
1.0
 40
1.0
 10
14.857347844
 20
13.2734762437
 30
0.0
 10
14.8535160715
 20
13.2610766232
 30
0.0
 10
14.8460479323
 20
13.2359139282
 30
0.0
 10
14.8355362462
 20
13.1975378574
 30
0.0
 10
14.8256033066
 20
13.1581572623
 30
0.0
 10
14.8162637234
 20
13.1178300001
 30
0.0
 10
14.8075311606
 20
13.0766148744
 30
0.0
 10
14.7994184122
 20
13.0345721744
 30
0.0
 10
14.7919373666
 20
12.9917633466
 30
0.0
 10
14.7850989855
 20
12.9482509885
 30
0.0
 10
14.7789132914
 20
12.9040987266
 30
0.0
 10
14.7733893512
 20
12.8593711347
 30
0.0
 10
14.7685352586
 20
12.8141336218
 30
0.0
 10
14.7643581405
 20
12.7684523916
 30
0.0
 10
14.760864077
 20
12.7223941333
 30
0.0
 10
14.7571156893
 20
12.6604482527
 30
0.0
 10
14.754175752
 20
12.5825524969
 30
0.0
 10
14.7534353724
 20
12.4888467201
 30
0.0
 10
14.7551413796
 20
12.4107597812
 30
0.0
 10
14.7579045499
 20
12.3485151693
 30
0.0
 10
14.7606668705
 20
12.3021301191
 30
0.0
 10
14.7641176586
 20
12.2560504587
 30
0.0
 10
14.7682518961
 20
12.210343461
 30
0.0
 10
14.773063512
 20
12.1650760216
 30
0.0
 10
14.7785454565
 20
12.1203143441
 30
0.0
 10
14.7846896939
 20
12.0761238997
 30
0.0
 10
14.791487219
 20
12.0325693154
 30
0.0
 10
14.7989280694
 20
11.9897142823
 30
0.0
 10
14.8070013407
 20
11.9476214605
 30
0.0
 10
14.8156952035
 20
11.9063523864
 30
0.0
 10
14.8249969212
 20
11.8659673817
 30
0.0
 10
14.8348928694
 20
11.826525463
 30
0.0
 10
14.8453685576
 20
11.7880842546
 30
0.0
 10
14.8564086515
 20
11.7506999016
 30
0.0
 10
14.8679969983
 20
11.714426986
 30
0.0
 10
14.8801166526
 20
11.6793184446
 30
0.0
 10
14.8927499056
 20
11.6454254889
 30
0.0
 10
14.9058783158
 20
11.6127975279
 30
0.0
 10
14.9194827428
 20
11.581482093
 30
0.0
 10
14.9335433835
 20
11.5515247671
 30
0.0
 10
14.948039812
 20
11.5229691158
 30
0.0
 10
14.9629510238
 20
11.4958566248
 30
0.0
 10
14.9782554838
 20
11.4702266431
 30
0.0
 10
14.9939311796
 20
11.4461163339
 30
0.0
 10
15.0099556786
 20
11.4235606363
 30
0.0
 10
15.0263061894
 20
11.4025922403
 30
0.0
 10
15.0429596224
 20
11.3832415819
 30
0.0
 10
15.0598926501
 20
11.3655368599
 30
0.0
 10
15.0770817371
 20
11.3495040855
 30
0.0
 10
15.0945031953
 20
11.3351671469
 30
0.0
 10
15.1121329934
 20
11.3225479465
 30
0.0
 10
15.1299471749
 20
11.3116663641
 30
0.0
 10
15.147919772
 20
11.3025407974
 30
0.0
 10
15.163112682
 20
11.2963708202
 30
0.0
 10
15.1752915601
 20
11.29235476
 30
0.0
 10
15.1843863716
 20
11.2898090072
 30
0.0
 10
15.1934989145
 20
11.2877108486
 30
0.0
 10
15.2026259373
 20
11.2860610126
 30
0.0
 10
15.2117639598
 20
11.2848602269
 30
0.0
 10
15.2209095336
 20
11.2841089931
 30
0.0
 10
15.2300591805
 20
11.2838076005
 30
0.0
 10
15.2392094185
 20
11.283956227
 30
0.0
 10
15.248356767
 20
11.2845547396
 30
0.0
 10
15.257497738
 20
11.2856029708
 30
0.0
 10
15.2666288896
 20
11.2871003893
 30
0.0
 10
15.2757467175
 20
11.2890464514
 30
0.0
 10
15.2848479689
 20
11.2914403383
 30
0.0
 10
15.2970341096
 20
11.2952522517
 30
0.0
 10
15.3122395757
 20
11.3011668056
 30
0.0
 10
15.3240383197
 20
11.3069530504
 30
0.0
 10
15.329901199
 20
11.310117899
 30
0.0
  0
SPLINE
  5
2C1
100
AcDbEntity
  8
LAYER_FEATURE
100
AcDbSpline
 62
7
  6
CONTINUOUS
 70
0
 71
3
 72
15
 73
11
 74
0
 42
0.0000001
 43
0.0000001
 44
0.0000000001
 40
0.0
 40
0.0
 40
0.0
 40
0.0
 40
0.1248184577
 40
0.2544904284
 40
0.3866400056
 40
0.5188009647
 40
0.6485096115
 40
0.7733822365
 40
0.8911974503
 40
1.0
 40
1.0
 40
1.0
 40
1.0
 10
14.8309472685
 20
13.129354458
 30
0.0
 10
14.8307758179
 20
13.1284345744
 30
0.0
 10
14.8304918306
 20
13.1265463667
 30
0.0
 10
14.8302385349
 20
13.1236573172
 30
0.0
 10
14.8301529174
 20
13.1207033223
 30
0.0
 10
14.8302369498
 20
13.1177490427
 30
0.0
 10
14.8304887067
 20
13.1148589868
 30
0.0
 10
14.8309025767
 20
13.1120960785
 30
0.0
 10
14.8314691872
 20
13.1095205909
 30
0.0
 10
14.8319624853
 20
13.1078922878
 30
0.0
 10
14.8322367959
 20
13.1071241389
 30
0.0
  0
SPLINE
  5
2C2
100
AcDbEntity
  8
LAYER_FEATURE
100
AcDbSpline
 62
7
  6
CONTINUOUS
 70
0
 71
3
 72
15
 73
11
 74
0
 42
0.0000001
 43
0.0000001
 44
0.0000000001
 40
0.0
 40
0.0
 40
0.0
 40
0.0
 40
0.1350279182
 40
0.268985802
 40
0.4009348879
 40
0.5299556503
 40
0.6551681979
 40
0.775743117
 40
0.8909140215
 40
1.0
 40
1.0
 40
1.0
 40
1.0
 10
14.8559092857
 20
13.0058262699
 30
0.0
 10
14.8558975667
 20
13.0086406076
 30
0.0
 10
14.8557747249
 20
13.0142470878
 30
0.0
 10
14.8552925198
 20
13.0225915142
 30
0.0
 10
14.8545167602
 20
13.030788219
 30
0.0
 10
14.8534539478
 20
13.038768925
 30
0.0
 10
14.8521130408
 20
13.0464672857
 30
0.0
 10
14.8505052767
 20
13.0538194826
 30
0.0
 10
14.8486442566
 20
13.0607643593
 30
0.0
 10
14.8472032409
 20
13.0652137636
 30
0.0
 10
14.8464385966
 20
13.0673549886
 30
0.0
  0
SPLINE
  5
2C3
100
AcDbEntity
  8
LAYER_FEATURE
100
AcDbSpline
 62
7
  6
CONTINUOUS
 70
0
 71
3
 72
17
 73
13
 74
0
 42
0.0000001
 43
0.0000001
 44
0.0000000001
 40
0.0
 40
0.0
 40
0.0
 40
0.0
 40
0.1376614448
 40
0.2766006948
 40
0.4142304505
 40
0.5479954941
 40
0.6754725729
 40
0.7944587645
 40
0.8501797407
 40
0.9031081556
 40
0.9530926541
 40
1.0
 40
1.0
 40
1.0
 40
1.0
 10
14.7873931629
 20
12.8848984951
 30
0.0
 10
14.7873070118
 20
12.8839183759
 30
0.0
 10
14.7871936498
 20
12.8819433441
 30
0.0
 10
14.7871946366
 20
12.8789812032
 30
0.0
 10
14.7873647497
 20
12.8760516979
 30
0.0
 10
14.7877001894
 20
12.8732188111
 30
0.0
 10
14.7881934291
 20
12.8705443693
 30
0.0
 10
14.7887380397
 20
12.8684517856
 30
0.0
 10
14.7892496143
 20
12.866906825
 30
0.0
 10
14.7896565396
 20
12.8658480509
 30
0.0
 10
14.7900928157
 20
12.8648696038
 30
0.0
 10
14.7904119927
 20
12.8642544059
 30
0.0
 10
14.7905766993
 20
12.8639623966
 30
0.0
  0
SPLINE
  5
2C4
100
AcDbEntity
  8
LAYER_FEATURE
100
AcDbSpline
 62
7
  6
CONTINUOUS
 70
0
 71
3
 72
15
 73
11
 74
0
 42
0.0000001
 43
0.0000001
 44
0.0000000001
 40
0.0
 40
0.0
 40
0.0
 40
0.0
 40
0.1437699085
 40
0.2838716978
 40
0.4193648887
 40
0.5493652296
 40
0.6730699441
 40
0.7897744989
 40
0.8988942904
 40
1.0
 40
1.0
 40
1.0
 40
1.0
 10
14.8224335089
 20
12.7787311807
 30
0.0
 10
14.8221804538
 20
12.7814442134
 30
0.0
 10
14.8215820202
 20
12.7867924591
 30
0.0
 10
14.820391613
 20
12.7946528956
 30
0.0
 10
14.8189279569
 20
12.8022017357
 30
0.0
 10
14.8172033136
 20
12.8093763055
 30
0.0
 10
14.815232157
 20
12.8161172524
 30
0.0
 10
14.8130308177
 20
12.8223692353
 30
0.0
 10
14.8106177653
 20
12.8280805986
 30
0.0
 10
14.8088099803
 20
12.8316364961
 30
0.0
 10
14.8078685766
 20
12.8333055169
 30
0.0
  0
SPLINE
  5
2C5
100
AcDbEntity
  8
LAYER_FEATURE
100
AcDbSpline
 62
7
  6
CONTINUOUS
 70
0
 71
3
 72
21
 73
17
 74
0
 42
0.0000001
 43
0.0000001
 44
0.0000000001
 40
0.0
 40
0.0
 40
0.0
 40
0.0
 40
0.0436175359
 40
0.0890836873
 40
0.1366738962
 40
0.1866215601
 40
0.2391076984
 40
0.2942681248
 40
0.3521994996
 40
0.4129636983
 40
0.4765925234
 40
0.5430906501
 40
0.612440365
 40
0.6846038047
 40
0.8371072069
 40
1.0
 40
1.0
 40
1.0
 40
1.0
 10
14.7950073492
 20
12.6869865744
 30
0.0
 10
14.7955592675
 20
12.6872156748
 30
0.0
 10
14.7966626059
 20
12.6877429833
 30
0.0
 10
14.7982697444
 20
12.6887086071
 30
0.0
 10
14.7998568279
 20
12.6898613025
 30
0.0
 10
14.8014205407
 20
12.6911982331
 30
0.0
 10
14.8029580301
 20
12.6927164947
 30
0.0
 10
14.8044662714
 20
12.6944128977
 30
0.0
 10
14.8059423375
 20
12.6962838886
 30
0.0
 10
14.8073833133
 20
12.6983255999
 30
0.0
 10
14.8087862824
 20
12.7005338427
 30
0.0
 10
14.8101484215
 20
12.7029040494
 30
0.0
 10
14.8114669704
 20
12.7054313505
 30
0.0
 10
14.8131950722
 20
12.7090708786
 30
0.0
 10
14.8152173048
 20
12.7139848049
 30
0.0
 10
14.8166198283
 20
12.7180745952
 30
0.0
 10
14.8172890179
 20
12.7202036037
 30
0.0
  0
SPLINE
  5
2C6
100
AcDbEntity
  8
LAYER_FEATURE
100
AcDbSpline
 62
7
  6
CONTINUOUS
 70
0
 71
3
 72
20
 73
16
 74
0
 42
0.0000001
 43
0.0000001
 44
0.0000000001
 40
0.0
 40
0.0
 40
0.0
 40
0.0
 40
0.037065995
 40
0.0768983406
 40
0.1200037919
 40
0.1667343616
 40
0.217289203
 40
0.2717506305
 40
0.330108565
 40
0.3922759552
 40
0.4581039669
 40
0.5273935535
 40
0.6753253824
 40
0.8337711801
 40
1.0
 40
1.0
 40
1.0
 40
1.0
 10
14.7742639192
 20
12.6783760085
 30
0.0
 10
14.7740669374
 20
12.6782942416
 30
0.0
 10
14.7736724549
 20
12.6780890479
 30
0.0
 10
14.7731114
 20
12.6776831968
 30
0.0
 10
14.7725650006
 20
12.6771726436
 30
0.0
 10
14.7720358735
 20
12.6765605599
 30
0.0
 10
14.7715263652
 20
12.6758502204
 30
0.0
 10
14.7710390006
 20
12.6750454145
 30
0.0
 10
14.7705762801
 20
12.6741504137
 30
0.0
 10
14.7701406546
 20
12.6731700128
 30
0.0
 10
14.7697344347
 20
12.6721094968
 30
0.0
 10
14.7692239099
 20
12.6705623909
 30
0.0
 10
14.7686807176
 20
12.6684675549
 30
0.0
 10
14.7681892244
 20
12.6657910471
 30
0.0
 10
14.7679707187
 20
12.6639342418
 30
0.0
 10
14.7678869681
 20
12.6629814324
 30
0.0
  0
SPLINE
  5
2C7
100
AcDbEntity
  8
LAYER_FEATURE
100
AcDbSpline
 62
7
  6
CONTINUOUS
 70
0
 71
3
 72
18
 73
14
 74
0
 42
0.0000001
 43
0.0000001
 44
0.0000000001
 40
0.0
 40
0.0
 40
0.0
 40
0.0
 40
0.1516205609
 40
0.3003637113
 40
0.4435053656
 40
0.5785006181
 40
0.7031073872
 40
0.7609450474
 40
0.8155523439
 40
0.8667998436
 40
0.9146124128
 40
0.95899097
 40
1.0
 40
1.0
 40
1.0
 40
1.0
 10
14.7661140714
 20
12.6216839218
 30
0.0
 10
14.7661149981
 20
12.620693333
 30
0.0
 10
14.7661731745
 20
12.6187305156
 30
0.0
 10
14.7664284001
 20
12.615842559
 30
0.0
 10
14.7668455306
 20
12.6130829493
 30
0.0
 10
14.7674152836
 20
12.6105119253
 30
0.0
 10
14.7680207906
 20
12.6085253299
 30
0.0
 10
14.7685780153
 20
12.6070796752
 30
0.0
 10
14.7690149068
 20
12.6061029062
 30
0.0
 10
14.7694787439
 20
12.6052117747
 30
0.0
 10
14.769967151
 20
12.6044109813
 30
0.0
 10
14.7704775246
 20
12.6037049525
 30
0.0
 10
14.7708449039
 20
12.6032836656
 30
0.0
 10
14.771031981
 20
12.6030918674
 30
0.0
  0
SPLINE
  5
2C8
100
AcDbEntity
  8
LAYER_FEATURE
100
AcDbSpline
 62
7
  6
CONTINUOUS
 70
0
 71
3
 72
19
 73
15
 74
0
 42
0.0000001
 43
0.0000001
 44
0.0000000001
 40
0.0
 40
0.0
 40
0.0
 40
0.0
 40
0.1534738722
 40
0.3001788594
 40
0.4392419299
 40
0.5699080766
 40
0.6319074329
 40
0.6915985121
 40
0.7489372965
 40
0.8038950608
 40
0.8564598635
 40
0.9066402295
 40
0.9544705146
 40
1.0
 40
1.0
 40
1.0
 40
1.0
 10
14.8094756769
 20
12.5382011537
 30
0.0
 10
14.8089983663
 20
12.5406782405
 30
0.0
 10
14.8079634831
 20
12.5455044588
 30
0.0
 10
14.8061249322
 20
12.5524891151
 30
0.0
 10
14.8040470962
 20
12.5590143717
 30
0.0
 10
14.8020977785
 20
12.5641107363
 30
0.0
 10
14.8004243897
 20
12.567906993
 30
0.0
 10
14.7991428659
 20
12.5705567463
 30
0.0
 10
14.7978155658
 20
12.5730535804
 30
0.0
 10
14.7964451664
 20
12.5753923346
 30
0.0
 10
14.7950345205
 20
12.5775681937
 30
0.0
 10
14.7935863954
 20
12.5795767328
 30
0.0
 10
14.79210381
 20
12.5814136332
 30
0.0
 10
14.7910693904
 20
12.5825487927
 30
0.0
 10
14.7905468479
 20
12.5830845222
 30
0.0
  0
SPLINE
  5
2C9
100
AcDbEntity
  8
LAYER_FEATURE
100
AcDbSpline
 62
7
  6
CONTINUOUS
 70
0
 71
3
 72
18
 73
14
 74
0
 42
0.0000001
 43
0.0000001
 44
0.0000000001
 40
0.0
 40
0.0
 40
0.0
 40
0.0
 40
0.0456059902
 40
0.093511988
 40
0.1437641712
 40
0.1963942724
 40
0.2514085908
 40
0.3087932993
 40
0.430518869
 40
0.5611805653
 40
0.7001737301
 40
0.8467388014
 40
1.0
 40
1.0
 40
1.0
 40
1.0
 10
14.790687161
 20
12.4330849549
 30
0.0
 10
14.791208684
 20
12.433627113
 30
0.0
 10
14.7922409035
 20
12.4347749447
 30
0.0
 10
14.7937199986
 20
12.4366300544
 30
0.0
 10
14.7951643273
 20
12.4386563837
 30
0.0
 10
14.7965708675
 20
12.4408495762
 30
0.0
 10
14.7979368945
 20
12.44320518
 30
0.0
 10
14.7997357963
 20
12.4466235665
 30
0.0
 10
14.8018530224
 20
12.4512791839
 30
0.0
 10
14.8041416931
 20
12.4573197199
 30
0.0
 10
14.8062073932
 20
12.4638707124
 30
0.0
 10
14.8080329207
 20
12.470877874
 30
0.0
 10
14.8090590323
 20
12.4757178597
 30
0.0
 10
14.8095318022
 20
12.4782013268
 30
0.0
  0
SPLINE
  5
2CA
100
AcDbEntity
  8
LAYER_FEATURE
100
AcDbSpline
 62
7
  6
CONTINUOUS
 70
0
 71
3
 72
18
 73
14
 74
0
 42
0.0000001
 43
0.0000001
 44
0.0000000001
 40
0.0
 40
0.0
 40
0.0
 40
0.0
 40
0.0411249129
 40
0.0856193225
 40
0.1335415202
 40
0.1848876672
 40
0.2395789208
 40
0.297482968
 40
0.4221617157
 40
0.5571379883
 40
0.7001634798
 40
0.8486915371
 40
1.0
 40
1.0
 40
1.0
 40
1.0
 10
14.7712099497
 20
12.4128370894
 30
0.0
 10
14.771023242
 20
12.4126429942
 30
0.0
 10
14.7706567059
 20
12.4122172447
 30
0.0
 10
14.7701476798
 20
12.4115049753
 30
0.0
 10
14.7696607845
 20
12.4106982019
 30
0.0
 10
14.769198619
 20
12.4098013834
 30
0.0
 10
14.7687635549
 20
12.4088192529
 30
0.0
 10
14.7682091398
 20
12.4073670428
 30
0.0
 10
14.7676074031
 20
12.405373386
 30
0.0
 10
14.7670424028
 20
12.4027953749
 30
0.0
 10
14.7666303813
 20
12.4000306535
 30
0.0
 10
14.7663805075
 20
12.3971395799
 30
0.0
 10
14.7663259527
 20
12.3951754673
 30
0.0
 10
14.7663268796
 20
12.3941845782
 30
0.0
  0
SPLINE
  5
2CB
100
AcDbEntity
  8
LAYER_FEATURE
100
AcDbSpline
 62
7
  6
CONTINUOUS
 70
0
 71
3
 72
49
 73
45
 74
0
 42
0.0000001
 43
0.0000001
 44
0.0000000001
 40
0.0
 40
0.0
 40
0.0
 40
0.0
 40
0.0436906198
 40
0.0871361657
 40
0.1302595021
 40
0.1729839975
 40
0.2152345446
 40
0.2569374854
 40
0.2980209795
 40
0.3384152562
 40
0.3780529104
 40
0.4168692066
 40
0.4548024036
 40
0.4917941021
 40
0.5277896251
 40
0.5627384358
 40
0.5965946048
 40
0.6293173372
 40
0.660871579
 40
0.691228714
 40
0.720367378
 40
0.7344761615
 40
0.7482761444
 40
0.7617671705
 40
0.7749497253
 40
0.7878250223
 40
0.8003950352
 40
0.8126625477
 40
0.8246312396
 40
0.8363057037
 40
0.8476915664
 40
0.8587955009
 40
0.8696253426
 40
0.8904960503
 40
0.9103952399
 40
0.929433203
 40
0.9386730453
 40
0.9477496822
 40
0.9566833924
 40
0.9654957525
 40
0.9742094966
 40
0.9828483574
 40
0.9914368413
 40
1.0
 40
1.0
 40
1.0
 40
1.0
 10
14.7663268796
 20
12.3941845782
 30
0.0
 10
14.7670223957
 20
12.3758859117
 30
0.0
 10
14.7687385323
 20
12.3394028414
 30
0.0
 10
14.7722978833
 20
12.2849209101
 30
0.0
 10
14.7768291253
 20
12.2309172757
 30
0.0
 10
14.7823226531
 20
12.1775064638
 30
0.0
 10
14.7887667812
 20
12.1248015761
 30
0.0
 10
14.7961478301
 20
12.0729142045
 30
0.0
 10
14.8044501221
 20
12.0219541988
 30
0.0
 10
14.8136560292
 20
11.9720294241
 30
0.0
 10
14.8237460072
 20
11.9232455291
 30
0.0
 10
14.8346986386
 20
11.875705717
 30
0.0
 10
14.8464906841
 20
11.829510522
 30
0.0
 10
14.8590971357
 20
11.7847575917
 30
0.0
 10
14.8724912769
 20
11.7415414714
 30
0.0
 10
14.8866447461
 20
11.699953402
 30
0.0
 10
14.9015276162
 20
11.6600810987
 30
0.0
 10
14.9171084503
 20
11.6220086242
 30
0.0
 10
14.9333544824
 20
11.5858159582
 30
0.0
 10
14.9502313898
 20
11.5515796785
 30
0.0
 10
14.9649460892
 20
11.5244547464
 30
0.0
 10
14.9770193722
 20
11.5038148391
 30
0.0
 10
14.9861121662
 20
11.4890345399
 30
0.0
 10
14.995335073
 20
11.4747954007
 30
0.0
 10
15.0046833402
 20
11.4611049104
 30
0.0
 10
15.0141520262
 20
11.4479703035
 30
0.0
 10
15.0237361649
 20
11.435398511
 30
0.0
 10
15.0334307623
 20
11.4233961904
 30
0.0
 10
15.0432307047
 20
11.4119696642
 30
0.0
 10
15.053130949
 20
11.4011249951
 30
0.0
 10
15.06312621
 20
11.3908679634
 30
0.0
 10
15.0732116081
 20
11.3812037881
 30
0.0
 10
15.086605763
 20
11.3692637778
 30
0.0
 10
15.1035493063
 20
11.3557841633
 30
0.0
 10
15.1244228378
 20
11.3418496754
 30
0.0
 10
15.1422021566
 20
11.3322055847
 30
0.0
 10
15.1564930548
 20
11.325796944
 30
0.0
 10
15.1671470429
 20
11.3216663184
 30
0.0
 10
15.1778364081
 20
11.3181669601
 30
0.0
 10
15.1885556195
 20
11.3153008129
 30
0.0
 10
15.1992987529
 20
11.3130697404
 30
0.0
 10
15.210060029
 20
11.3114750564
 30
0.0
 10
15.2208329857
 20
11.3105178736
 30
0.0
 10
15.2280234905
 20
11.3103049906
 30
0.0
 10
15.2316125339
 20
11.3103049953
 30
0.0
  0
SPLINE
  5
2CC
100
AcDbEntity
  8
LAYER_FEATURE
100
AcDbSpline
 62
7
  6
CONTINUOUS
 70
0
 71
3
 72
15
 73
11
 74
0
 42
0.0000001
 43
0.0000001
 44
0.0000000001
 40
0.0
 40
0.0
 40
0.0
 40
0.0
 40
0.1126201288
 40
0.2332971211
 40
0.3599529399
 40
0.4902911489
 40
0.6218951856
 40
0.7523075706
 40
0.8791067212
 40
1.0
 40
1.0
 40
1.0
 40
1.0
 10
14.8945924036
 20
13.3427937679
 30
0.0
 10
14.8943415025
 20
13.3419818516
 30
0.0
 10
14.8938962445
 20
13.3402764268
 30
0.0
 10
14.8934016284
 20
13.337603799
 30
0.0
 10
14.8930646593
 20
13.3347721077
 30
0.0
 10
14.8928929783
 20
13.3318432207
 30
0.0
 10
14.8928904062
 20
13.3288810017
 30
0.0
 10
14.8930570356
 20
13.3259501332
 30
0.0
 10
14.8933890675
 20
13.3231147568
 30
0.0
 10
14.8937257283
 20
13.3212745325
 30
0.0
 10
14.8939232597
 20
13.3203839492
 30
0.0
  0
SPLINE
  5
2CD
100
AcDbEntity
  8
LAYER_FEATURE
100
AcDbSpline
 62
7
  6
CONTINUOUS
 70
0
 71
3
 72
15
 73
11
 74
0
 42
0.0000001
 43
0.0000001
 44
0.0000000001
 40
0.0
 40
0.0
 40
0.0
 40
0.0
 40
0.127054225
 40
0.2553208736
 40
0.3838964072
 40
0.5118681719
 40
0.6383329915
 40
0.7624062911
 40
0.8832317214
 40
1.0
 40
1.0
 40
1.0
 40
1.0
 10
14.9082243923
 20
13.2080989253
 30
0.0
 10
14.9084588834
 20
13.2108735788
 30
0.0
 10
14.9088263971
 20
13.2164586305
 30
0.0
 10
14.9090767628
 20
13.224870142
 30
0.0
 10
14.9090280915
 20
13.2333054551
 30
0.0
 10
14.9086807583
 20
13.2416942279
 30
0.0
 10
14.9080377001
 20
13.2499666194
 30
0.0
 10
14.9071043162
 20
13.2580538158
 30
0.0
 10
14.9058885221
 20
13.2658883998
 30
0.0
 10
14.9048769911
 20
13.2709983209
 30
0.0
 10
14.9043228463
 20
13.2734967197
 30
0.0
  0
SPLINE
  5
2CE
100
AcDbEntity
  8
LAYER_FEATURE
100
AcDbSpline
 62
7
  6
CONTINUOUS
 70
0
 71
3
 72
39
 73
35
 74
0
 42
0.0000001
 43
0.0000001
 44
0.0000000001
 40
0.0
 40
0.0
 40
0.0
 40
0.0
 40
0.0443812481
 40
0.0879669295
 40
0.1307335086
 40
0.172661876
 40
0.2137331571
 40
0.2539301992
 40
0.2932376968
 40
0.3316421073
 40
0.369131911
 40
0.4056977099
 40
0.4413323968
 40
0.4760313903
 40
0.5097927974
 40
0.5426176342
 40
0.5745101269
 40
0.6054779669
 40
0.6355325892
 40
0.664689538
 40
0.6929688298
 40
0.7203952869
 40
0.7469989387
 40
0.7728154376
 40
0.7978863828
 40
0.8222596394
 40
0.8459896168
 40
0.869137373
 40
0.8917705712
 40
0.9139632708
 40
0.935795451
 40
0.9573522592
 40
0.9787230199
 40
1.0
 40
1.0
 40
1.0
 40
1.0
 10
14.7957114596
 20
13.3499784501
 30
0.0
 10
14.7987483057
 20
13.3598056874
 30
0.0
 10
14.804924925
 20
13.379235827
 30
0.0
 10
14.8145901224
 20
13.4079531063
 30
0.0
 10
14.8245658959
 20
13.4359614167
 30
0.0
 10
14.834844212
 20
13.4632383314
 30
0.0
 10
14.8454170375
 20
13.489762524
 30
0.0
 10
14.8562760021
 20
13.5155130204
 30
0.0
 10
14.8674125404
 20
13.5404695038
 30
0.0
 10
14.8788178872
 20
13.5646123027
 30
0.0
 10
14.8904830408
 20
13.587922395
 30
0.0
 10
14.902398826
 20
13.6103814146
 30
0.0
 10
14.9145558949
 20
13.6319716652
 30
0.0
 10
14.9269446892
 20
13.6526761611
 30
0.0
 10
14.9395554995
 20
13.6724786128
 30
0.0
 10
14.9523784831
 20
13.691363428
 30
0.0
 10
14.965403626
 20
13.7093157569
 30
0.0
 10
14.9786207812
 20
13.7263214848
 30
0.0
 10
14.992019706
 20
13.7423672107
 30
0.0
 10
15.0055900384
 20
13.7574402801
 30
0.0
 10
15.0193212972
 20
13.7715287985
 30
0.0
 10
15.0332029332
 20
13.7846215846
 30
0.0
 10
15.0472243194
 20
13.7967081737
 30
0.0
 10
15.0613747101
 20
13.8077788605
 30
0.0
 10
15.0756432844
 20
13.8178246338
 30
0.0
 10
15.0900191311
 20
13.8268371537
 30
0.0
 10
15.1044911795
 20
13.8348088197
 30
0.0
 10
15.1190482039
 20
13.8417327361
 30
0.0
 10
15.1336787883
 20
13.8476026898
 30
0.0
 10
15.148371294
 20
13.8524132498
 30
0.0
 10
15.1631137162
 20
13.8561598372
 30
0.0
 10
15.1778941485
 20
13.8588387286
 30
0.0
 10
15.1926991375
 20
13.8604471589
 30
0.0
 10
15.202586841
 20
13.8608049902
 30
0.0
 10
15.2075179796
 20
13.8608049853
 30
0.0
  0
SPLINE
  5
2CF
100
AcDbEntity
  8
02___PRT_ALL_AXES
100
AcDbSpline
 62
7
  6
CONTINUOUS
 70
0
 71
3
 72
15
 73
11
 74
0
 42
0.0000001
 43
0.0000001
 44
0.0000000001
 40
0.0
 40
0.0
 40
0.0
 40
0.0
 40
0.1336139935
 40
0.2636882879
 40
0.3907018447
 40
0.5151946309
 40
0.6377451191
 40
0.7589671508
 40
0.8795009225
 40
1.0
 40
1.0
 40
1.0
 40
1.0
 10
15.7920674074
 20
11.8399048432
 30
0.0
 10
15.7893875511
 20
11.8383645508
 30
0.0
 10
15.7840021605
 20
11.8354887632
 30
0.0
 10
15.7757560157
 20
11.8317717263
 30
0.0
 10
15.7674656293
 20
11.8287175441
 30
0.0
 10
15.759139748
 20
11.8263300999
 30
0.0
 10
15.7507867269
 20
11.8246122877
 30
0.0
 10
15.7424151364
 20
11.823566398
 30
0.0
 10
15.7340345869
 20
11.8231938172
 30
0.0
 10
15.7284551686
 20
11.8233944051
 30
0.0
 10
15.7256755948
 20
11.8236055255
 30
0.0
  0
SPLINE
  5
2D0
100
AcDbEntity
  8
02___PRT_ALL_AXES
100
AcDbSpline
 62
7
  6
CONTINUOUS
 70
0
 71
3
 72
24
 73
20
 74
0
 42
0.0000001
 43
0.0000001
 44
0.0000000001
 40
0.0
 40
0.0
 40
0.0
 40
0.0
 40
0.0836660473
 40
0.1647132339
 40
0.2430320452
 40
0.3185262446
 40
0.391116286
 40
0.4607407349
 40
0.5273589255
 40
0.5909538648
 40
0.6515357247
 40
0.7091459617
 40
0.7638621331
 40
0.815803379
 40
0.8651363847
 40
0.9120813691
 40
0.9569172183
 40
0.9786557981
 40
1.0
 40
1.0
 40
1.0
 40
1.0
 10
15.4787497009
 20
13.1333473761
 30
0.0
 10
15.4825563196
 20
13.1456655988
 30
0.0
 10
15.4903813356
 20
13.1698159601
 30
0.0
 10
15.5029693346
 20
13.205094282
 30
0.0
 10
15.5161987384
 20
13.2387887128
 30
0.0
 10
15.5300394127
 20
13.2708224593
 30
0.0
 10
15.544459977
 20
13.3011229655
 30
0.0
 10
15.5594278794
 20
13.3296216629
 30
0.0
 10
15.5749095117
 20
13.3562542005
 30
0.0
 10
15.5908703641
 20
13.380960554
 30
0.0
 10
15.6072752021
 20
13.4036851188
 30
0.0
 10
15.6240882372
 20
13.4243767229
 30
0.0
 10
15.641273387
 20
13.4429885927
 30
0.0
 10
15.6587941728
 20
13.4594780815
 30
0.0
 10
15.6766146287
 20
13.4738066795
 30
0.0
 10
15.6946960915
 20
13.4859384729
 30
0.0
 10
15.7101108979
 20
13.4942769599
 30
0.0
 10
15.7225015041
 20
13.499769702
 30
0.0
 10
15.7287108879
 20
13.5021308727
 30
0.0
 10
15.7318169308
 20
13.5032130104
 30
0.0
  0
SPLINE
  5
2D1
100
AcDbEntity
  8
02___PRT_ALL_AXES
100
AcDbSpline
 62
7
  6
CONTINUOUS
 70
0
 71
3
 72
25
 73
21
 74
0
 42
0.0000001
 43
0.0000001
 44
0.0000000001
 40
0.0
 40
0.0
 40
0.0
 40
0.0
 40
0.0894531595
 40
0.1761707946
 40
0.2598089763
 40
0.3400533476
 40
0.416623282
 40
0.4892787522
 40
0.5578276997
 40
0.6221356541
 40
0.6821379005
 40
0.7378552855
 40
0.7894145675
 40
0.8370737775
 40
0.881251209
 40
0.9225523612
 40
0.9423863812
 40
0.9618192779
 40
0.9809788771
 40
1.0
 40
1.0
 40
1.0
 40
1.0
 10
15.7213700013
 20
13.1975883739
 30
0.0
 10
15.7209635727
 20
13.1999726456
 30
0.0
 10
15.7200876282
 20
13.2046558412
 30
0.0
 10
15.7185586418
 20
13.2115136826
 30
0.0
 10
15.7168411254
 20
13.2180699251
 30
0.0
 10
15.7149440989
 20
13.2242903867
 30
0.0
 10
15.7128774628
 20
13.2301428399
 30
0.0
 10
15.7106519612
 20
13.2355970315
 30
0.0
 10
15.7082790665
 20
13.2406249069
 30
0.0
 10
15.7057708522
 20
13.2452007572
 30
0.0
 10
15.7031398273
 20
13.2493013449
 30
0.0
 10
15.70039867
 20
13.2529059607
 30
0.0
 10
15.6975600795
 20
13.2559963073
 30
0.0
 10
15.6946361174
 20
13.258556211
 30
0.0
 10
15.6916396646
 20
13.2605706607
 30
0.0
 10
15.6890563526
 20
13.2617993922
 30
0.0
 10
15.686984245
 20
13.2624792545
 30
0.0
 10
15.68544387
 20
13.2628394375
 30
0.0
 10
15.6838991101
 20
13.2630558002
 30
0.0
 10
15.6828661293
 20
13.2631039708
 30
0.0
 10
15.6823518299
 20
13.2631039749
 30
0.0
  0
ENDSEC
  0
SECTION
  2
OBJECTS
  0
DICTIONARY
  5
C
100
AcDbDictionary
280
0
281
1
  3
ACAD_GROUP
350
D
  3
ACAD_MLINESTYLE
350
17
  3
ACAD_LAYOUT
350
1A
  3
ACAD_PLOTSETTINGS
350
19
  3
ACAD_PLOTSTYLENAME
350
E
  0
DICTIONARY
  5
D
102
{ACAD_REACTORS
330
C
102
}
100
AcDbDictionary
280
0
281
1
  0
ACDBDICTIONARYWDFLT
  5
E
102
{ACAD_REACTORS
330
C
102
}
100
AcDbDictionary
281
1
  3
Normal
350
F
100
AcDbDictionaryWithDefault
340
F
  0
DICTIONARY
  5
17
102
{ACAD_REACTORS
330
C
102
}
100
AcDbDictionary
280
0
281
1
  3
Standard
350
18
  0
DICTIONARY
  5
19
102
{ACAD_REACTORS
330
C
102
}
100
AcDbDictionary
281
1
  0
DICTIONARY
  5
1A
102
{ACAD_REACTORS
330
C
102
}
100
AcDbDictionary
281
1
  3
Model
350
2D2
  3
Layout1
350
2D3
  0
ACDBPLACEHOLDER
  5
F
102
{ACAD_REACTORS
330
E
102
}
  0
MLINESTYLE
  5
18
102
{ACAD_REACTORS
330
17
102
}
100
AcDbMlineStyle
  2
STANDARD
 70
0
  3

 62
256
 51
90.0
 52
90.0
 71
2
 49
0.5
 62
256
  6
BYLAYER
 49
-0.5
 62
256
  6
BYLAYER
  0
LAYOUT
  5
2D2
102
{ACAD_REACTORS
330
1A
102
}
100
AcDbPlotSettings
  1

  2
none_device
  4
ANSI_C_(22.00_x_17.00_Inches)
  6

 40
0.0
 41
0.0
 42
0.0
 43
0.0
 44
558.8
 45
431.8
 46
0.0
 47
0.0
 48
0.0
 49
0.0
140
0.0
141
0.0
142
1.0
143
1.0
 70
1024
 72
0
 73
0
 74
0
  7

 75
0
147
1.0
148
0.0
149
0.0
100
AcDbLayout
  1
Model
 70
0
 71
0
 10
0.0
 20
0.0
 11
22.0
 21
17.0
 12
0.0
 22
0.0
 32
0.0
 14
0.0
 24
0.0
 34
0.0
 15
0.0
 25
0.0
 35
0.0
146
0.0
 13
0.0
 23
0.0
 33
0.0
 16
1.0
 26
0.0
 36
0.0
 17
0.0
 27
1.0
 37
0.0
 76
0
330
222
345
0
346
0
  0
LAYOUT
  5
2D3
102
{ACAD_REACTORS
330
1A
102
}
100
AcDbPlotSettings
  1

  2
none_device
  4
ANSI_C_(22.00_x_17.00_Inches)
  6

 40
0.0
 41
0.0
 42
0.0
 43
0.0
 44
558.8
 45
431.8
 46
0.0
 47
0.0
 48
0.0
 49
0.0
140
0.0
141
0.0
142
1.0
143
1.0
 70
0
 72
0
 73
0
 74
0
  7

 75
0
147
1.0
148
0.0
149
0.0
100
AcDbLayout
  1
Layout1
 70
0
 71
1
 10
0.0
 20
0.0
 11
22.0
 21
17.0
 12
0.0
 22
0.0
 32
0.0
 14
0.0
 24
0.0
 34
0.0
 15
0.0
 25
0.0
 35
0.0
146
0.0
 13
0.0
 23
0.0
 33
0.0
 16
1.0
 26
0.0
 36
0.0
 17
0.0
 27
1.0
 37
0.0
 76
0
330
223
345
0
346
0
  0
ENDSEC
  0
EOF