999
DXF file: _cgs_temp_output.dxf
999
Pro/ENGINEER 2016360 by Parametric Technology Corporation
  0
SECTION
  2
HEADER
  9
$ACADVER
  1
AC1021
  9
$DWGCODEPAGE
  3
ANSI_1252
  9
$EXTMAX
 10
22.0
 20
17.0
 30
0.0
  9
$EXTMIN
 10
0.0
 20
0.0
 30
0.0
  9
$LIMMIN
 10
0.0
 20
0.0
  9
$LIMMAX
 10
22.0
 20
17.0
  9
$VIEWCTR
 10
11.0
 20
8.5
  9
$VIEWSIZE
 40
17.0
  9
$CLAYER
  8
0
  9
$LTSCALE
 40
1.21
  9
$CELTYPE
  6
BYLAYER
  9
$DIMSCALE
 40
1.0
  9
$DIMASZ
 40
0.1875
  9
$DIMEXO
 40
0.0625
  9
$DIMDLI
 40
0.836
  9
$DIMEXE
 40
0.125
  9
$DIMCEN
 40
0.198
  9
$DIMLFAC
 40
1.0
  9
$DIMBLK
  1
_CLOSED
  9
$DIMALT
 70
0
  9
$DIMALTF
 40
25.4
  9
$DIMTXT
 40
0.15625
  9
$DIMTOL
 70
0
  9
$DIMLIM
 70
0
  9
$DIMTFAC
 40
1.0
  9
$DIMGAP
 40
0.09
  9
$DIMDSEP
 70
46
  9
$AUNITS
 70
0
  9
$PDMODE
 70
3
  9
$PDSIZE
 40
0.3125
  9
$HANDSEED
  5
2CA
  9
$TILEMODE
 70
1
  9
$MEASUREMENT
 70
0
  9
$INSUNITS
 70
1
  0
ENDSEC
  0
SECTION
  2
CLASSES
  0
CLASS
  1
ACDBDICTIONARYWDFLT
  2
AcDbDictionaryWithDefault
  3
AutoCAD 2000
 90
0
 91
1
280
0
281
0
  0
CLASS
  1
ACDBPLACEHOLDER
  2
AcDbPlaceHolder
  3
AutoCAD 2000
 90
0
 91
1
280
0
281
0
  0
CLASS
  1
LAYOUT
  2
AcDbLayout
  3
AutoCAD 2000
 90
0
 91
0
280
0
281
0
  0
ENDSEC
  0
SECTION
  2
TABLES
  0
TABLE
  2
VPORT
  5
8
100
AcDbSymbolTable
 70
2
  0
VPORT
  5
1F4
100
AcDbSymbolTableRecord
100
AcDbViewportTableRecord
  2
*ACTIVE
 70
0
 10
0.0
 20
0.0
 11
1.0
 21
1.0
 12
11.0
 22
8.5
 13
0.0
 23
0.0
 14
1.0
 24
1.0
 15
0.0
 25
0.0
 16
0.0
 26
0.0
 36
1.0
 17
0.0
 27
0.0
 37
0.0
 40
17.0
 41
1.2941176471
 42
50.0
 43
0.0
 44
0.0
 50
0.0
 51
0.0
 71
0
 72
100
 73
1
 74
1
 75
0
 76
0
 77
0
 78
0
  0
ENDTAB
  0
TABLE
  2
LTYPE
  5
5
100
AcDbSymbolTable
 70
6
  0
LTYPE
  5
14
100
AcDbSymbolTableRecord
100
AcDbLinetypeTableRecord
  2
BYBLOCK
 70
0
  3

 72
65
 73
0
 40
0.0
  0
LTYPE
  5
15
100
AcDbSymbolTableRecord
100
AcDbLinetypeTableRecord
  2
BYLAYER
 70
0
  3

 72
65
 73
0
 40
0.0
  0
LTYPE
  5
16
100
AcDbSymbolTableRecord
100
AcDbLinetypeTableRecord
  2
CONTINUOUS
 70
64
  3
Solid line
 72
65
 73
0
 40
0.0
  0
LTYPE
  5
1F5
100
AcDbSymbolTableRecord
100
AcDbLinetypeTableRecord
  2
CENTER
 70
64
  3
____ _ ____ _ ____ _ ____ _ ____ _ ____ _ ____
 72
65
 73
4
 40
0.6
 49
0.375
 74
0
 49
-0.075
 74
0
 49
0.075
 74
0
 49
-0.075
 74
0
  0
LTYPE
  5
1F6
100
AcDbSymbolTableRecord
100
AcDbLinetypeTableRecord
  2
HIDDEN
 70
64
  3
- - - - - - - - - - - - - - - - - - - -
 72
65
 73
2
 40
0.2
 49
0.1
 74
0
 49
-0.1
 74
0
  0
LTYPE
  5
1F7
100
AcDbSymbolTableRecord
100
AcDbLinetypeTableRecord
  2
PHANTOM
 70
64
  3
_____ _ _ _____ _ _ _____ _ _ _____
 72
65
 73
6
 40
0.8
 49
0.45
 74
0
 49
-0.05
 74
0
 49
0.1
 74
0
 49
-0.05
 74
0
 49
0.1
 74
0
 49
-0.05
 74
0
  0
LTYPE
  5
1F8
100
AcDbSymbolTableRecord
100
AcDbLinetypeTableRecord
  2
DOT
 70
64
  3
. . . . . . . . . . . . . . . . . . . .
 72
65
 73
2
 40
0.2
 49
0.1
 74
0
 49
-0.1
 74
0
  0
LTYPE
  5
1F9
100
AcDbSymbolTableRecord
100
AcDbLinetypeTableRecord
  2
DASHED
 70
64
  3
- - - - - - - - - - - - - - - - - - - -
 72
65
 73
2
 40
0.2
 49
0.1
 74
0
 49
-0.1
 74
0
  0
ENDTAB
  0
TABLE
  2
LAYER
  5
2
100
AcDbSymbolTable
 70
36
  0
LAYER
  5
10
100
AcDbSymbolTableRecord
100
AcDbLayerTableRecord
  2
0
 70
0
 62
7
  6
CONTINUOUS
370
-3
390
F
  0
LAYER
  5
1FA
100
AcDbSymbolTableRecord
100
AcDbLayerTableRecord
  2
DEFAULT_1
 70
0
 62
7
  6
CENTER
370
-3
390
F
  0
LAYER
  5
1FB
100
AcDbSymbolTableRecord
100
AcDbLayerTableRecord
  2
DEFAULT_2
 70
0
 62
8
  6
HIDDEN
370
-3
390
F
  0
LAYER
  5
1FC
100
AcDbSymbolTableRecord
100
AcDbLayerTableRecord
  2
DEFAULT_3
 70
0
 62
7
  6
PHANTOM
370
-3
390
F
  0
LAYER
  5
1FD
100
AcDbSymbolTableRecord
100
AcDbLayerTableRecord
  2
01_ALL_DTM_PLN
 70
0
 62
7
  6
CONTINUOUS
370
-3
390
F
  0
LAYER
  5
1FE
100
AcDbSymbolTableRecord
100
AcDbLayerTableRecord
  2
01__ASM_ALL_DTM_PLN
 70
0
 62
7
  6
CONTINUOUS
370
-3
390
F
  0
LAYER
  5
1FF
100
AcDbSymbolTableRecord
100
AcDbLayerTableRecord
  2
01__ASM_DEF_DTM_PLN
 70
0
 62
7
  6
CONTINUOUS
370
-3
390
F
  0
LAYER
  5
200
100
AcDbSymbolTableRecord
100
AcDbLayerTableRecord
  2
01___PRT_ALL_DTM_PLN
 70
0
 62
7
  6
CONTINUOUS
370
-3
390
F
  0
LAYER
  5
201
100
AcDbSymbolTableRecord
100
AcDbLayerTableRecord
  2
01___PRT_DEF_DTM_PLN
 70
0
 62
7
  6
CONTINUOUS
370
-3
390
F
  0
LAYER
  5
202
100
AcDbSymbolTableRecord
100
AcDbLayerTableRecord
  2
02_ALL_AXES
 70
0
 62
7
  6
CONTINUOUS
370
-3
390
F
  0
LAYER
  5
203
100
AcDbSymbolTableRecord
100
AcDbLayerTableRecord
  2
02__ASM_ALL_AXES
 70
0
 62
7
  6
CONTINUOUS
370
-3
390
F
  0
LAYER
  5
204
100
AcDbSymbolTableRecord
100
AcDbLayerTableRecord
  2
02___PRT_ALL_AXES
 70
0
 62
7
  6
CONTINUOUS
370
-3
390
F
  0
LAYER
  5
205
100
AcDbSymbolTableRecord
100
AcDbLayerTableRecord
  2
03_ALL_CURVES
 70
0
 62
7
  6
CONTINUOUS
370
-3
390
F
  0
LAYER
  5
206
100
AcDbSymbolTableRecord
100
AcDbLayerTableRecord
  2
03__ASM_ALL_CURVES
 70
0
 62
7
  6
CONTINUOUS
370
-3
390
F
  0
LAYER
  5
207
100
AcDbSymbolTableRecord
100
AcDbLayerTableRecord
  2
03___PRT_ALL_CURVES
 70
0
 62
7
  6
CONTINUOUS
370
-3
390
F
  0
LAYER
  5
208
100
AcDbSymbolTableRecord
100
AcDbLayerTableRecord
  2
04_ALL_DTM_PNT
 70
0
 62
7
  6
CONTINUOUS
370
-3
390
F
  0
LAYER
  5
209
100
AcDbSymbolTableRecord
100
AcDbLayerTableRecord
  2
04__ASM_ALL_DTM_PNT
 70
0
 62
7
  6
CONTINUOUS
370
-3
390
F
  0
LAYER
  5
20A
100
AcDbSymbolTableRecord
100
AcDbLayerTableRecord
  2
04___PRT_ALL_DTM_PNT
 70
0
 62
7
  6
CONTINUOUS
370
-3
390
F
  0
LAYER
  5
20B
100
AcDbSymbolTableRecord
100
AcDbLayerTableRecord
  2
05_ALL_DTM_CSYS
 70
0
 62
7
  6
CONTINUOUS
370
-3
390
F
  0
LAYER
  5
20C
100
AcDbSymbolTableRecord
100
AcDbLayerTableRecord
  2
05__ASM_ALL_DTM_CSYS
 70
0
 62
7
  6
CONTINUOUS
370
-3
390
F
  0
LAYER
  5
20D
100
AcDbSymbolTableRecord
100
AcDbLayerTableRecord
  2
05__ASM_DEF_DTM_CSYS
 70
0
 62
7
  6
CONTINUOUS
370
-3
390
F
  0
LAYER
  5
20E
100
AcDbSymbolTableRecord
100
AcDbLayerTableRecord
  2
05___PRT_ALL_DTM_CSYS
 70
0
 62
7
  6
CONTINUOUS
370
-3
390
F
  0
LAYER
  5
20F
100
AcDbSymbolTableRecord
100
AcDbLayerTableRecord
  2
05___PRT_DEF_DTM_CSYS
 70
0
 62
7
  6
CONTINUOUS
370
-3
390
F
  0
LAYER
  5
210
100
AcDbSymbolTableRecord
100
AcDbLayerTableRecord
  2
06_ALL_SURFS
 70
0
 62
7
  6
CONTINUOUS
370
-3
390
F
  0
LAYER
  5
211
100
AcDbSymbolTableRecord
100
AcDbLayerTableRecord
  2
06__ASM_ALL_SURFS
 70
0
 62
7
  6
CONTINUOUS
370
-3
390
F
  0
LAYER
  5
212
100
AcDbSymbolTableRecord
100
AcDbLayerTableRecord
  2
06___PRT_ALL_SURFS
 70
0
 62
7
  6
CONTINUOUS
370
-3
390
F
  0
LAYER
  5
213
100
AcDbSymbolTableRecord
100
AcDbLayerTableRecord
  2
07__ASM_ALL_SKELETONS
 70
0
 62
7
  6
CONTINUOUS
370
-3
390
F
  0
LAYER
  5
214
100
AcDbSymbolTableRecord
100
AcDbLayerTableRecord
  2
LAYER_AXIS
 70
0
 62
7
  6
CONTINUOUS
370
-3
390
F
  0
LAYER
  5
215
100
AcDbSymbolTableRecord
100
AcDbLayerTableRecord
  2
LAYER_CHAMFER_FEAT
 70
0
 62
7
  6
CONTINUOUS
370
-3
390
F
  0
LAYER
  5
216
100
AcDbSymbolTableRecord
100
AcDbLayerTableRecord
  2
LAYER_CUT_FEAT
 70
0
 62
7
  6
CONTINUOUS
370
-3
390
F
  0
LAYER
  5
217
100
AcDbSymbolTableRecord
100
AcDbLayerTableRecord
  2
LAYER_DATUM
 70
0
 62
7
  6
CONTINUOUS
370
-3
390
F
  0
LAYER
  5
218
100
AcDbSymbolTableRecord
100
AcDbLayerTableRecord
  2
LAYER_DIM
 70
0
 62
7
  6
CONTINUOUS
370
-3
390
F
  0
LAYER
  5
219
100
AcDbSymbolTableRecord
100
AcDbLayerTableRecord
  2
LAYER_FEATURE
 70
0
 62
7
  6
CONTINUOUS
370
-3
390
F
  0
LAYER
  5
21A
100
AcDbSymbolTableRecord
100
AcDbLayerTableRecord
  2
LAYER_GEOM_FEAT
 70
0
 62
7
  6
CONTINUOUS
370
-3
390
F
  0
LAYER
  5
21B
100
AcDbSymbolTableRecord
100
AcDbLayerTableRecord
  2
LAYER_NOGEOM_FEAT
 70
0
 62
7
  6
CONTINUOUS
370
-3
390
F
  0
LAYER
  5
21C
100
AcDbSymbolTableRecord
100
AcDbLayerTableRecord
  2
LAYER_PARAMETER_DIM
 70
0
 62
7
  6
CONTINUOUS
370
-3
390
F
  0
LAYER
  5
21D
100
AcDbSymbolTableRecord
100
AcDbLayerTableRecord
  2
LAYER_PROTRUSION_FEAT
 70
0
 62
7
  6
CONTINUOUS
370
-3
390
F
  0
LAYER
  5
21E
100
AcDbSymbolTableRecord
100
AcDbLayerTableRecord
  2
LAYER_QUILT
 70
0
 62
7
  6
CONTINUOUS
370
-3
390
F
  0
LAYER
  5
21F
100
AcDbSymbolTableRecord
100
AcDbLayerTableRecord
  2
LAYER_ROUND_FEAT
 70
0
 62
7
  6
CONTINUOUS
370
-3
390
F
  0
ENDTAB
  0
TABLE
  2
STYLE
  5
3
100
AcDbSymbolTable
 70
1
  0
STYLE
  5
11
100
AcDbSymbolTableRecord
100
AcDbTextStyleTableRecord
  2
STANDARD
 70
0
 40
0.0
 41
0.8
 50
0.0
 71
0
 42
0.2
  3
txt
  4

  0
STYLE
  5
220
100
AcDbSymbolTableRecord
100
AcDbTextStyleTableRecord
  2
TEXTSTYLE_1
 70
0
 40
0.0
 41
0.8
 50
0.0
 71
0
 42
0.2
  3
gdt
  4

  0
ENDTAB
  0
TABLE
  2
VIEW
  5
6
100
AcDbSymbolTable
 70
0
  0
ENDTAB
  0
TABLE
  2
UCS
  5
7
100
AcDbSymbolTable
 70
0
  0
ENDTAB
  0
TABLE
  2
APPID
  5
9
100
AcDbSymbolTable
 70
1
  0
APPID
  5
221
100
AcDbSymbolTableRecord
100
AcDbRegAppTableRecord
  2
ACAD
 70
0
  0
ENDTAB
  0
TABLE
  2
BLOCK_RECORD
  5
1
100
AcDbSymbolTable
 70
0
  0
BLOCK_RECORD
  5
222
100
AcDbSymbolTableRecord
100
AcDbBlockTableRecord
  2
*Model_Space
  0
BLOCK_RECORD
  5
223
100
AcDbSymbolTableRecord
100
AcDbBlockTableRecord
  2
*Paper_Space
  0
ENDTAB
  0
TABLE
  2
DIMSTYLE
  5
A
100
AcDbSymbolTable
 70
1
100
AcDbDimStyleTable
 71
0
  0
DIMSTYLE
105
224
100
AcDbSymbolTableRecord
100
AcDbDimStyleTableRecord
  2
STANDARD
 70
0
  3

  4

 40
1.0
 41
0.1875
 42
0.0625
 43
0.38
 44
0.125
 45
0.0
 46
0.0
 47
0.0001
 48
0.0001
140
0.15625
141
0.09
142
0.0
143
25.4
144
1.0
145
0.0
146
1.0
147
0.09
 71
0.0
 72
0.0
 73
1
 74
1
 75
0
 76
0
 77
0
 78
4
 79
1
170
0
171
3
172
0
173
0
174
0
175
0
176
0
177
0
178
0
270
2
179
4
271
4
272
4
273
2
274
2
275
0
280
0
281
0
282
0
283
1
284
4
285
0
286
0
287
3
288
0
340
11
278
46
  0
ENDTAB
  0
ENDSEC
  0
SECTION
  2
BLOCKS
  0
BLOCK
  5
20
100
AcDbEntity
  8
0
100
AcDbBlockBegin
  2
*Model_Space
 70
0
 10
0.0
 20
0.0
 30
0.0
  3
*Model_Space
  1

  0
ENDBLK
  5
21
100
AcDbEntity
  8
0
100
AcDbBlockEnd
  0
BLOCK
  5
1C
100
AcDbEntity
  8
0
100
AcDbBlockBegin
  2
*Paper_Space
 70
0
 10
0.0
 20
0.0
 30
0.0
  3
*Paper_Space
  1

  0
ENDBLK
  5
1D
100
AcDbEntity
  8
0
100
AcDbBlockEnd
  0
ENDSEC
  0
SECTION
  2
ENTITIES
  0
MTEXT
  5
225
100
AcDbEntity
  8
0
100
AcDbMText
 62
7
  6
CONTINUOUS
  7
STANDARD
 71
1
 72
1
 10
15.9560215477
 20
0.9479130325
 30
0.0
 11
1.0
 21
0.0
 31
0.0
 44
0.9
  1
SCALE: 1:0.500
 40
0.3
 41
3.36
  0
LINE
  5
226
100
AcDbEntity
  8
0
100
AcDbLine
 62
7
  6
CONTINUOUS
 10
0.0
 20
0.0
 11
0.0
 21
17.0
  0
LINE
  5
227
100
AcDbEntity
  8
0
100
AcDbLine
 62
7
  6
CONTINUOUS
 10
0.0
 20
0.0
 11
22.0
 21
0.0
  0
LINE
  5
228
100
AcDbEntity
  8
0
100
AcDbLine
 62
7
  6
CONTINUOUS
 10
0.0
 20
17.0
 11
22.0
 21
17.0
  0
LINE
  5
229
100
AcDbEntity
  8
0
100
AcDbLine
 62
7
  6
CONTINUOUS
 10
22.0
 20
0.0
 11
22.0
 21
17.0
  0
LINE
  5
22A
100
AcDbEntity
  8
LAYER_FEATURE
100
AcDbLine
 62
7
  6
CONTINUOUS
 10
6.9708672762
 20
4.0801198968
 11
6.9095268405
 21
4.0801198968
  0
LINE
  5
22B
100
AcDbEntity
  8
LAYER_FEATURE
100
AcDbLine
 62
7
  6
CONTINUOUS
 10
5.2898672762
 20
4.0801198968
 11
5.3512077119
 21
4.0801198968
  0
LINE
  5
22C
100
AcDbEntity
  8
02___PRT_ALL_AXES
100
AcDbLine
 62
7
  6
CONTINUOUS
 10
5.3778672762
 20
4.2318698968
 11
6.8828672762
 21
4.2318698968
  0
LINE
  5
22D
100
AcDbEntity
  8
LAYER_FEATURE
100
AcDbLine
 62
7
  6
CONTINUOUS
 10
5.2898672762
 20
6.9601198968
 11
5.2898672762
 21
4.0801198968
  0
LINE
  5
22E
100
AcDbEntity
  8
LAYER_FEATURE
100
AcDbLine
 62
7
  6
CONTINUOUS
 10
5.3512077119
 20
6.9601198968
 11
5.3512077119
 21
4.0801198968
  0
LINE
  5
22F
100
AcDbEntity
  8
LAYER_FEATURE
100
AcDbLine
 62
7
  6
CONTINUOUS
 10
5.3778672762
 20
6.8346965078
 11
5.3778672762
 21
4.2055432857
  0
LINE
  5
230
100
AcDbEntity
  8
LAYER_FEATURE
100
AcDbLine
 62
7
  6
CONTINUOUS
 10
5.3512077119
 20
4.0801198968
 11
5.3778672762
 21
4.2055432857
  0
LINE
  5
231
100
AcDbEntity
  8
LAYER_FEATURE
100
AcDbLine
 62
7
  6
CONTINUOUS
 10
5.3512077119
 20
6.9601198968
 11
5.3778672762
 21
6.8346965078
  0
LINE
  5
232
100
AcDbEntity
  8
LAYER_FEATURE
100
AcDbLine
 62
7
  6
CONTINUOUS
 10
6.9095268405
 20
6.9601198968
 11
6.8828672762
 21
6.8346965078
  0
LINE
  5
233
100
AcDbEntity
  8
LAYER_FEATURE
100
AcDbLine
 62
7
  6
CONTINUOUS
 10
6.9095268405
 20
4.0801198968
 11
6.8828672762
 21
4.2055432857
  0
LINE
  5
234
100
AcDbEntity
  8
LAYER_FEATURE
100
AcDbLine
 62
7
  6
CONTINUOUS
 10
6.8828672762
 20
6.8346965078
 11
6.8828672762
 21
4.2055432857
  0
LINE
  5
235
100
AcDbEntity
  8
LAYER_FEATURE
100
AcDbLine
 62
7
  6
CONTINUOUS
 10
6.9095268405
 20
6.9601198968
 11
6.9095268405
 21
4.0801198968
  0
LINE
  5
236
100
AcDbEntity
  8
LAYER_FEATURE
100
AcDbLine
 62
7
  6
CONTINUOUS
 10
6.9708672762
 20
6.9601198968
 11
6.9708672762
 21
4.0801198968
  0
LINE
  5
237
100
AcDbEntity
  8
LAYER_FEATURE
100
AcDbLine
 62
7
  6
CONTINUOUS
 10
5.3778672762
 20
6.4914046717
 11
6.8828672762
 21
6.4914046717
  0
LINE
  5
238
100
AcDbEntity
  8
0
100
AcDbLine
 62
7
  6
CONTINUOUS
 10
5.3778672762
 20
6.4951959124
 11
6.8828672762
 21
6.4951959124
  0
LINE
  5
239
100
AcDbEntity
  8
LAYER_FEATURE
100
AcDbLine
 62
7
  6
CONTINUOUS
 10
5.3778672762
 20
6.6251258166
 11
6.8828672762
 21
6.6251258166
  0
LINE
  5
23A
100
AcDbEntity
  8
LAYER_FEATURE
100
AcDbLine
 62
7
  6
CONTINUOUS
 10
5.3778672762
 20
6.6461317796
 11
6.8828672762
 21
6.6461317796
  0
LINE
  5
23B
100
AcDbEntity
  8
0
100
AcDbLine
 62
7
  6
CONTINUOUS
 10
5.3778672762
 20
6.6478480055
 11
6.8828672762
 21
6.6478480055
  0
LINE
  5
23C
100
AcDbEntity
  8
LAYER_FEATURE
100
AcDbLine
 62
7
  6
CONTINUOUS
 10
5.3778672762
 20
6.7386643659
 11
6.8828672762
 21
6.7386643659
  0
LINE
  5
23D
100
AcDbEntity
  8
LAYER_FEATURE
100
AcDbLine
 62
7
  6
CONTINUOUS
 10
5.3778672762
 20
6.751646765
 11
6.8828672762
 21
6.751646765
  0
LINE
  5
23E
100
AcDbEntity
  8
0
100
AcDbLine
 62
7
  6
CONTINUOUS
 10
5.3778672762
 20
6.7520805612
 11
6.8828672762
 21
6.7520805612
  0
LINE
  5
23F
100
AcDbEntity
  8
LAYER_FEATURE
100
AcDbLine
 62
7
  6
CONTINUOUS
 10
5.3778672762
 20
6.7989466746
 11
6.8828672762
 21
6.7989466746
  0
LINE
  5
240
100
AcDbEntity
  8
LAYER_FEATURE
100
AcDbLine
 62
7
  6
CONTINUOUS
 10
5.3778672762
 20
6.8033381167
 11
6.8828672762
 21
6.8033381167
  0
LINE
  5
241
100
AcDbEntity
  8
LAYER_FEATURE
100
AcDbLine
 62
7
  6
CONTINUOUS
 10
6.9708672762
 20
6.9601198968
 11
6.9095268405
 21
6.9601198968
  0
LINE
  5
242
100
AcDbEntity
  8
LAYER_FEATURE
100
AcDbLine
 62
7
  6
CONTINUOUS
 10
5.2898672762
 20
6.9601198968
 11
5.3512077119
 21
6.9601198968
  0
LINE
  5
243
100
AcDbEntity
  8
LAYER_FEATURE
100
AcDbLine
 62
7
  6
CONTINUOUS
 10
5.2303720839
 20
11.1600477814
 11
5.2917125196
 21
11.1600477814
  0
LINE
  5
244
100
AcDbEntity
  8
LAYER_FEATURE
100
AcDbLine
 62
7
  6
CONTINUOUS
 10
6.8500316482
 20
11.1600477814
 11
6.9113720839
 21
11.1600477814
  0
LINE
  5
245
100
AcDbEntity
  8
02___PRT_ALL_AXES
100
AcDbLine
 62
7
  6
CONTINUOUS
 10
5.3183720839
 20
11.3117977814
 11
6.8233720839
 21
11.3117977814
  0
LINE
  5
246
100
AcDbEntity
  8
LAYER_FEATURE
100
AcDbLine
 62
7
  6
CONTINUOUS
 10
5.2303720839
 20
11.1600477814
 11
5.2303720839
 21
14.0400477814
  0
LINE
  5
247
100
AcDbEntity
  8
LAYER_FEATURE
100
AcDbLine
 62
7
  6
CONTINUOUS
 10
5.2917125196
 20
11.1600477814
 11
5.2917125196
 21
14.0400477814
  0
LINE
  5
248
100
AcDbEntity
  8
LAYER_FEATURE
100
AcDbLine
 62
7
  6
CONTINUOUS
 10
5.3183720839
 20
11.7537653531
 11
6.8233720839
 21
11.7537653531
  0
LINE
  5
249
100
AcDbEntity
  8
LAYER_FEATURE
100
AcDbLine
 62
7
  6
CONTINUOUS
 10
5.3183720839
 20
11.2854712652
 11
5.3183720839
 21
13.9146242976
  0
LINE
  5
24A
100
AcDbEntity
  8
LAYER_FEATURE
100
AcDbLine
 62
7
  6
CONTINUOUS
 10
6.8233720839
 20
11.8870692914
 11
5.3183720839
 21
11.8870692914
  0
LINE
  5
24B
100
AcDbEntity
  8
0
100
AcDbLine
 62
7
  6
CONTINUOUS
 10
5.3183720839
 20
11.9296337645
 11
6.8233720839
 21
11.9296337645
  0
LINE
  5
24C
100
AcDbEntity
  8
LAYER_FEATURE
100
AcDbLine
 62
7
  6
CONTINUOUS
 10
5.3183720839
 20
11.9378167193
 11
6.8233720839
 21
11.9378167193
  0
LINE
  5
24D
100
AcDbEntity
  8
LAYER_FEATURE
100
AcDbLine
 62
7
  6
CONTINUOUS
 10
5.3183720839
 20
11.9742001144
 11
6.8233720839
 21
11.9742001144
  0
LINE
  5
24E
100
AcDbEntity
  8
LAYER_FEATURE
100
AcDbLine
 62
7
  6
CONTINUOUS
 10
5.2917125196
 20
11.1600477814
 11
5.3183720839
 21
11.2854711703
  0
LINE
  5
24F
100
AcDbEntity
  8
LAYER_FEATURE
100
AcDbLine
 62
7
  6
CONTINUOUS
 10
6.8233720839
 20
12.0960680929
 11
5.3183720839
 21
12.0960680929
  0
LINE
  5
250
100
AcDbEntity
  8
LAYER_FEATURE
100
AcDbLine
 62
7
  6
CONTINUOUS
 10
6.8233720839
 20
12.1508808204
 11
5.3183720839
 21
12.1508808204
  0
LINE
  5
251
100
AcDbEntity
  8
0
100
AcDbLine
 62
7
  6
CONTINUOUS
 10
5.3183720839
 20
12.1702547203
 11
6.8233720839
 21
12.1702547203
  0
LINE
  5
252
100
AcDbEntity
  8
LAYER_FEATURE
100
AcDbLine
 62
7
  6
CONTINUOUS
 10
5.2917125196
 20
14.0400477814
 11
5.3183720839
 21
13.9146243924
  0
LINE
  5
253
100
AcDbEntity
  8
LAYER_FEATURE
100
AcDbLine
 62
7
  6
CONTINUOUS
 10
5.3183720839
 20
12.1820317061
 11
6.8233720839
 21
12.1820317061
  0
LINE
  5
254
100
AcDbEntity
  8
LAYER_FEATURE
100
AcDbLine
 62
7
  6
CONTINUOUS
 10
5.3183720839
 20
12.221987422
 11
6.8233720839
 21
12.221987422
  0
LINE
  5
255
100
AcDbEntity
  8
LAYER_FEATURE
100
AcDbLine
 62
7
  6
CONTINUOUS
 10
6.8233720839
 20
12.3270932252
 11
5.3183720839
 21
12.3270932252
  0
LINE
  5
256
100
AcDbEntity
  8
LAYER_FEATURE
100
AcDbLine
 62
7
  6
CONTINUOUS
 10
6.8233720839
 20
12.3857820813
 11
5.3183720839
 21
12.3857820813
  0
LINE
  5
257
100
AcDbEntity
  8
LAYER_FEATURE
100
AcDbLine
 62
7
  6
CONTINUOUS
 10
5.3183720839
 20
12.4445160012
 11
6.8233720839
 21
12.4445160012
  0
LINE
  5
258
100
AcDbEntity
  8
LAYER_FEATURE
100
AcDbLine
 62
7
  6
CONTINUOUS
 10
5.3183720839
 20
12.4862977814
 11
6.8233720839
 21
12.4862977814
  0
LINE
  5
259
100
AcDbEntity
  8
LAYER_FEATURE
100
AcDbLine
 62
7
  6
CONTINUOUS
 10
6.8233720839
 20
12.5700477814
 11
5.3183720839
 21
12.5700477814
  0
LINE
  5
25A
100
AcDbEntity
  8
LAYER_FEATURE
100
AcDbLine
 62
7
  6
CONTINUOUS
 10
6.8233720839
 20
12.6300477814
 11
5.3183720839
 21
12.6300477814
  0
LINE
  5
25B
100
AcDbEntity
  8
LAYER_FEATURE
100
AcDbLine
 62
7
  6
CONTINUOUS
 10
5.3183720839
 20
12.7137977814
 11
6.8233720839
 21
12.7137977814
  0
LINE
  5
25C
100
AcDbEntity
  8
LAYER_FEATURE
100
AcDbLine
 62
7
  6
CONTINUOUS
 10
6.8233720839
 20
13.9146243924
 11
6.8500316482
 21
14.0400477814
  0
LINE
  5
25D
100
AcDbEntity
  8
LAYER_FEATURE
100
AcDbLine
 62
7
  6
CONTINUOUS
 10
6.8233720839
 20
11.2854711703
 11
6.8500316482
 21
11.1600477814
  0
LINE
  5
25E
100
AcDbEntity
  8
LAYER_FEATURE
100
AcDbLine
 62
7
  6
CONTINUOUS
 10
6.8233720839
 20
11.2854712557
 11
6.8233720839
 21
13.9146243071
  0
LINE
  5
25F
100
AcDbEntity
  8
LAYER_FEATURE
100
AcDbLine
 62
7
  6
CONTINUOUS
 10
6.8500316482
 20
11.1600477814
 11
6.8500316482
 21
14.0400477814
  0
LINE
  5
260
100
AcDbEntity
  8
LAYER_FEATURE
100
AcDbLine
 62
7
  6
CONTINUOUS
 10
6.9113720839
 20
11.1600477814
 11
6.9113720839
 21
14.0400477814
  0
LINE
  5
261
100
AcDbEntity
  8
02___PRT_ALL_AXES
100
AcDbLine
 62
7
  6
CONTINUOUS
 10
5.3183720839
 20
13.8882977814
 11
6.8233720839
 21
13.8882977814
  0
LINE
  5
262
100
AcDbEntity
  8
LAYER_FEATURE
100
AcDbLine
 62
7
  6
CONTINUOUS
 10
5.2303720839
 20
14.0400477814
 11
5.2917125196
 21
14.0400477814
  0
LINE
  5
263
100
AcDbEntity
  8
LAYER_FEATURE
100
AcDbLine
 62
7
  6
CONTINUOUS
 10
6.8500316482
 20
14.0400477814
 11
6.9113720839
 21
14.0400477814
  0
LINE
  5
264
100
AcDbEntity
  8
LAYER_FEATURE
100
AcDbLine
 62
7
  6
CONTINUOUS
 10
14.6969191464
 20
11.0708049929
 11
14.7534174291
 21
11.0708049929
  0
LINE
  5
265
100
AcDbEntity
  8
LAYER_FEATURE
100
AcDbLine
 62
7
  6
CONTINUOUS
 10
16.1887243947
 20
11.0708049929
 11
16.2452226773
 21
11.0708049929
  0
LINE
  5
266
100
AcDbEntity
  8
LAYER_FEATURE
100
AcDbLine
 62
7
  6
CONTINUOUS
 10
14.3641949371
 20
13.0055395592
 11
14.3745962265
 21
13.0592665182
  0
LINE
  5
267
100
AcDbEntity
  8
LAYER_FEATURE
100
AcDbLine
 62
7
  6
CONTINUOUS
 10
14.4167629005
 20
13.2268742877
 11
14.4278169485
 21
13.2626452
  0
LINE
  5
268
100
AcDbEntity
  8
02___PRT_ALL_AXES
100
AcDbLine
 62
7
  6
CONTINUOUS
 10
14.7779725139
 20
11.2225549929
 11
15.9383546902
 21
11.2225549929
  0
LINE
  5
269
100
AcDbEntity
  8
LAYER_FEATURE
100
AcDbLine
 62
7
  6
CONTINUOUS
 10
14.3216065293
 20
12.5305883217
 11
14.3225987288
 21
12.590534199
  0
LINE
  5
26A
100
AcDbEntity
  8
LAYER_FEATURE
100
AcDbLine
 62
7
  6
CONTINUOUS
 10
14.3331809708
 20
12.7738112584
 11
14.3390049839
 21
12.8319174359
  0
LINE
  5
26B
100
AcDbEntity
  8
LAYER_FEATURE
100
AcDbLine
 62
7
  6
CONTINUOUS
 10
14.2819805693
 20
12.4695227701
 11
14.3019926268
 21
12.4876884674
  0
LINE
  5
26C
100
AcDbEntity
  8
02___PRT_ALL_AXES
100
AcDbLine
 62
7
  6
CONTINUOUS
 10
16.1803960372
 20
13.5983414956
 11
16.163520076
 21
13.5924619533
  0
LINE
  5
26D
100
AcDbEntity
  8
02___PRT_ALL_AXES
100
AcDbLine
 62
7
  6
CONTINUOUS
 10
16.1803960372
 20
11.4232684902
 11
16.163520076
 21
11.4291480325
  0
LINE
  5
26E
100
AcDbEntity
  8
LAYER_FEATURE
100
AcDbLine
 62
7
  6
CONTINUOUS
 10
14.3044731256
 20
12.6375531605
 11
14.2851335007
 21
12.6600139274
  0
LINE
  5
26F
100
AcDbEntity
  8
LAYER_FEATURE
100
AcDbLine
 62
7
  6
CONTINUOUS
 10
14.3250823413
 20
12.8875862375
 11
14.3079838612
 21
12.9198816699
  0
LINE
  5
270
100
AcDbEntity
  8
LAYER_FEATURE
100
AcDbLine
 62
7
  6
CONTINUOUS
 10
14.3654850307
 20
13.1211521661
 11
14.351374981
 21
13.1618707987
  0
LINE
  5
271
100
AcDbEntity
  8
LAYER_FEATURE
100
AcDbLine
 62
7
  6
CONTINUOUS
 10
14.4239154025
 20
13.3280429944
 11
14.4134104601
 21
13.3754052276
  0
LINE
  5
272
100
AcDbEntity
  8
LAYER_FEATURE
100
AcDbLine
 62
7
  6
CONTINUOUS
 10
14.2894767836
 20
12.7352365615
 11
14.3105223085
 21
12.7423207937
  0
LINE
  5
273
100
AcDbEntity
  8
LAYER_FEATURE
100
AcDbLine
 62
7
  6
CONTINUOUS
 10
14.2768335171
 20
12.4516494919
 11
15.6284747383
 21
12.4516494919
  0
LINE
  5
274
100
AcDbEntity
  8
LAYER_FEATURE
100
AcDbLine
 62
7
  6
CONTINUOUS
 10
15.6281255343
 20
12.5305883217
 11
14.3216065293
 21
12.5305883217
  0
LINE
  5
275
100
AcDbEntity
  8
LAYER_FEATURE
100
AcDbLine
 62
7
  6
CONTINUOUS
 10
15.6289329033
 20
12.590534199
 11
14.3225987288
 21
12.590534199
  0
LINE
  5
276
100
AcDbEntity
  8
LAYER_FEATURE
100
AcDbLine
 62
7
  6
CONTINUOUS
 10
14.280595607
 20
12.6789442764
 11
15.6318286668
 21
12.6789442764
  0
LINE
  5
277
100
AcDbEntity
  8
LAYER_FEATURE
100
AcDbLine
 62
7
  6
CONTINUOUS
 10
14.2829951036
 20
12.7205018848
 11
15.6340093442
 21
12.7205018848
  0
LINE
  5
278
100
AcDbEntity
  8
LAYER_FEATURE
100
AcDbLine
 62
7
  6
CONTINUOUS
 10
15.6374786937
 20
12.7738112584
 11
14.3331809708
 21
12.7738112584
  0
LINE
  5
279
100
AcDbEntity
  8
LAYER_FEATURE
100
AcDbLine
 62
7
  6
CONTINUOUS
 10
15.6421582516
 20
12.8319174359
 11
14.3390049839
 21
12.8319174359
  0
LINE
  5
27A
100
AcDbEntity
  8
LAYER_FEATURE
100
AcDbLine
 62
7
  6
CONTINUOUS
 10
14.30507782
 20
12.9408211413
 11
15.6536338824
 21
12.9408211413
  0
LINE
  5
27B
100
AcDbEntity
  8
LAYER_FEATURE
100
AcDbLine
 62
7
  6
CONTINUOUS
 10
14.310789578
 20
12.9801895174
 11
15.6587062269
 21
12.9801895174
  0
LINE
  5
27C
100
AcDbEntity
  8
0
100
AcDbLine
 62
7
  6
CONTINUOUS
 10
14.3177117763
 20
12.9912036847
 11
15.6601886771
 21
12.9912036847
  0
LINE
  5
27D
100
AcDbEntity
  8
LAYER_FEATURE
100
AcDbLine
 62
7
  6
CONTINUOUS
 10
15.662118212
 20
13.0055395592
 11
14.3641949371
 21
13.0055395592
  0
LINE
  5
27E
100
AcDbEntity
  8
LAYER_FEATURE
100
AcDbLine
 62
7
  6
CONTINUOUS
 10
15.6702481329
 20
13.0592665182
 11
14.3745962265
 21
13.0592665182
  0
LINE
  5
27F
100
AcDbEntity
  8
LAYER_FEATURE
100
AcDbLine
 62
7
  6
CONTINUOUS
 10
14.3502278003
 20
13.183904237
 11
15.6931098168
 21
13.183904237
  0
LINE
  5
280
100
AcDbEntity
  8
LAYER_FEATURE
100
AcDbLine
 62
7
  6
CONTINUOUS
 10
14.3590021885
 20
13.2193627939
 11
15.7005772202
 21
13.2193627939
  0
LINE
  5
281
100
AcDbEntity
  8
0
100
AcDbLine
 62
7
  6
CONTINUOUS
 10
14.3650576337
 20
13.2268742877
 11
15.7022974334
 21
13.2268742877
  0
LINE
  5
282
100
AcDbEntity
  8
LAYER_FEATURE
100
AcDbLine
 62
7
  6
CONTINUOUS
 10
15.7104893583
 20
13.2626452
 11
14.4278169485
 21
13.2626452
  0
LINE
  5
283
100
AcDbEntity
  8
LAYER_FEATURE
100
AcDbLine
 62
7
  6
CONTINUOUS
 10
14.4140722771
 20
13.3975696659
 11
15.7469864146
 21
13.3975696659
  0
LINE
  5
284
100
AcDbEntity
  8
02___PRT_ALL_AXES
100
AcDbLine
 62
7
  6
CONTINUOUS
 10
14.7779725139
 20
13.7990549929
 11
15.9381735348
 21
13.7990549929
  0
LINE
  5
285
100
AcDbEntity
  8
LAYER_FEATURE
100
AcDbLine
 62
7
  6
CONTINUOUS
 10
14.6969191464
 20
13.9508049929
 11
14.7534174291
 21
13.9508049929
  0
LINE
  5
286
100
AcDbEntity
  8
LAYER_FEATURE
100
AcDbLine
 62
7
  6
CONTINUOUS
 10
16.1887243947
 20
13.9508049929
 11
16.2452226773
 21
13.9508049929
  0
CIRCLE
  5
287
100
AcDbEntity
  8
LAYER_FEATURE
100
AcDbCircle
 62
7
  6
CONTINUOUS
 10
15.5603552569
 20
5.4606247044
 40
1.44
  0
CIRCLE
  5
288
100
AcDbEntity
  8
LAYER_FEATURE
100
AcDbCircle
 62
7
  6
CONTINUOUS
 10
15.5603552569
 20
5.4606247044
 40
1.3145766111
  0
CIRCLE
  5
289
100
AcDbEntity
  8
02___PRT_ALL_AXES
100
AcDbCircle
 62
7
  6
CONTINUOUS
 10
15.5603552569
 20
5.4606247044
 40
1.0975
  0
CIRCLE
  5
28A
100
AcDbEntity
  8
LAYER_CHAMFER_FEAT
100
AcDbCircle
 62
7
  6
CONTINUOUS
 10
15.5603552569
 20
5.4606247044
 40
1.029
  0
CIRCLE
  5
28B
100
AcDbEntity
  8
LAYER_CHAMFER_FEAT
100
AcDbCircle
 62
7
  6
CONTINUOUS
 10
15.5603552569
 20
5.4606247044
 40
0.9975
  0
ARC
  5
28C
100
AcDbEntity
  8
02___PRT_ALL_AXES
100
AcDbCircle
 62
7
  6
CONTINUOUS
 10
15.5603552569
 20
5.4606247044
 40
0.84375
100
AcDbArc
 50
153.3827617612
 51
231.6172382388
  0
ARC
  5
28D
100
AcDbEntity
  8
02___PRT_ALL_AXES
100
AcDbCircle
 62
7
  6
CONTINUOUS
 10
15.5603552569
 20
5.4606247044
 40
0.84375
100
AcDbArc
 50
58.3827617612
 51
136.6172382388
  0
ARC
  5
28E
100
AcDbEntity
  8
02___PRT_ALL_AXES
100
AcDbCircle
 62
7
  6
CONTINUOUS
 10
15.5603552569
 20
5.4606247044
 40
0.84375
100
AcDbArc
 50
248.3827617612
 51
41.6172382388
  0
ARC
  5
28F
100
AcDbEntity
  8
02___PRT_ALL_AXES
100
AcDbCircle
 62
7
  6
CONTINUOUS
 10
15.5603552569
 20
5.4606247044
 40
0.8131570198
100
AcDbArc
 50
136.1802428979
 51
153.8197571021
  0
ARC
  5
290
100
AcDbEntity
  8
02___PRT_ALL_AXES
100
AcDbCircle
 62
7
  6
CONTINUOUS
 10
15.5603552569
 20
5.4606247044
 40
0.7825640395
100
AcDbArc
 50
58.7288156508
 51
231.2711843492
  0
ARC
  5
291
100
AcDbEntity
  8
02___PRT_ALL_AXES
100
AcDbCircle
 62
7
  6
CONTINUOUS
 10
15.5603552569
 20
5.4606247044
 40
0.7825640395
100
AcDbArc
 50
248.7288156508
 51
41.2711843492
  0
ARC
  5
292
100
AcDbEntity
  8
02___PRT_ALL_AXES
100
AcDbCircle
 62
7
  6
CONTINUOUS
 10
14.894794221
 20
5.926655559
 40
0.125
100
AcDbArc
 50
50.8903869362
 51
239.1096130638
  0
ARC
  5
293
100
AcDbEntity
  8
02___PRT_ALL_AXES
100
AcDbCircle
 62
7
  6
CONTINUOUS
 10
16.0826201898
 20
6.0830358145
 40
0.125
100
AcDbArc
 50
301.820265907
 51
158.179734093
  0
ARC
  5
294
100
AcDbEntity
  8
02___PRT_ALL_AXES
100
AcDbCircle
 62
7
  6
CONTINUOUS
 10
15.1541052569
 20
4.7569790639
 40
0.125
100
AcDbArc
 50
131.820265907
 51
348.179734093
  0
ARC
  5
295
100
AcDbEntity
  8
LAYER_FEATURE
100
AcDbCircle
 62
7
  6
CONTINUOUS
 10
17.4908731376
 20
12.5144340009
 40
3.2144899213
100
AcDbArc
 50
176.3244800414
 51
177.0664509304
  0
ARC
  5
296
100
AcDbEntity
  8
LAYER_FEATURE
100
AcDbCircle
 62
7
  6
CONTINUOUS
 10
17.0800835459
 20
12.5583081696
 40
2.8012448934
100
AcDbArc
 50
171.3380140708
 51
172.1516800038
  0
ARC
  5
297
100
AcDbEntity
  8
LAYER_FEATURE
100
AcDbCircle
 62
7
  6
CONTINUOUS
 10
16.456415048
 20
12.6815331147
 40
2.1652716844
100
AcDbArc
 50
165.6177977388
 51
166.5843870546
  0
ARC
  5
298
100
AcDbEntity
  8
02___PRT_ALL_AXES
100
AcDbCircle
 62
7
  6
CONTINUOUS
 10
13.6744513548
 20
12.5108040321
 40
2.1643363754
100
AcDbArc
 50
358.4281329974
 51
1.6199204007
  0
SPLINE
  5
299
100
AcDbEntity
  8
02___PRT_ALL_AXES
100
AcDbSpline
 62
7
  6
CONTINUOUS
 70
0
 71
3
 72
39
 73
35
 74
0
 42
0.0000001
 43
0.0000001
 44
0.0000000001
 40
0.0
 40
0.0
 40
0.0
 40
0.0
 40
0.046178301
 40
0.0913991188
 40
0.1356315557
 40
0.1788495985
 40
0.2210282927
 40
0.2621457498
 40
0.302182917
 40
0.341123824
 40
0.3789559114
 40
0.4156703243
 40
0.4512622864
 40
0.4857314722
 40
0.5190824453
 40
0.5513251581
 40
0.5824755221
 40
0.612555997
 40
0.6415962332
 40
0.6696337611
 40
0.6967147095
 40
0.7228944852
 40
0.7482383594
 40
0.7728219201
 40
0.7967312895
 40
0.8200629982
 40
0.8429233885
 40
0.8654275049
 40
0.8876974313
 40
0.9098601157
 40
0.9320447948
 40
0.9543802311
 40
0.9769919937
 40
1.0
 40
1.0
 40
1.0
 40
1.0
 10
16.572637638
 20
11.8285880527
 30
0.0
 10
16.5698026723
 20
11.8194141004
 30
0.0
 10
16.5640230794
 20
11.8013078963
 30
0.0
 10
16.5549243012
 20
11.7746117791
 30
0.0
 10
16.545494294
 20
11.7486846569
 30
0.0
 10
16.5357430644
 20
11.7235538467
 30
0.0
 10
16.5256806806
 20
11.6992453859
 30
0.0
 10
16.5153176675
 20
11.6757846588
 30
0.0
 10
16.5046648155
 20
11.6531960789
 30
0.0
 10
16.493733201
 20
11.631503156
 30
0.0
 10
16.4825341732
 20
11.6107284601
 30
0.0
 10
16.4710793325
 20
11.5908935908
 30
0.0
 10
16.4593805314
 20
11.5720191488
 30
0.0
 10
16.4474498342
 20
11.5541247306
 30
0.0
 10
16.4352995024
 20
11.5372289163
 30
0.0
 10
16.4229419687
 20
11.5213492586
 30
0.0
 10
16.410389837
 20
11.5065022578
 30
0.0
 10
16.3976558469
 20
11.4927033731
 30
0.0
 10
16.3847528556
 20
11.4799670366
 30
0.0
 10
16.3716938246
 20
11.4683066711
 30
0.0
 10
16.3584918301
 20
11.4577346943
 30
0.0
 10
16.3451600777
 20
11.4482625368
 30
0.0
 10
16.3317119202
 20
11.4399006873
 30
0.0
 10
16.3181609173
 20
11.432658705
 30
0.0
 10
16.3045209092
 20
11.4265452084
 30
0.0
 10
16.2908061151
 20
11.4215677927
 30
0.0
 10
16.2770311936
 20
11.4177329667
 30
0.0
 10
16.2632112873
 20
11.4150460082
 30
0.0
 10
16.2493620087
 20
11.4135107934
 30
0.0
 10
16.2354993119
 20
11.4131295999
 30
0.0
 10
16.2216394169
 20
11.4139029659
 30
0.0
 10
16.2077981763
 20
11.4158298191
 30
0.0
 10
16.1939924365
 20
11.4189070025
 30
0.0
 10
16.1849138316
 20
11.4216945143
 30
0.0
 10
16.1803960375
 20
11.4232684962
 30
0.0
  0
SPLINE
  5
29A
100
AcDbEntity
  8
LAYER_CHAMFER_FEAT
100
AcDbSpline
 62
7
  6
CONTINUOUS
 70
0
 71
3
 72
15
 73
11
 74
0
 42
0.0000001
 43
0.0000001
 44
0.0000000001
 40
0.0
 40
0.0
 40
0.0
 40
0.0
 40
0.1375058743
 40
0.2714667649
 40
0.4018486241
 40
0.5286396396
 40
0.6518353117
 40
0.7714434042
 40
0.8874860166
 40
1.0
 40
1.0
 40
1.0
 40
1.0
 10
15.9887679426
 20
11.7047616029
 30
0.0
 10
15.9917929859
 20
11.6985972128
 30
0.0
 10
15.9979081661
 20
11.6864968504
 30
0.0
 10
16.0074054333
 20
11.6688170436
 30
0.0
 10
16.0171003864
 20
11.6518581871
 30
0.0
 10
16.0269845916
 20
11.6356350355
 30
0.0
 10
16.037049732
 20
11.6201612658
 30
0.0
 10
16.0472873382
 20
11.6054500346
 30
0.0
 10
16.0576885673
 20
11.591514163
 30
0.0
 10
16.0648356971
 20
11.582611713
 30
0.0
 10
16.0684360968
 20
11.5782982584
 30
0.0
  0
SPLINE
  5
29B
100
AcDbEntity
  8
02___PRT_ALL_AXES
100
AcDbSpline
 62
7
  6
CONTINUOUS
 70
0
 71
3
 72
64
 73
60
 74
0
 42
0.0000001
 43
0.0000001
 44
0.0000000001
 40
0.0
 40
0.0
 40
0.0
 40
0.0
 40
0.0082047254
 40
0.0162541199
 40
0.0242052975
 40
0.0321180466
 40
0.0400532364
 40
0.0480711022
 40
0.0562296032
 40
0.0645830209
 40
0.0731809152
 40
0.0820674717
 40
0.0866319935
 40
0.0912826391
 40
0.1008564419
 40
0.1108177404
 40
0.1211888849
 40
0.1319875552
 40
0.1432271948
 40
0.1549174355
 40
0.1670644933
 40
0.1796715284
 40
0.1927389659
 40
0.2062647791
 40
0.2202447364
 40
0.2346726197
 40
0.249540414
 40
0.2648384743
 40
0.2805556715
 40
0.2966795227
 40
0.313196306
 40
0.3300911651
 40
0.3473482019
 40
0.3649505624
 40
0.3828805161
 40
0.4011195288
 40
0.4196483314
 40
0.4384469834
 40
0.4574949346
 40
0.4767710829
 40
0.4962538306
 40
0.5357494198
 40
0.5758022277
 40
0.6162269577
 40
0.6568352903
 40
0.6974374251
 40
0.7378436115
 40
0.7778656795
 40
0.8173185847
 40
0.836775621
 40
0.856023214
 40
0.8750398276
 40
0.8938044278
 40
0.9122965429
 40
0.9304963084
 40
0.9483845741
 40
0.9659428319
 40
0.9831536322
 40
1.0
 40
1.0
 40
1.0
 40
1.0
 10
16.1803960375
 20
13.5983414903
 30
0.0
 10
16.1855758163
 20
13.6001461046
 30
0.0
 10
16.1959970164
 20
13.6032834306
 30
0.0
 10
16.2118727527
 20
13.6065290364
 30
0.0
 10
16.2277905504
 20
13.6082542968
 30
0.0
 10
16.2437240024
 20
13.6084550234
 30
0.0
 10
16.2596482152
 20
13.6071309137
 30
0.0
 10
16.2755380209
 20
13.6042847836
 30
0.0
 10
16.2913690657
 20
13.5999225647
 30
0.0
 10
16.3071181181
 20
13.5940527176
 30
0.0
 10
16.3227624979
 20
13.5866861937
 30
0.0
 10
16.3355799065
 20
13.5793759269
 30
0.0
 10
16.3457533263
 20
13.5728184613
 30
0.0
 10
16.3560674228
 20
13.5656450287
 30
0.0
 10
16.3688612605
 20
13.5557373707
 30
0.0
 10
16.3838813721
 20
13.5425239517
 30
0.0
 10
16.3986963083
 20
13.5278913371
 30
0.0
 10
16.4132861557
 20
13.5118602896
 30
0.0
 10
16.4276318481
 20
13.4944527802
 30
0.0
 10
16.4417143027
 20
13.4756926909
 30
0.0
 10
16.4555147099
 20
13.45560565
 30
0.0
 10
16.4690145067
 20
13.4342190886
 30
0.0
 10
16.4821954433
 20
13.4115622143
 30
0.0
 10
16.495039622
 20
13.3876659917
 30
0.0
 10
16.5075295435
 20
13.3625631098
 30
0.0
 10
16.5196481427
 20
13.3362879404
 30
0.0
 10
16.5313788247
 20
13.308876492
 30
0.0
 10
16.5427054973
 20
13.2803663602
 30
0.0
 10
16.5536126011
 20
13.2507966755
 30
0.0
 10
16.5640851363
 20
13.2202080477
 30
0.0
 10
16.5741086883
 20
13.188642508
 30
0.0
 10
16.5836694508
 20
13.1561434501
 30
0.0
 10
16.5927542482
 20
13.122755569
 30
0.0
 10
16.6013505572
 20
13.0885247979
 30
0.0
 10
16.6094465237
 20
13.0534982426
 30
0.0
 10
16.6170309807
 20
13.0177241145
 30
0.0
 10
16.6240934637
 20
12.9812516651
 30
0.0
 10
16.6306242306
 20
12.9441311067
 30
0.0
 10
16.636614256
 20
12.9064135847
 30
0.0
 10
16.6420553208
 20
12.8681509431
 30
0.0
 10
16.6485973665
 20
12.8162439812
 30
0.0
 10
16.6553359979
 20
12.7503707191
 30
0.0
 10
16.6610961733
 20
12.6703602311
 30
0.0
 10
16.6645343104
 20
12.5894716753
 30
0.0
 10
16.6656313769
 20
12.5081505045
 30
0.0
 10
16.6643812773
 20
12.4268439359
 30
0.0
 10
16.6607909527
 20
12.3459991035
 30
0.0
 10
16.6548802818
 20
12.2660612185
 30
0.0
 10
16.6480172497
 20
12.2002673959
 30
0.0
 10
16.6413768973
 20
12.1484382543
 30
0.0
 10
16.6358637683
 20
12.1102437439
 30
0.0
 10
16.6298027142
 20
12.072601175
 30
0.0
 10
16.6232020522
 20
12.0355622863
 30
0.0
 10
16.6160709032
 20
11.9991781158
 30
0.0
 10
16.6084191063
 20
11.9634987336
 30
0.0
 10
16.6002572175
 20
11.9285733154
 30
0.0
 10
16.5915964842
 20
11.8944497888
 30
0.0
 10
16.5824488975
 20
11.8611754201
 30
0.0
 10
16.5759628233
 20
11.8393483561
 30
0.0
 10
16.572637638
 20
11.8285880527
 30
0.0
  0
SPLINE
  5
29C
100
AcDbEntity
  8
LAYER_FEATURE
100
AcDbSpline
 62
7
  6
CONTINUOUS
 70
0
 71
3
 72
65
 73
61
 74
0
 42
0.0000001
 43
0.0000001
 44
0.0000000001
 40
0.0
 40
0.0
 40
0.0
 40
0.0
 40
0.0163581411
 40
0.0330511326
 40
0.0500643519
 40
0.067382829
 40
0.0849906935
 40
0.10287155
 40
0.1210084026
 40
0.1393837441
 40
0.1579795905
 40
0.1767775268
 40
0.2149030904
 40
0.2536071519
 40
0.292731066
 40
0.3321131317
 40
0.3715897893
 40
0.4109968027
 40
0.4501704347
 40
0.4889486244
 40
0.5271721825
 40
0.5460278405
 40
0.5646870855
 40
0.5831313805
 40
0.601342606
 40
0.6193031035
 40
0.6369957206
 40
0.6544038591
 40
0.6715115246
 40
0.6883033787
 40
0.7047647953
 40
0.7208819205
 40
0.7366417377
 40
0.7520321387
 40
0.7670420012
 40
0.7816612754
 40
0.7958810798
 40
0.8096938083
 40
0.8230932496
 40
0.8360747244
 40
0.8486352385
 40
0.8607736588
 40
0.8724909121
 40
0.8837902091
 40
0.894677299
 40
0.9051607489
 40
0.9152522506
 40
0.9249669473
 40
0.9343237685
 40
0.9433457522
 40
0.952060325
 40
0.9604994964
 40
0.9686999153
 40
0.9767027299
 40
0.9806449357
 40
0.9845550217
 40
0.9884391737
 40
0.9923037317
 40
0.9961551592
 40
1.0
 40
1.0
 40
1.0
 40
1.0
 10
15.7494641067
 20
13.4059233472
 30
0.0
 10
15.745351345
 20
13.3926144454
 30
0.0
 10
15.7373169384
 20
13.365638376
 30
0.0
 10
15.725943769
 20
13.3245482299
 30
0.0
 10
15.7151373963
 20
13.2824605108
 30
0.0
 10
15.7049111331
 20
13.2394271059
 30
0.0
 10
15.6952775148
 20
13.1955005587
 30
0.0
 10
15.6862483659
 20
13.1507347457
 30
0.0
 10
15.6778347687
 20
13.105184483
 30
0.0
 10
15.6700470659
 20
13.0589056216
 30
0.0
 10
15.662894766
 20
13.0119547589
 30
0.0
 10
15.6541768446
 20
12.948237351
 30
0.0
 10
15.6449475038
 20
12.867316936
 30
0.0
 10
15.6365788394
 20
12.7689183396
 30
0.0
 10
15.6309068008
 20
12.6692557237
 30
0.0
 10
15.627959332
 20
12.5688175492
 30
0.0
 10
15.6277509625
 20
12.4680953189
 30
0.0
 10
15.6302827138
 20
12.3675822268
 30
0.0
 10
15.6355421025
 20
12.2677701501
 30
0.0
 10
15.6435032328
 20
12.169148288
 30
0.0
 10
15.6523958921
 20
12.0879933862
 30
0.0
 10
15.6608478935
 20
12.0240519645
 30
0.0
 10
15.6678052507
 20
11.9769082205
 30
0.0
 10
15.6754007621
 20
11.9304190683
 30
0.0
 10
15.6836251559
 20
11.884641367
 30
0.0
 10
15.6924683213
 20
11.8396312426
 30
0.0
 10
15.7019194075
 20
11.7954438365
 30
0.0
 10
15.7119668132
 20
11.7521332836
 30
0.0
 10
15.7225982071
 20
11.7097526325
 30
0.0
 10
15.7338005445
 20
11.6683537828
 30
0.0
 10
15.7455600841
 20
11.6279874205
 30
0.0
 10
15.7578624061
 20
11.5887029543
 30
0.0
 10
15.7706924317
 20
11.5505484541
 30
0.0
 10
15.7840344441
 20
11.5135705903
 30
0.0
 10
15.7978721101
 20
11.4778145751
 30
0.0
 10
15.8121885049
 20
11.4433241047
 30
0.0
 10
15.826966134
 20
11.4101413027
 30
0.0
 10
15.8421869642
 20
11.3783066691
 30
0.0
 10
15.8578324526
 20
11.3478590303
 30
0.0
 10
15.8738835786
 20
11.3188354933
 30
0.0
 10
15.8903208788
 20
11.2912714024
 30
0.0
 10
15.9071244843
 20
11.2652003019
 30
0.0
 10
15.924274161
 20
11.2406539043
 30
0.0
 10
15.9417493528
 20
11.2176620678
 30
0.0
 10
15.9595292226
 20
11.1962527813
 30
0.0
 10
15.9775926952
 20
11.1764521664
 30
0.0
 10
15.9959184929
 20
11.1582844965
 30
0.0
 10
16.0144851605
 20
11.1417722323
 30
0.0
 10
16.0332710531
 20
11.126936074
 30
0.0
 10
16.0522543378
 20
11.1137950167
 30
0.0
 10
16.0714127712
 20
11.1023664281
 30
0.0
 10
16.0907240516
 20
11.0926659928
 30
0.0
 10
16.1101638827
 20
11.0847079497
 30
0.0
 10
16.1265358434
 20
11.0795119588
 30
0.0
 10
16.1396428523
 20
11.0762574903
 30
0.0
 10
16.1494406168
 20
11.0742689507
 30
0.0
 10
16.1592506332
 20
11.0727216242
 30
0.0
 10
16.1690700794
 20
11.0716160357
 30
0.0
 10
16.1788955313
 20
11.0709524947
 30
0.0
 10
16.1854502948
 20
11.0708049983
 30
0.0
 10
16.1887243947
 20
11.070805001
 30
0.0
  0
SPLINE
  5
29D
100
AcDbEntity
  8
LAYER_FEATURE
100
AcDbSpline
 62
7
  6
CONTINUOUS
 70
0
 71
3
 72
23
 73
19
 74
0
 42
0.0000001
 43
0.0000001
 44
0.0000000001
 40
0.0
 40
0.0
 40
0.0
 40
0.0
 40
0.05356838
 40
0.1073864581
 40
0.1616996569
 40
0.2167451621
 40
0.2727484633
 40
0.329920583
 40
0.3884561441
 40
0.4485321495
 40
0.5103073709
 40
0.5739224214
 40
0.6395002372
 40
0.7071467585
 40
0.7769518703
 40
0.8489905325
 40
0.9233238379
 40
1.0
 40
1.0
 40
1.0
 40
1.0
 10
14.7534174291
 20
13.9508049924
 30
0.0
 10
14.7588273168
 20
13.9508049886
 30
0.0
 10
14.7696765926
 20
13.9504011363
 30
0.0
 10
14.7859196076
 20
13.9485858788
 30
0.0
 10
14.8021340086
 20
13.9455627347
 30
0.0
 10
14.8183041471
 20
13.9413349715
 30
0.0
 10
14.8344161886
 20
13.9359070481
 30
0.0
 10
14.8504562421
 20
13.9292845243
 30
0.0
 10
14.8664108449
 20
13.9214738856
 30
0.0
 10
14.8822667743
 20
13.9124824914
 30
0.0
 10
14.8980110816
 20
13.9023186051
 30
0.0
 10
14.9136310006
 20
13.8909912984
 30
0.0
 10
14.9291138956
 20
13.8785104412
 30
0.0
 10
14.9444472709
 20
13.8648867546
 30
0.0
 10
14.9596187351
 20
13.850131846
 30
0.0
 10
14.9746160479
 20
13.834258063
 30
0.0
 10
14.9894267815
 20
13.8172789685
 30
0.0
 10
14.9990183999
 20
13.8054173695
 30
0.0
 10
15.0037826407
 20
13.7993128978
 30
0.0
  0
SPLINE
  5
29E
100
AcDbEntity
  8
LAYER_FEATURE
100
AcDbSpline
 62
7
  6
CONTINUOUS
 70
0
 71
3
 72
23
 73
19
 74
0
 42
0.0000001
 43
0.0000001
 44
0.0000000001
 40
0.0
 40
0.0
 40
0.0
 40
0.0
 40
0.053566673
 40
0.1073830992
 40
0.161694759
 40
0.216738893
 40
0.2727410238
 40
0.3299122186
 40
0.3884471447
 40
0.4485228159
 40
0.5102980166
 40
0.5739133891
 40
0.6394918793
 40
0.707139402
 40
0.7769458559
 40
0.8489862125
 40
0.9233215264
 40
1.0
 40
1.0
 40
1.0
 40
1.0
 10
14.7534174291
 20
11.0708049934
 30
0.0
 10
14.7588280231
 20
11.0708049896
 30
0.0
 10
14.7696787226
 20
11.0712089654
 30
0.0
 10
14.7859238619
 20
11.073024685
 30
0.0
 10
14.8021403761
 20
11.0760486187
 30
0.0
 10
14.8183126057
 20
11.080277498
 30
0.0
 10
14.8344267189
 20
11.0857068327
 30
0.0
 10
14.8504688168
 20
11.0923310749
 30
0.0
 10
14.8664254243
 20
11.1001437503
 30
0.0
 10
14.8822833216
 20
11.1091374765
 30
0.0
 10
14.8980295575
 20
11.1193039839
 30
0.0
 10
14.9136513545
 20
11.1306342095
 30
0.0
 10
14.9291360682
 20
11.1431182805
 30
0.0
 10
14.9444712134
 20
11.1567454507
 30
0.0
 10
14.9596443854
 20
11.1715041199
 30
0.0
 10
14.9746433308
 20
11.187381942
 30
0.0
 10
14.98945563
 20
11.2043653334
 30
0.0
 10
14.9990482179
 20
11.2162298964
 30
0.0
 10
15.0038129271
 20
11.2223358942
 30
0.0
  0
SPLINE
  5
29F
100
AcDbEntity
  8
LAYER_FEATURE
100
AcDbSpline
 62
7
  6
CONTINUOUS
 70
0
 71
3
 72
65
 73
61
 74
0
 42
0.0000001
 43
0.0000001
 44
0.0000000001
 40
0.0
 40
0.0
 40
0.0
 40
0.0
 40
0.0038448408
 40
0.0076962683
 40
0.0115608263
 40
0.0154449783
 40
0.0193550643
 40
0.0232972701
 40
0.0313000847
 40
0.0395005036
 40
0.047939675
 40
0.0566542478
 40
0.0656762315
 40
0.0750330527
 40
0.0847477494
 40
0.0948392511
 40
0.105322701
 40
0.1162097909
 40
0.1275090879
 40
0.1392263412
 40
0.1513647615
 40
0.1639252756
 40
0.1769067504
 40
0.1903061917
 40
0.2041189202
 40
0.2183387246
 40
0.2329579988
 40
0.2479678613
 40
0.2633582623
 40
0.2791180795
 40
0.2952352047
 40
0.3116966213
 40
0.3284884754
 40
0.3455961409
 40
0.3630042794
 40
0.3806968965
 40
0.398657394
 40
0.4168686195
 40
0.4353129145
 40
0.4539721595
 40
0.4728278175
 40
0.5110513756
 40
0.5498295653
 40
0.5890031973
 40
0.6284102107
 40
0.6678868683
 40
0.707268934
 40
0.7463928481
 40
0.7850969096
 40
0.8232224732
 40
0.8420204095
 40
0.8606162559
 40
0.8789915974
 40
0.89712845
 40
0.9150093065
 40
0.932617171
 40
0.9499356481
 40
0.9669488674
 40
0.9836418589
 40
1.0
 40
1.0
 40
1.0
 40
1.0
 10
16.2452226773
 20
13.9508049848
 30
0.0
 10
16.2484967772
 20
13.9508049875
 30
0.0
 10
16.2550515407
 20
13.9506574911
 30
0.0
 10
16.2648769927
 20
13.9499939501
 30
0.0
 10
16.2746964388
 20
13.9488883616
 30
0.0
 10
16.2845064552
 20
13.9473410351
 30
0.0
 10
16.2943042198
 20
13.9453524955
 30
0.0
 10
16.3074112286
 20
13.942098027
 30
0.0
 10
16.3237831893
 20
13.9369020361
 30
0.0
 10
16.3432230204
 20
13.928943993
 30
0.0
 10
16.3625343008
 20
13.9192435577
 30
0.0
 10
16.3816927343
 20
13.9078149691
 30
0.0
 10
16.400676019
 20
13.8946739119
 30
0.0
 10
16.4194619115
 20
13.8798377535
 30
0.0
 10
16.4380285791
 20
13.8633254893
 30
0.0
 10
16.4563543768
 20
13.8451578195
 30
0.0
 10
16.4744178494
 20
13.8253572045
 30
0.0
 10
16.4921977192
 20
13.803947918
 30
0.0
 10
16.509672911
 20
13.7809560815
 30
0.0
 10
16.5268225877
 20
13.756409684
 30
0.0
 10
16.5436261932
 20
13.7303385834
 30
0.0
 10
16.5600634934
 20
13.7027744925
 30
0.0
 10
16.5761146195
 20
13.6737509555
 30
0.0
 10
16.5917601078
 20
13.6433033168
 30
0.0
 10
16.606980938
 20
13.6114686831
 30
0.0
 10
16.6217585671
 20
13.5782858811
 30
0.0
 10
16.6360749619
 20
13.5437954107
 30
0.0
 10
16.6499126279
 20
13.5080393955
 30
0.0
 10
16.6632546403
 20
13.4710615318
 30
0.0
 10
16.6760846659
 20
13.4329070315
 30
0.0
 10
16.6883869879
 20
13.3936225654
 30
0.0
 10
16.7001465275
 20
13.353256203
 30
0.0
 10
16.7113488649
 20
13.3118573533
 30
0.0
 10
16.7219802589
 20
13.2694767022
 30
0.0
 10
16.7320276645
 20
13.2261661493
 30
0.0
 10
16.7414787507
 20
13.1819787432
 30
0.0
 10
16.7503219161
 20
13.1369686189
 30
0.0
 10
16.7585463099
 20
13.0911909175
 30
0.0
 10
16.7661418213
 20
13.0447017653
 30
0.0
 10
16.7730991785
 20
12.9975580213
 30
0.0
 10
16.7815511799
 20
12.9336165996
 30
0.0
 10
16.7904438392
 20
12.8524616978
 30
0.0
 10
16.7984049696
 20
12.7538398357
 30
0.0
 10
16.8036643583
 20
12.654027759
 30
0.0
 10
16.8061961095
 20
12.5535146669
 30
0.0
 10
16.80598774
 20
12.4527924366
 30
0.0
 10
16.8030402712
 20
12.3523542621
 30
0.0
 10
16.7973682326
 20
12.2526916462
 30
0.0
 10
16.7889995682
 20
12.1542930499
 30
0.0
 10
16.7797702274
 20
12.0733726348
 30
0.0
 10
16.771052306
 20
12.0096552269
 30
0.0
 10
16.7639000061
 20
11.9627043642
 30
0.0
 10
16.7561123033
 20
11.9164255028
 30
0.0
 10
16.7476987062
 20
11.8708752401
 30
0.0
 10
16.7386695572
 20
11.8261094271
 30
0.0
 10
16.7290359389
 20
11.7821828799
 30
0.0
 10
16.7188096757
 20
11.7391494751
 30
0.0
 10
16.708003303
 20
11.6970617559
 30
0.0
 10
16.6966301336
 20
11.6559716098
 30
0.0
 10
16.688595727
 20
11.6289955404
 30
0.0
 10
16.6844829653
 20
11.6156866386
 30
0.0
  0
SPLINE
  5
2A0
100
AcDbEntity
  8
LAYER_FEATURE
100
AcDbSpline
 62
7
  6
CONTINUOUS
 70
0
 71
3
 72
39
 73
35
 74
0
 42
0.0000001
 43
0.0000001
 44
0.0000000001
 40
0.0
 40
0.0
 40
0.0
 40
0.0
 40
0.02127698
 40
0.0426477422
 40
0.0642045501
 40
0.0860367276
 40
0.1082294289
 40
0.13086263
 40
0.1540103821
 40
0.1777403583
 40
0.2021136209
 40
0.227184563
 40
0.2530010579
 40
0.2796047152
 40
0.3070311728
 40
0.3353104595
 40
0.3644674098
 40
0.3945220365
 40
0.4254898723
 40
0.4573823633
 40
0.4902072054
 40
0.5239686104
 40
0.558667601
 40
0.5943022909
 40
0.6308680905
 40
0.6683578916
 40
0.706762302
 40
0.7460698023
 40
0.7862668438
 40
0.8273381185
 40
0.8692664962
 40
0.9120330786
 40
0.9556187218
 40
1.0
 40
1.0
 40
1.0
 40
1.0
 10
16.2452226773
 20
11.070805001
 30
0.0
 10
16.2504825585
 20
11.0708050054
 30
0.0
 10
16.2610294434
 20
11.0711866629
 30
0.0
 10
16.2768214299
 20
11.072902351
 30
0.0
 10
16.2925872235
 20
11.075759831
 30
0.0
 10
16.3083124777
 20
11.0797561763
 30
0.0
 10
16.3239844822
 20
11.084887448
 30
0.0
 10
16.3395904345
 20
11.0911487422
 30
0.0
 10
16.3551179322
 20
11.0985342404
 30
0.0
 10
16.3705547863
 20
11.1070373478
 30
0.0
 10
16.3858890143
 20
11.1166507167
 30
0.0
 10
16.4011088311
 20
11.1273662012
 30
0.0
 10
16.4162025861
 20
11.1391749272
 30
0.0
 10
16.4311587245
 20
11.1520672978
 30
0.0
 10
16.4459658029
 20
11.1660329364
 30
0.0
 10
16.4606124842
 20
11.1810606831
 30
0.0
 10
16.4750875039
 20
11.1971386257
 30
0.0
 10
16.4893796853
 20
11.2142540715
 30
0.0
 10
16.503477989
 20
11.2323935101
 30
0.0
 10
16.5173714767
 20
11.2515426596
 30
0.0
 10
16.5310493197
 20
11.2716864671
 30
0.0
 10
16.5445008535
 20
11.2928090804
 30
0.0
 10
16.5577155702
 20
11.314893874
 30
0.0
 10
16.5706831069
 20
11.3379234768
 30
0.0
 10
16.5833932775
 20
11.3618797647
 30
0.0
 10
16.5958361104
 20
11.3867438615
 30
0.0
 10
16.6080018133
 20
11.4124961806
 30
0.0
 10
16.6198807853
 20
11.439116431
 30
0.0
 10
16.6314636822
 20
11.4665836255
 30
0.0
 10
16.6427413641
 20
11.494876098
 30
0.0
 10
16.6537048996
 20
11.5239714762
 30
0.0
 10
16.6643457234
 20
11.5538470013
 30
0.0
 10
16.6746552682
 20
11.5844787643
 30
0.0
 10
16.6812436607
 20
11.605204245
 30
0.0
 10
16.6844829653
 20
11.6156866386
 30
0.0
  0
SPLINE
  5
2A1
100
AcDbEntity
  8
LAYER_CHAMFER_FEAT
100
AcDbSpline
 62
7
  6
CONTINUOUS
 70
0
 71
3
 72
53
 73
49
 74
0
 42
0.0000001
 43
0.0000001
 44
0.0000000001
 40
0.0
 40
0.0
 40
0.0
 40
0.0
 40
0.010161457
 40
0.0206687214
 40
0.0315254941
 40
0.0427337805
 40
0.0542940544
 40
0.066205392
 40
0.0784655817
 40
0.0910712462
 40
0.1040179447
 40
0.1173002521
 40
0.1309118303
 40
0.144845512
 40
0.1590933628
 40
0.1736467281
 40
0.1884962872
 40
0.2036321099
 40
0.2190436969
 40
0.2347200102
 40
0.2668192392
 40
0.2998333662
 40
0.333658541
 40
0.3681855703
 40
0.4033007739
 40
0.4388868212
 40
0.4748235159
 40
0.5109885593
 40
0.5472583005
 40
0.5835084698
 40
0.6196149129
 40
0.655454326
 40
0.6909049887
 40
0.7258475267
 40
0.760165668
 40
0.7937470585
 40
0.8264840851
 40
0.8582747836
 40
0.8737857305
 40
0.8890249455
 40
0.9039817208
 40
0.9186459076
 40
0.9330079537
 40
0.9470589701
 40
0.9607907359
 40
0.9741957049
 40
0.9872675749
 40
1.0
 40
1.0
 40
1.0
 40
1.0
 10
16.0684360968
 20
13.4433117271
 30
0.0
 10
16.0645229577
 20
13.4386235852
 30
0.0
 10
16.0567604513
 20
13.4289218439
 30
0.0
 10
16.0454938657
 20
13.4136852203
 30
0.0
 10
16.0344218736
 20
13.397537849
 30
0.0
 10
16.0235557306
 20
13.380496267
 30
0.0
 10
16.0129061782
 20
13.3625774751
 30
0.0
 10
16.0024838833
 20
13.3437994745
 30
0.0
 10
15.992299256
 20
13.3241811238
 30
0.0
 10
15.982362505
 20
13.3037421411
 30
0.0
 10
15.9726836153
 20
13.2825030683
 30
0.0
 10
15.9632723268
 20
13.2604852666
 30
0.0
 10
15.9541380994
 20
13.2377109037
 30
0.0
 10
15.9452901353
 20
13.2142029111
 30
0.0
 10
15.9367373664
 20
13.1899849614
 30
0.0
 10
15.9284884193
 20
13.1650814606
 30
0.0
 10
15.9205516063
 20
13.1395175114
 30
0.0
 10
15.9129349569
 20
13.1133189034
 30
0.0
 10
15.9056461238
 20
13.0865119869
 30
0.0
 10
15.8963012999
 20
13.0497050948
 30
0.0
 10
15.8855134248
 20
13.002357975
 30
0.0
 10
15.8740850997
 20
12.9439995056
 30
0.0
 10
15.8641202554
 20
12.8838942125
 30
0.0
 10
15.8556593306
 20
12.8222846675
 30
0.0
 10
15.8487365953
 20
12.759419006
 30
0.0
 10
15.8433801348
 20
12.6955506871
 30
0.0
 10
15.8396116704
 20
12.6309372327
 30
0.0
 10
15.8374464765
 20
12.5658392284
 30
0.0
 10
15.8368933558
 20
12.5005192389
 30
0.0
 10
15.8379545221
 20
12.435240738
 30
0.0
 10
15.8406257081
 20
12.3702670302
 30
0.0
 10
15.8448960381
 20
12.3058601709
 30
0.0
 10
15.8507482355
 20
12.2422799014
 30
0.0
 10
15.8581585271
 20
12.1797825612
 30
0.0
 10
15.8670969012
 20
12.1186201034
 30
0.0
 10
15.8775271039
 20
12.0590388176
 30
0.0
 10
15.8894068674
 20
12.0012791438
 30
0.0
 10
15.9005640276
 20
11.9544812533
 30
0.0
 10
15.9101967063
 20
11.9181502504
 30
0.0
 10
15.9176928418
 20
11.8917231897
 30
0.0
 10
15.9255119798
 20
11.8659211439
 30
0.0
 10
15.9336462841
 20
11.8407700691
 30
0.0
 10
15.942087515
 20
11.816295325
 30
0.0
 10
15.9508271666
 20
11.7925215676
 30
0.0
 10
15.959856417
 20
11.7694728157
 30
0.0
 10
15.9691662131
 20
11.7471720727
 30
0.0
 10
15.9787470747
 20
11.7256421778
 30
0.0
 10
15.9853970329
 20
11.7116307946
 30
0.0
 10
15.9887679426
 20
11.7047616029
 30
0.0
  0
SPLINE
  5
2A2
100
AcDbEntity
  8
LAYER_CHAMFER_FEAT
100
AcDbSpline
 62
7
  6
CONTINUOUS
 70
0
 71
3
 72
20
 73
16
 74
0
 42
0.0000001
 43
0.0000001
 44
0.0000000001
 40
0.0
 40
0.0
 40
0.0
 40
0.0
 40
0.1464439261
 40
0.2167384233
 40
0.2851595186
 40
0.416670424
 40
0.5417653481
 40
0.6022183116
 40
0.6614406346
 40
0.7195814368
 40
0.7768010884
 40
0.8332701217
 40
0.8891679245
 40
0.9446808103
 40
1.0
 40
1.0
 40
1.0
 40
1.0
 10
16.0572434909
 20
11.5924051223
 30
0.0
 10
16.063056684
 20
11.5860774949
 30
0.0
 10
16.0719815083
 20
11.5769968575
 30
0.0
 10
16.0843936406
 20
11.565771425
 30
0.0
 10
16.096581159
 20
11.5556234682
 30
0.0
 10
16.1120065757
 20
11.5443638532
 30
0.0
 10
16.1280421379
 20
11.5348649804
 30
0.0
 10
16.1409491743
 20
11.5285525034
 30
0.0
 10
16.1505646052
 20
11.5244886434
 30
0.0
 10
16.1602181148
 20
11.5210449657
 30
0.0
 10
16.1699037614
 20
11.5182238063
 30
0.0
 10
16.1796152171
 20
11.5160273592
 30
0.0
 10
16.1893462679
 20
11.5144571983
 30
0.0
 10
16.1990899548
 20
11.5135146514
 30
0.0
 10
16.2055949289
 20
11.5133049903
 30
0.0
 10
16.2088407681
 20
11.5133049958
 30
0.0
  0
SPLINE
  5
2A3
100
AcDbEntity
  8
LAYER_FEATURE
100
AcDbSpline
 62
7
  6
CONTINUOUS
 70
0
 71
3
 72
39
 73
35
 74
0
 42
0.0000001
 43
0.0000001
 44
0.0000000001
 40
0.0
 40
0.0
 40
0.0
 40
0.0
 40
0.0443812782
 40
0.0879669214
 40
0.1307335038
 40
0.1726618815
 40
0.2137331562
 40
0.2539301977
 40
0.293237698
 40
0.3316421084
 40
0.3691319095
 40
0.4056977091
 40
0.441332399
 40
0.4760313896
 40
0.5097927946
 40
0.5426176367
 40
0.5745101277
 40
0.6054779635
 40
0.6355325902
 40
0.6646895405
 40
0.6929688272
 40
0.7203952848
 40
0.7469989421
 40
0.772815437
 40
0.7978863791
 40
0.8222596417
 40
0.8459896179
 40
0.86913737
 40
0.8917705711
 40
0.9139632724
 40
0.9357954499
 40
0.9573522578
 40
0.97872302
 40
1.0
 40
1.0
 40
1.0
 40
1.0
 10
15.7494641067
 20
13.4059233472
 30
0.0
 10
15.7527034113
 20
13.4164057408
 30
0.0
 10
15.7592918038
 20
13.4371312215
 30
0.0
 10
15.7696013486
 20
13.4677629845
 30
0.0
 10
15.7802421724
 20
13.4976385096
 30
0.0
 10
15.7912057079
 20
13.5267338878
 30
0.0
 10
15.8024833898
 20
13.5550263603
 30
0.0
 10
15.8140662867
 20
13.5824935548
 30
0.0
 10
15.8259452587
 20
13.6091138052
 30
0.0
 10
15.8381109616
 20
13.6348661243
 30
0.0
 10
15.8505537945
 20
13.6597302211
 30
0.0
 10
15.8632639651
 20
13.6836865091
 30
0.0
 10
15.8762315018
 20
13.7067161119
 30
0.0
 10
15.8894462185
 20
13.7288009054
 30
0.0
 10
15.9028977523
 20
13.7499235188
 30
0.0
 10
15.9165755954
 20
13.7700673262
 30
0.0
 10
15.930469083
 20
13.7892164757
 30
0.0
 10
15.9445673867
 20
13.8073559144
 30
0.0
 10
15.9588595681
 20
13.8244713601
 30
0.0
 10
15.9733345878
 20
13.8405493027
 30
0.0
 10
15.9879812692
 20
13.8555770494
 30
0.0
 10
16.0027883475
 20
13.869542688
 30
0.0
 10
16.0177444859
 20
13.8824350586
 30
0.0
 10
16.0328382409
 20
13.8942437846
 30
0.0
 10
16.0480580577
 20
13.9049592691
 30
0.0
 10
16.0633922857
 20
13.914572638
 30
0.0
 10
16.0788291398
 20
13.9230757454
 30
0.0
 10
16.0943566375
 20
13.9304612436
 30
0.0
 10
16.1099625898
 20
13.9367225378
 30
0.0
 10
16.1256345943
 20
13.9418538095
 30
0.0
 10
16.1413598485
 20
13.9458501548
 30
0.0
 10
16.1571256422
 20
13.9487076348
 30
0.0
 10
16.1729176286
 20
13.9504233229
 30
0.0
 10
16.1834645135
 20
13.9508049804
 30
0.0
 10
16.1887243947
 20
13.9508049848
 30
0.0
  0
SPLINE
  5
2A4
100
AcDbEntity
  8
LAYER_CHAMFER_FEAT
100
AcDbSpline
 62
7
  6
CONTINUOUS
 70
0
 71
3
 72
21
 73
17
 74
0
 42
0.0000001
 43
0.0000001
 44
0.0000000001
 40
0.0
 40
0.0
 40
0.0
 40
0.0
 40
0.0552287646
 40
0.1106539654
 40
0.1664694675
 40
0.2228641453
 40
0.280019636
 40
0.3381086229
 40
0.3972931987
 40
0.4577240312
 40
0.5828257347
 40
0.6477759298
 40
0.7144513162
 40
0.7829412947
 40
0.8533237118
 40
1.0
 40
1.0
 40
1.0
 40
1.0
 10
16.2088407681
 20
13.50830499
 30
0.0
 10
16.2055693005
 20
13.5083049845
 30
0.0
 10
16.1990127519
 20
13.5080920153
 30
0.0
 10
16.1891920443
 20
13.5071344531
 30
0.0
 10
16.1793842751
 20
13.5055393954
 30
0.0
 10
16.1695966049
 20
13.5033080525
 30
0.0
 10
16.1598353487
 20
13.5004422195
 30
0.0
 10
16.1501070581
 20
13.4969440233
 30
0.0
 10
16.1404176692
 20
13.4928159327
 30
0.0
 10
16.1274109384
 20
13.4864031997
 30
0.0
 10
16.1146465357
 20
13.4787797835
 30
0.0
 10
16.1021755121
 20
13.4700711495
 30
0.0
 10
16.0927729702
 20
13.4628457405
 30
0.0
 10
16.0834458696
 20
13.4550137637
 30
0.0
 10
16.0709464697
 20
13.4436128704
 30
0.0
 10
16.0619630201
 20
13.4343927645
 30
0.0
 10
16.0561130519
 20
13.4279689601
 30
0.0
  0
SPLINE
  5
2A5
100
AcDbEntity
  8
LAYER_FEATURE
100
AcDbSpline
 62
7
  6
CONTINUOUS
 70
0
 71
3
 72
65
 73
61
 74
0
 42
0.0000001
 43
0.0000001
 44
0.0000000001
 40
0.0
 40
0.0
 40
0.0
 40
0.0
 40
0.0163581274
 40
0.0330511407
 40
0.0500643495
 40
0.0673828297
 40
0.0849906932
 40
0.1028715495
 40
0.1210084023
 40
0.1393837445
 40
0.1579795913
 40
0.1767775275
 40
0.2149030903
 40
0.2536071517
 40
0.2927310665
 40
0.3321131319
 40
0.3715897894
 40
0.4109968032
 40
0.4501704346
 40
0.488948624
 40
0.5271721835
 40
0.5460278416
 40
0.5646870863
 40
0.5831313806
 40
0.6013426054
 40
0.6193031026
 40
0.6369957203
 40
0.6544038599
 40
0.6715115259
 40
0.6883033798
 40
0.7047647958
 40
0.7208819204
 40
0.7366417373
 40
0.7520321385
 40
0.7670420015
 40
0.781661276
 40
0.7958810802
 40
0.8096938084
 40
0.8230932498
 40
0.8360747248
 40
0.8486352393
 40
0.8607736598
 40
0.8724909124
 40
0.8837902087
 40
0.8946772983
 40
0.9051607485
 40
0.915252251
 40
0.9249669486
 40
0.9343237702
 40
0.9433457534
 40
0.9520603251
 40
0.9604994957
 40
0.9686999146
 40
0.9767027296
 40
0.9806449357
 40
0.9845550219
 40
0.9884391734
 40
0.992303732
 40
0.996155159
 40
1.0
 40
1.0
 40
1.0
 40
1.0
 10
14.2576588585
 20
13.4059233472
 30
0.0
 10
14.2535461002
 20
13.3926144566
 30
0.0
 10
14.2455116934
 20
13.3656383801
 30
0.0
 10
14.2341385215
 20
13.3245482368
 30
0.0
 10
14.223332149
 20
13.2824605049
 30
0.0
 10
14.213105885
 20
13.2394271076
 30
0.0
 10
14.2034722661
 20
13.195500559
 30
0.0
 10
14.1944431162
 20
13.1507347471
 30
0.0
 10
14.1860295189
 20
13.1051844838
 30
0.0
 10
14.1782418185
 20
13.0589056209
 30
0.0
 10
14.1710895203
 20
13.0119547572
 30
0.0
 10
14.162371599
 20
12.9482373498
 30
0.0
 10
14.1531422549
 20
12.8673169361
 30
0.0
 10
14.1447735862
 20
12.7689183403
 30
0.0
 10
14.1391015558
 20
12.6692557237
 30
0.0
 10
14.1361540883
 20
12.568817549
 30
0.0
 10
14.1359457112
 20
12.4680953186
 30
0.0
 10
14.1384774613
 20
12.3675822267
 30
0.0
 10
14.1437368585
 20
12.267770151
 30
0.0
 10
14.1516979887
 20
12.1691482887
 30
0.0
 10
14.1605906405
 20
12.087993385
 30
0.0
 10
14.169042642
 20
12.0240519623
 30
0.0
 10
14.1760000012
 20
11.9769082195
 30
0.0
 10
14.183595515
 20
11.9304190692
 30
0.0
 10
14.1918199104
 20
11.8846413696
 30
0.0
 10
14.2006630762
 20
11.8396312457
 30
0.0
 10
14.2101141607
 20
11.7954438381
 30
0.0
 10
14.2201615635
 20
11.7521332827
 30
0.0
 10
14.2307929566
 20
11.7097526302
 30
0.0
 10
14.241995295
 20
11.6683537811
 30
0.0
 10
14.2537548359
 20
11.6279874204
 30
0.0
 10
14.2660571588
 20
11.5887029557
 30
0.0
 10
14.2788871848
 20
11.5505484563
 30
0.0
 10
14.2922291968
 20
11.513570592
 30
0.0
 10
14.3060668618
 20
11.4778145756
 30
0.0
 10
14.320383256
 20
11.4433241044
 30
0.0
 10
14.3351608857
 20
11.4101413028
 30
0.0
 10
14.3503817163
 20
11.3783066697
 30
0.0
 10
14.3660272047
 20
11.347859031
 30
0.0
 10
14.3820783304
 20
11.3188354933
 30
0.0
 10
14.3985156301
 20
11.2912714013
 30
0.0
 10
14.4153192349
 20
11.2652003004
 30
0.0
 10
14.4324689126
 20
11.2406539049
 30
0.0
 10
14.4499441058
 20
11.2176620713
 30
0.0
 10
14.4677239757
 20
11.1962527858
 30
0.0
 10
14.4857874478
 20
11.1764521694
 30
0.0
 10
14.5041132446
 20
11.1582844964
 30
0.0
 10
14.5226799113
 20
11.1417722283
 30
0.0
 10
14.5414658029
 20
11.1269360677
 30
0.0
 10
14.5604490884
 20
11.1137950131
 30
0.0
 10
14.5796075238
 20
11.1023664318
 30
0.0
 10
14.5989188048
 20
11.0926660014
 30
0.0
 10
14.6183586355
 20
11.084707959
 30
0.0
 10
14.6347305947
 20
11.0795119603
 30
0.0
 10
14.6478376047
 20
11.0762574949
 30
0.0
 10
14.6576353664
 20
11.0742689392
 30
0.0
 10
14.6674453877
 20
11.0727216452
 30
0.0
 10
14.6772648287
 20
11.0716160119
 30
0.0
 10
14.6870902844
 20
11.0709525193
 30
0.0
 10
14.6936450464
 20
11.0708049957
 30
0.0
 10
14.6969191464
 20
11.0708049934
 30
0.0
  0
SPLINE
  5
2A6
100
AcDbEntity
  8
LAYER_FEATURE
100
AcDbSpline
 62
7
  6
CONTINUOUS
 70
0
 71
3
 72
39
 73
35
 74
0
 42
0.0000001
 43
0.0000001
 44
0.0000000001
 40
0.0
 40
0.0
 40
0.0
 40
0.0
 40
0.0443812161
 40
0.0879669375
 40
0.1307335144
 40
0.17266187
 40
0.2137331579
 40
0.2539302009
 40
0.2932376948
 40
0.3316421066
 40
0.3691319128
 40
0.4056977088
 40
0.4413323949
 40
0.4760313922
 40
0.509792798
 40
0.5426176311
 40
0.574510128
 40
0.6054779696
 40
0.6355325855
 40
0.6646895377
 40
0.6929688335
 40
0.7203952838
 40
0.7469989369
 40
0.7728154411
 40
0.7978863818
 40
0.8222596365
 40
0.8459896189
 40
0.8691373741
 40
0.8917705685
 40
0.9139632712
 40
0.9357954525
 40
0.957352258
 40
0.9787230193
 40
1.0
 40
1.0
 40
1.0
 40
1.0
 10
14.2576588585
 20
13.4059233472
 30
0.0
 10
14.2608981586
 20
13.4164057261
 30
0.0
 10
14.2674865542
 20
13.4371312099
 30
0.0
 10
14.277796097
 20
13.4677629763
 30
0.0
 10
14.2884369235
 20
13.4976385138
 30
0.0
 10
14.2994004626
 20
13.5267338868
 30
0.0
 10
14.3106781413
 20
13.5550263585
 30
0.0
 10
14.3222610356
 20
13.5824935564
 30
0.0
 10
14.3341400128
 20
13.6091138036
 30
0.0
 10
14.3463057154
 20
13.6348661226
 30
0.0
 10
14.3587485428
 20
13.6597302229
 30
0.0
 10
14.3714587169
 20
13.6836865085
 30
0.0
 10
14.384426258
 20
13.7067161085
 30
0.0
 10
14.397640968
 20
13.728800907
 30
0.0
 10
14.4110925
 20
13.7499235213
 30
0.0
 10
14.4247703536
 20
13.7700673208
 30
0.0
 10
14.4386638348
 20
13.7892164754
 30
0.0
 10
14.4527621313
 20
13.8073559204
 30
0.0
 10
14.4670543256
 20
13.8244713543
 30
0.0
 10
14.4815293428
 20
13.8405492987
 30
0.0
 10
14.4961760135
 20
13.8555770573
 30
0.0
 10
14.5109831008
 20
13.869542686
 30
0.0
 10
14.5259392442
 20
13.8824350493
 30
0.0
 10
14.5410329876
 20
13.8942437916
 30
0.0
 10
14.5562528063
 20
13.9049592743
 30
0.0
 10
14.5715870448
 20
13.9145726242
 30
0.0
 10
14.5870238899
 20
13.9230757476
 30
0.0
 10
14.6025513843
 20
13.9304612561
 30
0.0
 10
14.6181573461
 20
13.9367225251
 30
0.0
 10
14.6338293471
 20
13.9418538034
 30
0.0
 10
14.6495545969
 20
13.9458501708
 30
0.0
 10
14.6653203953
 20
13.9487076307
 30
0.0
 10
14.681112381
 20
13.9504233032
 30
0.0
 10
14.6916592651
 20
13.9508049961
 30
0.0
 10
14.6969191464
 20
13.9508049924
 30
0.0
  0
SPLINE
  5
2A7
100
AcDbEntity
  8
LAYER_FEATURE
100
AcDbSpline
 62
7
  6
CONTINUOUS
 70
0
 71
3
 72
24
 73
20
 74
0
 42
0.0000001
 43
0.0000001
 44
0.0000000001
 40
0.0
 40
0.0
 40
0.0
 40
0.0
 40
0.0836660357
 40
0.1647132341
 40
0.2430320466
 40
0.3185262401
 40
0.3911162802
 40
0.4607407278
 40
0.5273589233
 40
0.5909538687
 40
0.6515357297
 40
0.7091459627
 40
0.7638621277
 40
0.8158033682
 40
0.8651363739
 40
0.9120813636
 40
0.9569172183
 40
0.9786557881
 40
1.0
 40
1.0
 40
1.0
 40
1.0
 10
15.8876940817
 20
13.1893336676
 30
0.0
 10
15.8918430356
 20
13.2027596871
 30
0.0
 10
15.9003717685
 20
13.2290819314
 30
0.0
 10
15.9140918271
 20
13.2675328931
 30
0.0
 10
15.9285109743
 20
13.3042575223
 30
0.0
 10
15.943596365
 20
13.3391721165
 30
0.0
 10
15.9593137955
 20
13.3721975969
 30
0.0
 10
15.9756277877
 20
13.4032592303
 30
0.0
 10
15.9925017078
 20
13.43228688
 30
0.0
 10
16.0098979444
 20
13.4592151219
 30
0.0
 10
16.0277780972
 20
13.4839833463
 30
0.0
 10
16.046103158
 20
13.5065357787
 30
0.0
 10
16.0648337988
 20
13.5268214408
 30
0.0
 10
16.0839302604
 20
13.5447938522
 30
0.0
 10
16.1033533395
 20
13.5604110469
 30
0.0
 10
16.1230608998
 20
13.573633872
 30
0.0
 10
16.1398619742
 20
13.5827222799
 30
0.0
 10
16.153366906
 20
13.5887089551
 30
0.0
 10
16.1601346995
 20
13.5912824978
 30
0.0
 10
16.163520076
 20
13.5924619532
 30
0.0
  0
SPLINE
  5
2A8
100
AcDbEntity
  8
LAYER_FEATURE
100
AcDbSpline
 62
7
  6
CONTINUOUS
 70
0
 71
3
 72
97
 73
93
 74
0
 42
0.0000001
 43
0.0000001
 44
0.0000000001
 40
0.0
 40
0.0
 40
0.0
 40
0.0
 40
0.0178412376
 40
0.0361832135
 40
0.0549944187
 40
0.074241066
 40
0.0938876513
 40
0.113897033
 40
0.1342306523
 40
0.1548487152
 40
0.1757103672
 40
0.1967738616
 40
0.2179967225
 40
0.2393359046
 40
0.2607479509
 40
0.2821891481
 40
0.3036156806
 40
0.3249837838
 40
0.3462498992
 40
0.3673708283
 40
0.3883038897
 40
0.4090070766
 40
0.4294392205
 40
0.4495601586
 40
0.4693309048
 40
0.4887138301
 40
0.5076728518
 40
0.5261736384
 40
0.5441838288
 40
0.5616732697
 40
0.5786142811
 40
0.5949819546
 40
0.6107544977
 40
0.6259136292
 40
0.6332589064
 40
0.6404458264
 40
0.647473317
 40
0.6543406256
 40
0.6610473406
 40
0.6675934321
 40
0.673979257
 40
0.6802056102
 40
0.6862737458
 40
0.6921854098
 40
0.6979428935
 40
0.7035490518
 40
0.7090073655
 40
0.7143219742
 40
0.7245379299
 40
0.7294535147
 40
0.7342494151
 40
0.7389336877
 40
0.7435152525
 40
0.7480039043
 40
0.752410281
 40
0.7567458339
 40
0.7610227568
 40
0.765253892
 40
0.7694526172
 40
0.7736326972
 40
0.7778081276
 40
0.7819929614
 40
0.7862011358
 40
0.7904463004
 40
0.7947416673
 40
0.7990998716
 40
0.8035328628
 40
0.808051826
 40
0.8126671138
 40
0.8222210265
 40
0.8271788103
 40
0.8322657374
 40
0.8374879119
 40
0.8428506722
 40
0.8483586173
 40
0.8540156549
 40
0.8598250543
 40
0.8657894703
 40
0.8719110073
 40
0.8781912419
 40
0.8846312646
 40
0.8912317241
 40
0.8979928384
 40
0.9049144471
 40
0.9119960223
 40
0.919236696
 40
0.9266352941
 40
0.9341903366
 40
0.9497618613
 40
0.9659349879
 40
0.9826889555
 40
1.0
 40
1.0
 40
1.0
 40
1.0
 10
15.8196666893
 20
13.3279589184
 30
0.0
 10
15.8143829572
 20
13.3108607551
 30
0.0
 10
15.8041663492
 20
13.2760284913
 30
0.0
 10
15.7900628634
 20
13.222692724
 30
0.0
 10
15.7769937343
 20
13.1676441512
 30
0.0
 10
15.7649906549
 20
13.1110154893
 30
0.0
 10
15.7540825329
 20
13.0529427306
 30
0.0
 10
15.7442957095
 20
12.9935655113
 30
0.0
 10
15.7356537961
 20
12.9330266139
 30
0.0
 10
15.7281776541
 20
12.8714716596
 30
0.0
 10
15.7218853331
 20
12.8090487353
 30
0.0
 10
15.7167920292
 20
12.7459080379
 30
0.0
 10
15.7129100446
 20
12.6822015086
 30
0.0
 10
15.7102487482
 20
12.6180824641
 30
0.0
 10
15.7088145649
 20
12.5537052217
 30
0.0
 10
15.7086109582
 20
12.4892247253
 30
0.0
 10
15.7096384234
 20
12.4247961693
 30
0.0
 10
15.7118944821
 20
12.3605746225
 30
0.0
 10
15.7153736811
 20
12.2967146506
 30
0.0
 10
15.7200676176
 20
12.2333699412
 30
0.0
 10
15.7259649572
 20
12.1706929316
 30
0.0
 10
15.7330514643
 20
12.1088344383
 30
0.0
 10
15.7413100316
 20
12.0479432879
 30
0.0
 10
15.7507207164
 20
11.988165953
 30
0.0
 10
15.7612608026
 20
11.9296461956
 30
0.0
 10
15.7729048547
 20
11.8725247172
 30
0.0
 10
15.7856247855
 20
11.816938812
 30
0.0
 10
15.7993899231
 20
11.7630220235
 30
0.0
 10
15.814167086
 20
11.7109038155
 30
0.0
 10
15.8299206924
 20
11.6607092325
 30
0.0
 10
15.8466128351
 20
11.6125586635
 30
0.0
 10
15.8642034785
 20
11.5665672656
 30
0.0
 10
15.8826502975
 20
11.5228456256
 30
0.0
 10
15.8988655514
 20
11.4880320168
 30
0.0
 10
15.9122495056
 20
11.4614243761
 30
0.0
 10
15.9223679101
 20
11.4423098296
 30
0.0
 10
15.9326658957
 20
11.4238384069
 30
0.0
 10
15.9431373627
 20
11.4060211373
 30
0.0
 10
15.9537760564
 20
11.3888687414
 30
0.0
 10
15.9645755816
 20
11.3723914833
 30
0.0
 10
15.9755295343
 20
11.3565992703
 30
0.0
 10
15.9866313647
 20
11.3415015633
 30
0.0
 10
15.9978744687
 20
11.3271074136
 30
0.0
 10
16.0092521925
 20
11.3134254943
 30
0.0
 10
16.0207577903
 20
11.300463956
 30
0.0
 10
16.0323843616
 20
11.288230761
 30
0.0
 10
16.0441255304
 20
11.2767327961
 30
0.0
 10
16.0597165559
 20
11.2625801263
 30
0.0
 10
16.0757118397
 20
11.2496975522
 30
0.0
 10
16.0920916238
 20
11.2382313123
 30
0.0
 10
16.1042989703
 20
11.2305075627
 30
0.0
 10
16.1165779927
 20
11.2235550543
 30
0.0
 10
16.1289217358
 20
11.2173781302
 30
0.0
 10
16.1413227241
 20
11.2119808286
 30
0.0
 10
16.153773537
 20
11.2073668178
 30
0.0
 10
16.1662665713
 20
11.2035392487
 30
0.0
 10
16.1787941217
 20
11.2005007991
 30
0.0
 10
16.1913483756
 20
11.1982537203
 30
0.0
 10
16.2039213858
 20
11.1967995881
 30
0.0
 10
16.2165051448
 20
11.1961395547
 30
0.0
 10
16.2290915758
 20
11.1962740896
 30
0.0
 10
16.2416725993
 20
11.1972030701
 30
0.0
 10
16.2542401497
 20
11.1989258599
 30
0.0
 10
16.266786248
 20
11.2014410999
 30
0.0
 10
16.2793029785
 20
11.2047470101
 30
0.0
 10
16.2917825844
 20
11.208841214
 30
0.0
 10
16.3042173175
 20
11.2137207703
 30
0.0
 10
16.3165999762
 20
11.2193826354
 30
0.0
 10
16.3332196185
 20
11.2280681914
 30
0.0
 10
16.3495242081
 20
11.2382474729
 30
0.0
 10
16.3654584685
 20
11.2497682431
 30
0.0
 10
16.3774698784
 20
11.2592756971
 30
0.0
 10
16.3893850642
 20
11.26953598
 30
0.0
 10
16.401197696
 20
11.2805433029
 30
0.0
 10
16.4129006415
 20
11.2922908516
 30
0.0
 10
16.4244870789
 20
11.3047715479
 30
0.0
 10
16.4359501137
 20
11.3179778939
 30
0.0
 10
16.4472830149
 20
11.3319019153
 30
0.0
 10
16.4584790296
 20
11.3465352735
 30
0.0
 10
16.4695315166
 20
11.3618691789
 30
0.0
 10
16.4804339179
 20
11.3778944219
 30
0.0
 10
16.4911796944
 20
11.3946014123
 30
0.0
 10
16.5017624759
 20
11.4119801035
 30
0.0
 10
16.5121759036
 20
11.4300200844
 30
0.0
 10
16.5224137562
 20
11.4487105282
 30
0.0
 10
16.5324699035
 20
11.468040194
 30
0.0
 10
16.5423383418
 20
11.4879975451
 30
0.0
 10
16.555368999
 20
11.5157069636
 30
0.0
 10
16.5711240148
 20
11.5518522977
 30
0.0
 10
16.5890024926
 20
11.5971047621
 30
0.0
 10
16.6059962558
 20
11.6445535515
 30
0.0
 10
16.6165417819
 20
11.6770610151
 30
0.0
 10
16.6216684958
 20
11.6936510674
 30
0.0
  0
SPLINE
  5
2A9
100
AcDbEntity
  8
LAYER_FEATURE
100
AcDbSpline
 62
7
  6
CONTINUOUS
 70
0
 71
3
 72
65
 73
61
 74
0
 42
0.0000001
 43
0.0000001
 44
0.0000000001
 40
0.0
 40
0.0
 40
0.0
 40
0.0
 40
0.0163581411
 40
0.0330511326
 40
0.0500643519
 40
0.067382829
 40
0.0849906935
 40
0.10287155
 40
0.1210084026
 40
0.1393837441
 40
0.1579795905
 40
0.1767775268
 40
0.2149030904
 40
0.2536071519
 40
0.292731066
 40
0.3321131317
 40
0.3715897893
 40
0.4109968027
 40
0.4501704347
 40
0.4889486244
 40
0.5271721825
 40
0.5460278405
 40
0.5646870855
 40
0.5831313805
 40
0.601342606
 40
0.6193031035
 40
0.6369957206
 40
0.6544038591
 40
0.6715115246
 40
0.6883033787
 40
0.7047647953
 40
0.7208819205
 40
0.7366417377
 40
0.7520321387
 40
0.7670420012
 40
0.7816612754
 40
0.7958810798
 40
0.8096938083
 40
0.8230932496
 40
0.8360747244
 40
0.8486352385
 40
0.8607736588
 40
0.8724909121
 40
0.8837902091
 40
0.894677299
 40
0.9051607489
 40
0.9152522506
 40
0.9249669473
 40
0.9343237685
 40
0.9433457522
 40
0.952060325
 40
0.9604994964
 40
0.9686999153
 40
0.9767027299
 40
0.9806449357
 40
0.9845550217
 40
0.9884391737
 40
0.9923037317
 40
0.9961551592
 40
1.0
 40
1.0
 40
1.0
 40
1.0
 10
15.8059623894
 20
13.4059233472
 30
0.0
 10
15.8018496277
 20
13.3926144454
 30
0.0
 10
15.7938152211
 20
13.365638376
 30
0.0
 10
15.7824420517
 20
13.3245482299
 30
0.0
 10
15.771635679
 20
13.2824605108
 30
0.0
 10
15.7614094158
 20
13.2394271059
 30
0.0
 10
15.7517757975
 20
13.1955005587
 30
0.0
 10
15.7427466485
 20
13.1507347457
 30
0.0
 10
15.7343330514
 20
13.105184483
 30
0.0
 10
15.7265453486
 20
13.0589056216
 30
0.0
 10
15.7193930487
 20
13.0119547589
 30
0.0
 10
15.7106751273
 20
12.948237351
 30
0.0
 10
15.7014457865
 20
12.867316936
 30
0.0
 10
15.6930771221
 20
12.7689183396
 30
0.0
 10
15.6874050835
 20
12.6692557237
 30
0.0
 10
15.6844576147
 20
12.5688175492
 30
0.0
 10
15.6842492452
 20
12.4680953189
 30
0.0
 10
15.6867809964
 20
12.3675822268
 30
0.0
 10
15.6920403851
 20
12.2677701501
 30
0.0
 10
15.7000015155
 20
12.169148288
 30
0.0
 10
15.7088941748
 20
12.0879933862
 30
0.0
 10
15.7173461762
 20
12.0240519645
 30
0.0
 10
15.7243035334
 20
11.9769082205
 30
0.0
 10
15.7318990448
 20
11.9304190683
 30
0.0
 10
15.7401234386
 20
11.884641367
 30
0.0
 10
15.748966604
 20
11.8396312426
 30
0.0
 10
15.7584176902
 20
11.7954438365
 30
0.0
 10
15.7684650958
 20
11.7521332836
 30
0.0
 10
15.7790964898
 20
11.7097526325
 30
0.0
 10
15.7902988272
 20
11.6683537828
 30
0.0
 10
15.8020583668
 20
11.6279874205
 30
0.0
 10
15.8143606888
 20
11.5887029543
 30
0.0
 10
15.8271907144
 20
11.5505484541
 30
0.0
 10
15.8405327268
 20
11.5135705903
 30
0.0
 10
15.8543703928
 20
11.4778145751
 30
0.0
 10
15.8686867876
 20
11.4433241047
 30
0.0
 10
15.8834644167
 20
11.4101413027
 30
0.0
 10
15.8986852468
 20
11.3783066691
 30
0.0
 10
15.9143307352
 20
11.3478590303
 30
0.0
 10
15.9303818613
 20
11.3188354933
 30
0.0
 10
15.9468191615
 20
11.2912714024
 30
0.0
 10
15.963622767
 20
11.2652003019
 30
0.0
 10
15.9807724436
 20
11.2406539043
 30
0.0
 10
15.9982476355
 20
11.2176620678
 30
0.0
 10
16.0160275053
 20
11.1962527813
 30
0.0
 10
16.0340909778
 20
11.1764521664
 30
0.0
 10
16.0524167756
 20
11.1582844965
 30
0.0
 10
16.0709834432
 20
11.1417722323
 30
0.0
 10
16.0897693357
 20
11.126936074
 30
0.0
 10
16.1087526204
 20
11.1137950167
 30
0.0
 10
16.1279110539
 20
11.1023664281
 30
0.0
 10
16.1472223342
 20
11.0926659928
 30
0.0
 10
16.1666621653
 20
11.0847079497
 30
0.0
 10
16.1830341261
 20
11.0795119588
 30
0.0
 10
16.1961411349
 20
11.0762574903
 30
0.0
 10
16.2059388995
 20
11.0742689507
 30
0.0
 10
16.2157489159
 20
11.0727216242
 30
0.0
 10
16.225568362
 20
11.0716160357
 30
0.0
 10
16.235393814
 20
11.0709524947
 30
0.0
 10
16.2419485775
 20
11.0708049983
 30
0.0
 10
16.2452226773
 20
11.070805001
 30
0.0
  0
SPLINE
  5
2AA
100
AcDbEntity
  8
LAYER_FEATURE
100
AcDbSpline
 62
7
  6
CONTINUOUS
 70
0
 71
3
 72
56
 73
52
 74
0
 42
0.0000001
 43
0.0000001
 44
0.0000000001
 40
0.0
 40
0.0
 40
0.0
 40
0.0
 40
0.0079087189
 40
0.0160273524
 40
0.0243882147
 40
0.0330198958
 40
0.0419472685
 40
0.0511916052
 40
0.0607707662
 40
0.0706994257
 40
0.0809893271
 40
0.0916495386
 40
0.1026866958
 40
0.1141052233
 40
0.1259075413
 40
0.1380942594
 40
0.150664345
 40
0.1636152706
 40
0.17694314
 40
0.1906428129
 40
0.2047080119
 40
0.2191314144
 40
0.2339047312
 40
0.2490187815
 40
0.2644635665
 40
0.28022833
 40
0.2963016124
 40
0.3126712973
 40
0.3293246658
 40
0.3462484416
 40
0.3808504994
 40
0.4163627226
 40
0.452662712
 40
0.4896226406
 40
0.5271102707
 40
0.5649899146
 40
0.6031233605
 40
0.6413707841
 40
0.6795916391
 40
0.7176455465
 40
0.7553931869
 40
0.7926971937
 40
0.8294230726
 40
0.865440138
 40
0.900622491
 40
0.9178634047
 40
0.934851149
 40
0.951571829
 40
0.9680119185
 40
0.9841589116
 40
1.0
 40
1.0
 40
1.0
 40
1.0
 10
16.1635200765
 20
11.4291480406
 30
0.0
 10
16.1588442082
 20
11.4307771058
 30
0.0
 10
16.1494933153
 20
11.434448149
 30
0.0
 10
16.1357155181
 20
11.4410578958
 30
0.0
 10
16.1220341323
 20
11.4488276682
 30
0.0
 10
16.1084646849
 20
11.4577476235
 30
0.0
 10
16.0950209624
 20
11.4678074215
 30
0.0
 10
16.0817169672
 20
11.4789955964
 30
0.0
 10
16.0685664455
 20
11.4912997085
 30
0.0
 10
16.0555830413
 20
11.5047062418
 30
0.0
 10
16.0427802795
 20
11.5192006145
 30
0.0
 10
16.0301715705
 20
11.5347671577
 30
0.0
 10
16.0177701948
 20
11.5513891041
 30
0.0
 10
16.0055892732
 20
11.5690485691
 30
0.0
 10
15.9936417396
 20
11.5877265534
 30
0.0
 10
15.9819403345
 20
11.607402968
 30
0.0
 10
15.9704975767
 20
11.6280566465
 30
0.0
 10
15.959325746
 20
11.6496653589
 30
0.0
 10
15.9484368426
 20
11.6722058212
 30
0.0
 10
15.9378425885
 20
11.6956537321
 30
0.0
 10
15.927554407
 20
11.7199838019
 30
0.0
 10
15.9175834109
 20
11.7451697785
 30
0.0
 10
15.9079403733
 20
11.7711844669
 30
0.0
 10
15.8986357155
 20
11.7979997607
 30
0.0
 10
15.8896795049
 20
11.8255866823
 30
0.0
 10
15.8810814405
 20
11.8539154127
 30
0.0
 10
15.872850836
 20
11.8829553279
 30
0.0
 10
15.8649966149
 20
11.9126749964
 30
0.0
 10
15.8575272313
 20
11.9430423405
 30
0.0
 10
15.8480221911
 20
11.9846582247
 30
0.0
 10
15.8371825955
 20
12.0380724548
 30
0.0
 10
15.8259232946
 20
12.1037480725
 30
0.0
 10
15.8163670449
 20
12.1711841222
 30
0.0
 10
15.8085554074
 20
12.2400886999
 30
0.0
 10
15.802522355
 20
12.3101641074
 30
0.0
 10
15.7982941517
 20
12.3811073091
 30
0.0
 10
15.7958891687
 20
12.4526115042
 30
0.0
 10
15.7953179046
 20
12.5243674147
 30
0.0
 10
15.7965828069
 20
12.5960646614
 30
0.0
 10
15.7996784106
 20
12.6673931177
 30
0.0
 10
15.8045912104
 20
12.7380442913
 30
0.0
 10
15.8112998588
 20
12.8077126161
 30
0.0
 10
15.8197751544
 20
12.8760970237
 30
0.0
 10
15.829980232
 20
12.9429014665
 30
0.0
 10
15.8399549265
 20
12.9973762253
 30
0.0
 10
15.8487830947
 20
13.0399287832
 30
0.0
 10
15.8557623299
 20
13.0710559848
 30
0.0
 10
15.8631364187
 20
13.1015764348
 30
0.0
 10
15.8708974273
 20
13.1314573875
 30
0.0
 10
15.8790369011
 20
13.1606661524
 30
0.0
 10
15.8847658606
 20
13.1798579405
 30
0.0
 10
15.8876940817
 20
13.1893336676
 30
0.0
  0
SPLINE
  5
2AB
100
AcDbEntity
  8
LAYER_CHAMFER_FEAT
100
AcDbSpline
 62
7
  6
CONTINUOUS
 70
0
 71
3
 72
40
 73
36
 74
0
 42
0.0000001
 43
0.0000001
 44
0.0000000001
 40
0.0
 40
0.0
 40
0.0
 40
0.0
 40
0.0439502757
 40
0.0865555814
 40
0.1278039627
 40
0.1676916606
 40
0.2062199332
 40
0.2433975233
 40
0.2792409162
 40
0.3137752501
 40
0.3470352717
 40
0.3790663183
 40
0.4099253805
 40
0.4396821259
 40
0.4684198017
 40
0.4962359324
 40
0.5232426463
 40
0.5495664621
 40
0.5753473411
 40
0.600736889
 40
0.6258956905
 40
0.6509898752
 40
0.6761871606
 40
0.701652738
 40
0.7275454069
 40
0.7540143011
 40
0.7811964192
 40
0.8092150243
 40
0.8235746291
 40
0.8381829111
 40
0.8681862231
 40
0.8993090416
 40
0.931618034
 40
0.9651674162
 40
1.0
 40
1.0
 40
1.0
 40
1.0
 10
16.4869404362
 20
13.3168483829
 30
0.0
 10
16.4833742136
 20
13.3241155804
 30
0.0
 10
16.4761525242
 20
13.3383314446
 30
0.0
 10
16.4648681343
 20
13.3589942959
 30
0.0
 10
16.4533118219
 20
13.3786435845
 30
0.0
 10
16.4414974923
 20
13.3972556547
 30
0.0
 10
16.4294389087
 20
13.414808537
 30
0.0
 10
16.4171502493
 20
13.4312813367
 30
0.0
 10
16.404645837
 20
13.4466545008
 30
0.0
 10
16.3919401723
 20
13.4609097314
 30
0.0
 10
16.3790479014
 20
13.4740299934
 30
0.0
 10
16.3659837908
 20
13.4859994887
 30
0.0
 10
16.3527627337
 20
13.4968036359
 30
0.0
 10
16.3393997713
 20
13.5064290427
 30
0.0
 10
16.3259101238
 20
13.5148634478
 30
0.0
 10
16.3123092775
 20
13.5220956981
 30
0.0
 10
16.298613094
 20
13.5281157564
 30
0.0
 10
16.2848379516
 20
13.5329147957
 30
0.0
 10
16.2710008561
 20
13.5364853554
 30
0.0
 10
16.2571194854
 20
13.538821546
 30
0.0
 10
16.2432121335
 20
13.53991932
 30
0.0
 10
16.2292975199
 20
13.5397767018
 30
0.0
 10
16.2153944964
 20
13.5383939549
 30
0.0
 10
16.2015217019
 20
13.5357735432
 30
0.0
 10
16.1876973234
 20
13.5319199739
 30
0.0
 10
16.1739387982
 20
13.5268394676
 30
0.0
 10
16.1602633165
 20
13.5205400181
 30
0.0
 10
16.1490417909
 20
13.5143330971
 30
0.0
 10
16.1401283359
 20
13.5087875035
 30
0.0
 10
16.131100801
 20
13.5027443418
 30
0.0
 10
16.1198927155
 20
13.4944234273
 30
0.0
 10
16.1067066871
 20
13.4833503204
 30
0.0
 10
16.0936806485
 20
13.4711148124
 30
0.0
 10
16.0808301902
 20
13.457732413
 30
0.0
 10
16.0725472708
 20
13.4482371248
 30
0.0
 10
16.0684360968
 20
13.4433117271
 30
0.0
  0
SPLINE
  5
2AC
100
AcDbEntity
  8
LAYER_CHAMFER_FEAT
100
AcDbSpline
 62
7
  6
CONTINUOUS
 70
0
 71
3
 72
27
 73
23
 74
0
 42
0.0000001
 43
0.0000001
 44
0.0000000001
 40
0.0
 40
0.0
 40
0.0
 40
0.0
 40
0.0835110577
 40
0.1639083838
 40
0.2411670739
 40
0.3152835292
 40
0.3862765985
 40
0.4541914483
 40
0.5191027214
 40
0.5811185505
 40
0.6403847035
 40
0.6970888353
 40
0.7514643415
 40
0.8037931652
 40
0.8292988681
 40
0.8544212618
 40
0.8792091165
 40
0.9037137711
 40
0.9279888831
 40
0.952090044
 40
0.9760743646
 40
1.0
 40
1.0
 40
1.0
 40
1.0
 10
16.4503019257
 20
13.2921735853
 30
0.0
 10
16.4461270579
 20
13.3006810713
 30
0.0
 10
16.4376534675
 20
13.3172438205
 30
0.0
 10
16.4243025721
 20
13.3411406431
 30
0.0
 10
16.4105727856
 20
13.363582357
 30
0.0
 10
16.3964879109
 20
13.3845295951
 30
0.0
 10
16.3820718926
 20
13.4039460987
 30
0.0
 10
16.367349131
 20
13.421798102
 30
0.0
 10
16.3523442642
 20
13.4380544808
 30
0.0
 10
16.3370821101
 20
13.4526866604
 30
0.0
 10
16.3215877771
 20
13.4656684595
 30
0.0
 10
16.30588617
 20
13.4769761201
 30
0.0
 10
16.2900040821
 20
13.4865874961
 30
0.0
 10
16.2765237773
 20
13.4932239186
 30
0.0
 10
16.2657008623
 20
13.4976344438
 30
0.0
 10
16.2576262172
 20
13.5004805239
 30
0.0
 10
16.2495295016
 20
13.5028911189
 30
0.0
 10
16.2414141636
 20
13.5048651006
 30
0.0
 10
16.2332839354
 20
13.5064014684
 30
0.0
 10
16.2251424156
 20
13.5074994468
 30
0.0
 10
16.2169936413
 20
13.5081584476
 30
0.0
 10
16.2115557954
 20
13.5083049946
 30
0.0
 10
16.2088407681
 20
13.50830499
 30
0.0
  0
SPLINE
  5
2AD
100
AcDbEntity
  8
02___PRT_ALL_AXES
100
AcDbSpline
 62
7
  6
CONTINUOUS
 70
0
 71
3
 72
56
 73
52
 74
0
 42
0.0000001
 43
0.0000001
 44
0.0000000001
 40
0.0
 40
0.0
 40
0.0
 40
0.0
 40
0.0079087202
 40
0.0160273533
 40
0.0243882133
 40
0.0330198943
 40
0.0419472694
 40
0.0511916076
 40
0.0607707662
 40
0.0706994231
 40
0.0809893262
 40
0.0916495409
 40
0.1026866978
 40
0.1141052217
 40
0.1259075388
 40
0.1380942601
 40
0.1506643479
 40
0.163615271
 40
0.1769431374
 40
0.1906428116
 40
0.2047080139
 40
0.2191314164
 40
0.2339047301
 40
0.2490187791
 40
0.2644635667
 40
0.2802283324
 40
0.2963016129
 40
0.3126712956
 40
0.3293246646
 40
0.3462484429
 40
0.380850499
 40
0.4163627226
 40
0.4526627124
 40
0.48962264
 40
0.5271102713
 40
0.5649899143
 40
0.6031233608
 40
0.6413707841
 40
0.6795916391
 40
0.7176455465
 40
0.7553931872
 40
0.7926971935
 40
0.8294230731
 40
0.8654401377
 40
0.9006224912
 40
0.9178634055
 40
0.9348511482
 40
0.9515718285
 40
0.9680119231
 40
0.9841589016
 40
1.0
 40
1.0
 40
1.0
 40
1.0
 10
16.1803960375
 20
11.4232684962
 30
0.0
 10
16.1756947486
 20
11.424906407
 30
0.0
 10
16.1662930357
 20
11.4285974301
 30
0.0
 10
16.1524403447
 20
11.435243096
 30
0.0
 10
16.1386845864
 20
11.4430550911
 30
0.0
 10
16.1250413795
 20
11.4520235323
 30
0.0
 10
16.1115245852
 20
11.4621380217
 30
0.0
 10
16.0981482776
 20
11.4733870176
 30
0.0
 10
16.0849262692
 20
11.4857580025
 30
0.0
 10
16.0718722862
 20
11.4992374019
 30
0.0
 10
16.058999936
 20
11.5138105665
 30
0.0
 10
16.0463226955
 20
11.5294617325
 30
0.0
 10
16.0338539099
 20
11.5461740297
 30
0.0
 10
16.0216067699
 20
11.5639294775
 30
0.0
 10
16.0095942918
 20
11.5827089876
 30
0.0
 10
15.9978292871
 20
11.6024923636
 30
0.0
 10
15.9863243344
 20
11.6232583133
 30
0.0
 10
15.9750917726
 20
11.644984479
 30
0.0
 10
15.9641436752
 20
11.6676474585
 30
0.0
 10
15.9534918361
 20
11.6912228269
 30
0.0
 10
15.9431477378
 20
11.7156851531
 30
0.0
 10
15.9331225425
 20
11.7410080328
 30
0.0
 10
15.9234270828
 20
11.7671641237
 30
0.0
 10
15.9140718448
 20
11.7941251747
 30
0.0
 10
15.9050669563
 20
11.8218620539
 30
0.0
 10
15.8964221602
 20
11.8503447736
 30
0.0
 10
15.888146813
 20
11.8795425381
 30
0.0
 10
15.8802498941
 20
11.9094237497
 30
0.0
 10
15.8727399094
 20
11.9399561616
 30
0.0
 10
15.8631832126
 20
11.9817982595
 30
0.0
 10
15.8522846869
 20
12.035502831
 30
0.0
 10
15.8409641866
 20
12.1015354405
 30
0.0
 10
15.8313559964
 20
12.1693380514
 30
0.0
 10
15.8235018875
 20
12.2386171718
 30
0.0
 10
15.8174360545
 20
12.3090734876
 30
0.0
 10
15.8131848543
 20
12.3804023136
 30
0.0
 10
15.8107668114
 20
12.4522951829
 30
0.0
 10
15.8101924321
 20
12.5244411357
 30
0.0
 10
15.8114642163
 20
12.5965281056
 30
0.0
 10
15.8145766443
 20
12.6682442809
 30
0.0
 10
15.8195161468
 20
12.7392794918
 30
0.0
 10
15.8262612655
 20
12.8093265113
 30
0.0
 10
15.8347826247
 20
12.878082635
 30
0.0
 10
15.8450431795
 20
12.9452502048
 30
0.0
 10
15.8550720894
 20
13.000021072
 30
0.0
 10
15.8639482456
 20
13.0428049316
 30
0.0
 10
15.8709654186
 20
13.0741013301
 30
0.0
 10
15.8783795904
 20
13.104787682
 30
0.0
 10
15.8861827845
 20
13.1348310523
 30
0.0
 10
15.8943665005
 20
13.1641985874
 30
0.0
 10
15.9001266009
 20
13.183494693
 30
0.0
 10
15.9030707408
 20
13.1930219331
 30
0.0
  0
SPLINE
  5
2AE
100
AcDbEntity
  8
LAYER_FEATURE
100
AcDbSpline
 62
7
  6
CONTINUOUS
 70
0
 71
3
 72
11
 73
7
 74
0
 42
0.0000001
 43
0.0000001
 44
0.0000000001
 40
0.0
 40
0.0
 40
0.0
 40
0.0
 40
0.2180418455
 40
0.4568283072
 40
0.7173925762
 40
1.0
 40
1.0
 40
1.0
 40
1.0
 10
14.3535474345
 20
12.991146748
 30
0.0
 10
14.3545489442
 20
12.9919897137
 30
0.0
 10
14.3565201555
 20
12.9939095028
 30
0.0
 10
14.3592429702
 20
12.9972559691
 30
0.0
 10
14.3618448973
 20
13.0011709276
 30
0.0
 10
14.3634243743
 20
13.0040279515
 30
0.0
 10
14.3641949371
 20
13.0055395592
 30
0.0
  0
SPLINE
  5
2AF
100
AcDbEntity
  8
LAYER_FEATURE
100
AcDbSpline
 62
7
  6
CONTINUOUS
 70
0
 71
3
 72
20
 73
16
 74
0
 42
0.0000001
 43
0.0000001
 44
0.0000000001
 40
0.0
 40
0.0
 40
0.0
 40
0.0
 40
0.0388875256
 40
0.0787911888
 40
0.120645721
 40
0.1652223852
 40
0.2131143617
 40
0.2647452187
 40
0.3203875954
 40
0.380191482
 40
0.4442055194
 40
0.5123947672
 40
0.6607975358
 40
0.8240204966
 40
1.0
 40
1.0
 40
1.0
 40
1.0
 10
14.3177117763
 20
12.9912036729
 30
0.0
 10
14.3175325197
 20
12.9912036814
 30
0.0
 10
14.3171685328
 20
12.9911708484
 30
0.0
 10
14.3166294172
 20
12.9910244052
 30
0.0
 10
14.3160972424
 20
12.9907822875
 30
0.0
 10
14.3155747151
 20
12.9904466681
 30
0.0
 10
14.3150638741
 20
12.9900197682
 30
0.0
 10
14.3145667195
 20
12.9895039069
 30
0.0
 10
14.3140852048
 20
12.9889016239
 30
0.0
 10
14.3136213848
 20
12.9882157276
 30
0.0
 10
14.3131772773
 20
12.9874494073
 30
0.0
 10
14.3125977689
 20
12.9862922675
 30
0.0
 10
14.3119443063
 20
12.9846646214
 30
0.0
 10
14.3112889909
 20
12.9825124379
 30
0.0
 10
14.3109437594
 20
12.9809859284
 30
0.0
 10
14.310789578
 20
12.9801895174
 30
0.0
  0
SPLINE
  5
2B0
100
AcDbEntity
  8
LAYER_FEATURE
100
AcDbSpline
 62
7
  6
CONTINUOUS
 70
0
 71
3
 72
17
 73
13
 74
0
 42
0.0000001
 43
0.0000001
 44
0.0000000001
 40
0.0
 40
0.0
 40
0.0
 40
0.0
 40
0.0426454532
 40
0.0860336643
 40
0.1308619201
 40
0.1777463534
 40
0.2795079931
 40
0.3943796547
 40
0.523822773
 40
0.6682402001
 40
0.8272695144
 40
1.0
 40
1.0
 40
1.0
 40
1.0
 10
14.3650576337
 20
13.2268742798
 30
0.0
 10
14.3649123861
 20
13.2268742839
 30
0.0
 10
14.3646189327
 20
13.2268529101
 30
0.0
 10
14.3641822126
 20
13.2267572167
 30
0.0
 10
14.3637489026
 20
13.2265984362
 30
0.0
 10
14.3631620016
 20
13.2262955863
 30
0.0
 10
14.3624420224
 20
13.2257481715
 30
0.0
 10
14.3616414453
 20
13.2248770842
 30
0.0
 10
14.3608862355
 20
13.2237854774
 30
0.0
 10
14.3601842937
 20
13.2224862172
 30
0.0
 10
14.3595432849
 20
13.220994546
 30
0.0
 10
14.359175885
 20
13.2199248761
 30
0.0
 10
14.3590021885
 20
13.2193627939
 30
0.0
  0
SPLINE
  5
2B1
100
AcDbEntity
  8
LAYER_CHAMFER_FEAT
100
AcDbSpline
 62
7
  6
CONTINUOUS
 70
0
 71
3
 72
79
 73
75
 74
0
 42
0.0000001
 43
0.0000001
 44
0.0000000001
 40
0.0
 40
0.0
 40
0.0
 40
0.0
 40
0.0113884776
 40
0.0222283803
 40
0.0325469696
 40
0.042380474
 40
0.0517750306
 40
0.0607873867
 40
0.0651724049
 40
0.0694881102
 40
0.0737445444
 40
0.0779522937
 40
0.0821224201
 40
0.0862663636
 40
0.090395837
 40
0.0945227061
 40
0.0986588642
 40
0.1028161061
 40
0.1070060059
 40
0.1112398018
 40
0.1155283012
 40
0.1198817887
 40
0.1243099721
 40
0.1288219184
 40
0.138127621
 40
0.1478607787
 40
0.1580698028
 40
0.1687930145
 40
0.1800595515
 40
0.1918903753
 40
0.2042992576
 40
0.2172936864
 40
0.2308756654
 40
0.2450424038
 40
0.2597869047
 40
0.2750984642
 40
0.2909630956
 40
0.3073638916
 40
0.3242813348
 40
0.3416935683
 40
0.3595766318
 40
0.3779046721
 40
0.3966501321
 40
0.4157839224
 40
0.43527558
 40
0.4550934152
 40
0.475204651
 40
0.4955755547
 40
0.5161715645
 40
0.5369574114
 40
0.5578972387
 40
0.5789547176
 40
0.600093162
 40
0.6212756413
 40
0.6424650923
 40
0.663624431
 40
0.6847166637
 40
0.7057049993
 40
0.7265529614
 40
0.7472245024
 40
0.7676841185
 40
0.7878969681
 40
0.8078289923
 40
0.8274470394
 40
0.8467189954
 40
0.8656139193
 40
0.8841021873
 40
0.9021556471
 40
0.9197477834
 40
0.9368539024
 40
0.9534513254
 40
0.9695196402
 40
0.9850408886
 40
1.0
 40
1.0
 40
1.0
 40
1.0
 10
16.0684360968
 20
11.5782982584
 30
0.0
 10
16.0738014798
 20
11.5718702674
 30
0.0
 10
16.0846334557
 20
11.5596172181
 30
0.0
 10
16.1016122936
 20
11.5427308206
 30
0.0
 10
16.1188817734
 20
11.5278339501
 30
0.0
 10
16.1364090853
 20
11.5149594063
 30
0.0
 10
16.1541597099
 20
11.5041367818
 30
0.0
 10
16.1692496223
 20
11.4967826086
 30
0.0
 10
16.1813646525
 20
11.49199171
 30
0.0
 10
16.1903995303
 20
11.4889569552
 30
0.0
 10
16.1994597828
 20
11.4864502858
 30
0.0
 10
16.2085408349
 20
11.4844731185
 30
0.0
 10
16.2176377703
 20
11.4830266489
 30
0.0
 10
16.2267457054
 20
11.4821117875
 30
0.0
 10
16.2358596916
 20
11.4817290934
 30
0.0
 10
16.244974766
 20
11.4818788064
 30
0.0
 10
16.2540859578
 20
11.4825608463
 30
0.0
 10
16.2631883159
 20
11.4837747587
 30
0.0
 10
16.2722769119
 20
11.4855198314
 30
0.0
 10
16.2813468783
 20
11.487794943
 30
0.0
 10
16.2903933895
 20
11.4905987942
 30
0.0
 10
16.2994116641
 20
11.4939296312
 30
0.0
 10
16.3083971505
 20
11.4977857115
 30
0.0
 10
16.3204504577
 20
11.5036842925
 30
0.0
 10
16.3354340656
 20
11.5124153487
 30
0.0
 10
16.3530122554
 20
11.5248429756
 30
0.0
 10
16.3703411185
 20
11.5393000133
 30
0.0
 10
16.3873865589
 20
11.5557543388
 30
0.0
 10
16.4041165786
 20
11.5741715535
 30
0.0
 10
16.4204988351
 20
11.5945136508
 30
0.0
 10
16.4365013656
 20
11.6167391122
 30
0.0
 10
16.4520925108
 20
11.6408027086
 30
0.0
 10
16.4672411133
 20
11.6666554926
 30
0.0
 10
16.4819166434
 20
11.694244819
 30
0.0
 10
16.4960893348
 20
11.7235144157
 30
0.0
 10
16.5097302996
 20
11.7544044819
 30
0.0
 10
16.5228116312
 20
11.7868518064
 30
0.0
 10
16.535306494
 20
11.8207898998
 30
0.0
 10
16.5471892033
 20
11.856149137
 30
0.0
 10
16.5584352951
 20
11.8928569073
 30
0.0
 10
16.5690215902
 20
11.930837771
 30
0.0
 10
16.5789262511
 20
11.9700136222
 30
0.0
 10
16.5881288337
 20
12.0103038549
 30
0.0
 10
16.5966103342
 20
12.0516255355
 30
0.0
 10
16.6043532323
 20
12.093893578
 30
0.0
 10
16.6113415293
 20
12.1370209233
 30
0.0
 10
16.6175607829
 20
12.1809187228
 30
0.0
 10
16.6229981388
 20
12.225496524
 30
0.0
 10
16.6276423573
 20
12.27066246
 30
0.0
 10
16.6314838378
 20
12.3163234411
 30
0.0
 10
16.6345146386
 20
12.3623853487
 30
0.0
 10
16.636728494
 20
12.4087532313
 30
0.0
 10
16.6381208268
 20
12.4553315019
 30
0.0
 10
16.6386887586
 20
12.5020241364
 30
0.0
 10
16.6384311152
 20
12.5487348734
 30
0.0
 10
16.6373484293
 20
12.5953674141
 30
0.0
 10
16.6354429394
 20
12.6418256217
 30
0.0
 10
16.632718585
 20
12.6880137218
 30
0.0
 10
16.6291809984
 20
12.7338365007
 30
0.0
 10
16.6248374933
 20
12.7791995037
 30
0.0
 10
16.6196970488
 20
12.8240092317
 30
0.0
 10
16.6137702908
 20
12.8681733354
 30
0.0
 10
16.6070694699
 20
12.9116008084
 30
0.0
 10
16.5996084348
 20
12.9542021773
 30
0.0
 10
16.5914026029
 20
12.9958896885
 30
0.0
 10
16.5824689269
 20
13.0365774931
 30
0.0
 10
16.5728258578
 20
13.0761818275
 30
0.0
 10
16.5624933028
 20
13.1146211908
 30
0.0
 10
16.5514925838
 20
13.1518165151
 30
0.0
 10
16.5398463746
 20
13.1876913484
 30
0.0
 10
16.527578687
 20
13.2221719613
 30
0.0
 10
16.5147146752
 20
13.2551877304
 30
0.0
 10
16.501281031
 20
13.2866704177
 30
0.0
 10
16.4917855835
 20
13.3069750108
 30
0.0
 10
16.4869404362
 20
13.3168483829
 30
0.0
  0
SPLINE
  5
2B2
100
AcDbEntity
  8
LAYER_CHAMFER_FEAT
100
AcDbSpline
 62
7
  6
CONTINUOUS
 70
0
 71
3
 72
67
 73
63
 74
0
 42
0.0000001
 43
0.0000001
 44
0.0000000001
 40
0.0
 40
0.0
 40
0.0
 40
0.0
 40
0.0038601977
 40
0.0077284265
 40
0.0116126573
 40
0.0155207363
 40
0.0194603365
 40
0.0234388976
 40
0.0315392197
 40
0.0398773704
 40
0.0485010478
 40
0.0574517756
 40
0.0667648665
 40
0.076469648
 40
0.086589851
 40
0.0971440797
 40
0.1081463068
 40
0.119606357
 40
0.1315303545
 40
0.1439211275
 40
0.1567785671
 40
0.170099941
 40
0.1838801673
 40
0.1981120508
 40
0.2127864922
 40
0.2278926694
 40
0.2434181958
 40
0.2593492613
 40
0.2756707567
 40
0.2923663857
 40
0.3094187663
 40
0.3268095224
 40
0.3445193708
 40
0.3625282007
 40
0.3808151481
 40
0.399358666
 40
0.4181365913
 40
0.4371262092
 40
0.4563043146
 40
0.4951298847
 40
0.5344213452
 40
0.5739813667
 40
0.6136102717
 40
0.6531077831
 40
0.6922747688
 40
0.7309149934
 40
0.7499781057
 40
0.7688381815
 40
0.7874723147
 40
0.8058581279
 40
0.8239738352
 40
0.8417983079
 40
0.8593111439
 40
0.8764927403
 40
0.8933243708
 40
0.9097882697
 40
0.9258677241
 40
0.9415471586
 40
0.9568122884
 40
0.9716500991
 40
0.9860493435
 40
1.0
 40
1.0
 40
1.0
 40
1.0
 10
16.2088407681
 20
11.5133049958
 30
0.0
 10
16.2113407762
 20
11.513305
 30
0.0
 10
16.2163468779
 20
11.5134292062
 30
0.0
 10
16.223849808
 20
11.5139877993
 30
0.0
 10
16.2313471163
 20
11.5149185905
 30
0.0
 10
16.2388356385
 20
11.5162210604
 30
0.0
 10
16.2463127061
 20
11.5178948332
 30
0.0
 10
16.2563214036
 20
11.5206363472
 30
0.0
 10
16.2688188735
 20
11.5250156981
 30
0.0
 10
16.2836249743
 20
11.5317124277
 30
0.0
 10
16.2983111888
 20
11.5398700109
 30
0.0
 10
16.3128554668
 20
11.5494739401
 30
0.0
 10
16.3272376183
 20
11.5605083891
 30
0.0
 10
16.3414374641
 20
11.5729558923
 30
0.0
 10
16.3554351552
 20
11.5867973574
 30
0.0
 10
16.3692109814
 20
11.6020119471
 30
0.0
 10
16.3827453952
 20
11.6185770129
 30
0.0
 10
16.3960190263
 20
11.6364680409
 30
0.0
 10
16.4090127291
 20
11.6556586246
 30
0.0
 10
16.4217076333
 20
11.6761204597
 30
0.0
 10
16.4340851969
 20
11.6978233575
 30
0.0
 10
16.4461272571
 20
11.720735272
 30
0.0
 10
16.4578160764
 20
11.7448223364
 30
0.0
 10
16.4691343904
 20
11.7700489074
 30
0.0
 10
16.480065442
 20
11.7963776188
 30
0.0
 10
16.4905930179
 20
11.8237694387
 30
0.0
 10
16.5007014811
 20
11.8521837289
 30
0.0
 10
16.5103758005
 20
11.8815783074
 30
0.0
 10
16.5196015779
 20
11.911909513
 30
0.0
 10
16.528365073
 20
11.9431322723
 30
0.0
 10
16.5366532273
 20
11.9752001674
 30
0.0
 10
16.5444536884
 20
12.0080655071
 30
0.0
 10
16.5517548262
 20
12.0416794007
 30
0.0
 10
16.5585457526
 20
12.0759918335
 30
0.0
 10
16.5648163372
 20
12.1109517401
 30
0.0
 10
16.5705572282
 20
12.1465070922
 30
0.0
 10
16.5757598471
 20
12.182604934
 30
0.0
 10
16.5804164764
 20
12.2191916277
 30
0.0
 10
16.5859101164
 20
12.268753614
 30
0.0
 10
16.5913524976
 20
12.3315414535
 30
0.0
 10
16.59558971
 20
12.4076471383
 30
0.0
 10
16.5975340947
 20
12.4843665263
 30
0.0
 10
16.5971740165
 20
12.5612429425
 30
0.0
 10
16.594511639
 20
12.6378196564
 30
0.0
 10
16.5895628981
 20
12.7136408451
 30
0.0
 10
16.5835317134
 20
12.7760986415
 30
0.0
 10
16.5775721617
 20
12.8253263755
 30
0.0
 10
16.5725735911
 20
12.8616141032
 30
0.0
 10
16.5670337889
 20
12.8973793188
 30
0.0
 10
16.5609609718
 20
12.932568883
 30
0.0
 10
16.5543642133
 20
12.9671303885
 30
0.0
 10
16.5472533504
 20
13.0010124047
 30
0.0
 10
16.5396389893
 20
13.034164512
 30
0.0
 10
16.5315324835
 20
13.0665373891
 30
0.0
 10
16.5229459159
 20
13.0980828855
 30
0.0
 10
16.5138920842
 20
13.1287540994
 30
0.0
 10
16.5043844743
 20
13.1585054378
 30
0.0
 10
16.4944372406
 20
13.1872927249
 30
0.0
 10
16.4840651862
 20
13.2150731458
 30
0.0
 10
16.473283684
 20
13.2418056618
 30
0.0
 10
16.4621088822
 20
13.2674501784
 30
0.0
 10
16.4542822141
 20
13.2840626103
 30
0.0
 10
16.4503019257
 20
13.2921735853
 30
0.0
  0
SPLINE
  5
2B3
100
AcDbEntity
  8
LAYER_FEATURE
100
AcDbSpline
 62
7
  6
CONTINUOUS
 70
0
 71
3
 72
97
 73
93
 74
0
 42
0.0000001
 43
0.0000001
 44
0.0000000001
 40
0.0
 40
0.0
 40
0.0
 40
0.0
 40
0.0173110445
 40
0.0340650121
 40
0.0502381387
 40
0.0658096634
 40
0.0733647059
 40
0.080763304
 40
0.0880039777
 40
0.0950855529
 40
0.1020071616
 40
0.1087682759
 40
0.1153687354
 40
0.1218087581
 40
0.1280889927
 40
0.1342105297
 40
0.1401749457
 40
0.1459843451
 40
0.1516413827
 40
0.1571493278
 40
0.1625120881
 40
0.1677342626
 40
0.1728211897
 40
0.1777789735
 40
0.1873328862
 40
0.191948174
 40
0.1964671372
 40
0.2009001284
 40
0.2052583327
 40
0.2095536996
 40
0.2137988642
 40
0.2180070386
 40
0.2221918724
 40
0.2263673028
 40
0.2305473828
 40
0.234746108
 40
0.2389772432
 40
0.2432541661
 40
0.247589719
 40
0.2519960957
 40
0.2564847475
 40
0.2610663123
 40
0.2657505849
 40
0.2705464853
 40
0.2754620701
 40
0.2856780258
 40
0.2909926345
 40
0.2964509482
 40
0.3020571065
 40
0.3078145902
 40
0.3137262542
 40
0.3197943898
 40
0.326020743
 40
0.3324065679
 40
0.3389526594
 40
0.3456593744
 40
0.352526683
 40
0.3595541736
 40
0.3667410936
 40
0.3740863708
 40
0.3892455023
 40
0.4050180454
 40
0.4213857189
 40
0.4383267303
 40
0.4558161712
 40
0.4738263616
 40
0.4923271482
 40
0.5112861699
 40
0.5306690952
 40
0.5504398414
 40
0.5705607795
 40
0.5909929234
 40
0.6116961103
 40
0.6326291717
 40
0.6537501008
 40
0.6750162162
 40
0.6963843194
 40
0.7178108519
 40
0.7392520491
 40
0.7606640954
 40
0.7820032775
 40
0.8032261384
 40
0.8242896328
 40
0.8451512848
 40
0.8657693477
 40
0.886102967
 40
0.9061123487
 40
0.925758934
 40
0.9450055813
 40
0.9638167865
 40
0.9821587624
 40
1.0
 40
1.0
 40
1.0
 40
1.0
 10
15.8196666893
 20
13.3279589184
 30
0.0
 10
15.8247934032
 20
13.3445489707
 30
0.0
 10
15.8353389292
 20
13.3770564343
 30
0.0
 10
15.8523326925
 20
13.4245052238
 30
0.0
 10
15.8702111703
 20
13.4697576881
 30
0.0
 10
15.8859661861
 20
13.5059030223
 30
0.0
 10
15.8989968432
 20
13.5336124407
 30
0.0
 10
15.9088652815
 20
13.5535697918
 30
0.0
 10
15.9189214289
 20
13.5728994576
 30
0.0
 10
15.9291592815
 20
13.5915899015
 30
0.0
 10
15.9395727092
 20
13.6096298823
 30
0.0
 10
15.9501554907
 20
13.6270085736
 30
0.0
 10
15.9609012672
 20
13.6437155639
 30
0.0
 10
15.9718036685
 20
13.6597408069
 30
0.0
 10
15.9828561555
 20
13.6750747123
 30
0.0
 10
15.9940521702
 20
13.6897080705
 30
0.0
 10
16.0053850714
 20
13.7036320919
 30
0.0
 10
16.0168481061
 20
13.7168384379
 30
0.0
 10
16.0284345436
 20
13.7293191342
 30
0.0
 10
16.0401374891
 20
13.7410666829
 30
0.0
 10
16.0519501209
 20
13.7520740058
 30
0.0
 10
16.0638653066
 20
13.7623342887
 30
0.0
 10
16.0758767166
 20
13.7718417427
 30
0.0
 10
16.091810977
 20
13.7833625129
 30
0.0
 10
16.1081155666
 20
13.7935417944
 30
0.0
 10
16.1247352089
 20
13.8022273504
 30
0.0
 10
16.1371178675
 20
13.8078892155
 30
0.0
 10
16.1495526007
 20
13.8127687719
 30
0.0
 10
16.1620322066
 20
13.8168629757
 30
0.0
 10
16.1745489371
 20
13.820168886
 30
0.0
 10
16.1870950354
 20
13.8226841259
 30
0.0
 10
16.1996625858
 20
13.8244069157
 30
0.0
 10
16.2122436093
 20
13.8253358962
 30
0.0
 10
16.2248300403
 20
13.8254704311
 30
0.0
 10
16.2374137993
 20
13.8248103977
 30
0.0
 10
16.2499868095
 20
13.8233562656
 30
0.0
 10
16.2625410634
 20
13.8211091867
 30
0.0
 10
16.2750686138
 20
13.8180707371
 30
0.0
 10
16.2875616481
 20
13.814243168
 30
0.0
 10
16.300012461
 20
13.8096291572
 30
0.0
 10
16.3124134493
 20
13.8042318556
 30
0.0
 10
16.3247571924
 20
13.7980549315
 30
0.0
 10
16.3370362148
 20
13.7911024232
 30
0.0
 10
16.3492435613
 20
13.7833786735
 30
0.0
 10
16.3656233454
 20
13.7719124336
 30
0.0
 10
16.3816186292
 20
13.7590298595
 30
0.0
 10
16.3972096547
 20
13.7448771897
 30
0.0
 10
16.4089508235
 20
13.7333792248
 30
0.0
 10
16.4205773948
 20
13.7211460298
 30
0.0
 10
16.4320829926
 20
13.7081844915
 30
0.0
 10
16.4434607164
 20
13.6945025722
 30
0.0
 10
16.4547038204
 20
13.6801084225
 30
0.0
 10
16.4658056508
 20
13.6650107156
 30
0.0
 10
16.4767596035
 20
13.6492185025
 30
0.0
 10
16.4875591287
 20
13.6327412445
 30
0.0
 10
16.4981978224
 20
13.6155888485
 30
0.0
 10
16.5086692894
 20
13.5977715789
 30
0.0
 10
16.518967275
 20
13.5793001562
 30
0.0
 10
16.5290856795
 20
13.5601856097
 30
0.0
 10
16.5424696337
 20
13.533577969
 30
0.0
 10
16.5586848876
 20
13.4987643602
 30
0.0
 10
16.5771317066
 20
13.4550427202
 30
0.0
 10
16.59472235
 20
13.4090513223
 30
0.0
 10
16.6114144927
 20
13.3609007533
 30
0.0
 10
16.6271680991
 20
13.3107061704
 30
0.0
 10
16.641945262
 20
13.2585879624
 30
0.0
 10
16.6557103996
 20
13.2046711738
 30
0.0
 10
16.6684303304
 20
13.1490852687
 30
0.0
 10
16.6800743825
 20
13.0919637902
 30
0.0
 10
16.6906144687
 20
13.0334440328
 30
0.0
 10
16.7000251535
 20
12.9736666979
 30
0.0
 10
16.7082837208
 20
12.9127755475
 30
0.0
 10
16.7153702279
 20
12.8509170542
 30
0.0
 10
16.7212675675
 20
12.7882400446
 30
0.0
 10
16.7259615039
 20
12.7248953352
 30
0.0
 10
16.729440703
 20
12.6610353633
 30
0.0
 10
16.7316967617
 20
12.5968138165
 30
0.0
 10
16.7327242269
 20
12.5323852605
 30
0.0
 10
16.7325206202
 20
12.4679047641
 30
0.0
 10
16.7310864369
 20
12.4035275217
 30
0.0
 10
16.7284251404
 20
12.3394084772
 30
0.0
 10
16.7245431559
 20
12.2757019479
 30
0.0
 10
16.719449852
 20
12.2125612506
 30
0.0
 10
16.713157531
 20
12.1501383263
 30
0.0
 10
16.705681389
 20
12.0885833719
 30
0.0
 10
16.6970394756
 20
12.0280444745
 30
0.0
 10
16.6872526522
 20
11.9686672552
 30
0.0
 10
16.6763445302
 20
11.9105944965
 30
0.0
 10
16.6643414508
 20
11.8539658346
 30
0.0
 10
16.6512723217
 20
11.7989172618
 30
0.0
 10
16.6371688359
 20
11.7455814945
 30
0.0
 10
16.6269522279
 20
11.7107492307
 30
0.0
 10
16.6216684958
 20
11.6936510674
 30
0.0
  0
SPLINE
  5
2B4
100
AcDbEntity
  8
LAYER_FEATURE
100
AcDbSpline
 62
7
  6
CONTINUOUS
 70
0
 71
3
 72
39
 73
35
 74
0
 42
0.0000001
 43
0.0000001
 44
0.0000000001
 40
0.0
 40
0.0
 40
0.0
 40
0.0
 40
0.0443812782
 40
0.0879669214
 40
0.1307335038
 40
0.1726618815
 40
0.2137331562
 40
0.2539301977
 40
0.293237698
 40
0.3316421084
 40
0.3691319095
 40
0.4056977091
 40
0.441332399
 40
0.4760313896
 40
0.5097927946
 40
0.5426176367
 40
0.5745101277
 40
0.6054779635
 40
0.6355325902
 40
0.6646895405
 40
0.6929688272
 40
0.7203952848
 40
0.7469989421
 40
0.772815437
 40
0.7978863791
 40
0.8222596417
 40
0.8459896179
 40
0.86913737
 40
0.8917705711
 40
0.9139632724
 40
0.9357954499
 40
0.9573522578
 40
0.97872302
 40
1.0
 40
1.0
 40
1.0
 40
1.0
 10
15.8059623894
 20
13.4059233472
 30
0.0
 10
15.809201694
 20
13.4164057408
 30
0.0
 10
15.8157900864
 20
13.4371312215
 30
0.0
 10
15.8260996313
 20
13.4677629845
 30
0.0
 10
15.8367404551
 20
13.4976385096
 30
0.0
 10
15.8477039906
 20
13.5267338878
 30
0.0
 10
15.8589816724
 20
13.5550263603
 30
0.0
 10
15.8705645693
 20
13.5824935548
 30
0.0
 10
15.8824435414
 20
13.6091138052
 30
0.0
 10
15.8946092442
 20
13.6348661243
 30
0.0
 10
15.9070520771
 20
13.6597302211
 30
0.0
 10
15.9197622478
 20
13.6836865091
 30
0.0
 10
15.9327297845
 20
13.7067161119
 30
0.0
 10
15.9459445012
 20
13.7288009054
 30
0.0
 10
15.959396035
 20
13.7499235188
 30
0.0
 10
15.973073878
 20
13.7700673262
 30
0.0
 10
15.9869673656
 20
13.7892164757
 30
0.0
 10
16.0010656694
 20
13.8073559144
 30
0.0
 10
16.0153578508
 20
13.8244713601
 30
0.0
 10
16.0298328705
 20
13.8405493027
 30
0.0
 10
16.0444795518
 20
13.8555770494
 30
0.0
 10
16.0592866302
 20
13.869542688
 30
0.0
 10
16.0742427686
 20
13.8824350586
 30
0.0
 10
16.0893365236
 20
13.8942437846
 30
0.0
 10
16.1045563404
 20
13.9049592691
 30
0.0
 10
16.1198905684
 20
13.914572638
 30
0.0
 10
16.1353274225
 20
13.9230757454
 30
0.0
 10
16.1508549202
 20
13.9304612436
 30
0.0
 10
16.1664608725
 20
13.9367225378
 30
0.0
 10
16.182132877
 20
13.9418538095
 30
0.0
 10
16.1978581312
 20
13.9458501548
 30
0.0
 10
16.2136239248
 20
13.9487076348
 30
0.0
 10
16.2294159113
 20
13.9504233229
 30
0.0
 10
16.2399627962
 20
13.9508049804
 30
0.0
 10
16.2452226773
 20
13.9508049848
 30
0.0
  0
SPLINE
  5
2B5
100
AcDbEntity
  8
02___PRT_ALL_AXES
100
AcDbSpline
 62
7
  6
CONTINUOUS
 70
0
 71
3
 72
24
 73
20
 74
0
 42
0.0000001
 43
0.0000001
 44
0.0000000001
 40
0.0
 40
0.0
 40
0.0
 40
0.0
 40
0.0836660423
 40
0.1647132336
 40
0.2430320459
 40
0.3185262421
 40
0.391116283
 40
0.4607407319
 40
0.527358926
 40
0.5909538675
 40
0.6515357265
 40
0.7091459605
 40
0.7638621285
 40
0.8158033726
 40
0.8651363806
 40
0.9120813699
 40
0.9569172207
 40
0.9786557931
 40
1.0
 40
1.0
 40
1.0
 40
1.0
 10
15.9030707408
 20
13.1930219331
 30
0.0
 10
15.9072422473
 20
13.2065209332
 30
0.0
 10
15.9158173397
 20
13.2329862567
 30
0.0
 10
15.9296119765
 20
13.2716462253
 30
0.0
 10
15.9441095012
 20
13.3085704772
 30
0.0
 10
15.9592768908
 20
13.3436748567
 30
0.0
 10
15.975079756
 20
13.376879854
 30
0.0
 10
15.9914824253
 20
13.4081103289
 30
0.0
 10
16.0084480667
 20
13.4372957629
 30
0.0
 10
16.0259388654
 20
13.4643703754
 30
0.0
 10
16.0439162094
 20
13.4892732306
 30
0.0
 10
16.0623408791
 20
13.5119482514
 30
0.0
 10
16.0811733332
 20
13.5323441821
 30
0.0
 10
16.1003735961
 20
13.5504142889
 30
0.0
 10
16.1199022525
 20
13.5661163753
 30
0.0
 10
16.1397169357
 20
13.5794110776
 30
0.0
 10
16.1566093402
 20
13.5885488766
 30
0.0
 10
16.1701876753
 20
13.5945681026
 30
0.0
 10
16.1769922587
 20
13.5971556273
 30
0.0
 10
16.1803960375
 20
13.5983414903
 30
0.0
  0
SPLINE
  5
2B6
100
AcDbEntity
  8
LAYER_FEATURE
100
AcDbSpline
 62
7
  6
CONTINUOUS
 70
0
 71
3
 72
65
 73
61
 74
0
 42
0.0000001
 43
0.0000001
 44
0.0000000001
 40
0.0
 40
0.0
 40
0.0
 40
0.0
 40
0.0163581274
 40
0.0330511407
 40
0.0500643495
 40
0.0673828297
 40
0.0849906932
 40
0.1028715495
 40
0.1210084023
 40
0.1393837445
 40
0.1579795913
 40
0.1767775275
 40
0.2149030903
 40
0.2536071517
 40
0.2927310665
 40
0.3321131319
 40
0.3715897894
 40
0.4109968032
 40
0.4501704346
 40
0.488948624
 40
0.5271721835
 40
0.5460278416
 40
0.5646870863
 40
0.5831313806
 40
0.6013426054
 40
0.6193031026
 40
0.6369957203
 40
0.6544038599
 40
0.6715115259
 40
0.6883033798
 40
0.7047647958
 40
0.7208819204
 40
0.7366417373
 40
0.7520321385
 40
0.7670420015
 40
0.781661276
 40
0.7958810802
 40
0.8096938084
 40
0.8230932498
 40
0.8360747248
 40
0.8486352393
 40
0.8607736598
 40
0.8724909124
 40
0.8837902087
 40
0.8946772983
 40
0.9051607485
 40
0.915252251
 40
0.9249669486
 40
0.9343237702
 40
0.9433457534
 40
0.9520603251
 40
0.9604994957
 40
0.9686999146
 40
0.9767027296
 40
0.9806449357
 40
0.9845550219
 40
0.9884391734
 40
0.992303732
 40
0.996155159
 40
1.0
 40
1.0
 40
1.0
 40
1.0
 10
14.3141571411
 20
13.4059233472
 30
0.0
 10
14.3100443829
 20
13.3926144566
 30
0.0
 10
14.3020099761
 20
13.3656383801
 30
0.0
 10
14.2906368042
 20
13.3245482368
 30
0.0
 10
14.2798304316
 20
13.2824605049
 30
0.0
 10
14.2696041677
 20
13.2394271076
 30
0.0
 10
14.2599705487
 20
13.195500559
 30
0.0
 10
14.2509413988
 20
13.1507347471
 30
0.0
 10
14.2425278016
 20
13.1051844838
 30
0.0
 10
14.2347401012
 20
13.0589056209
 30
0.0
 10
14.2275878029
 20
13.0119547572
 30
0.0
 10
14.2188698816
 20
12.9482373498
 30
0.0
 10
14.2096405376
 20
12.8673169361
 30
0.0
 10
14.2012718689
 20
12.7689183403
 30
0.0
 10
14.1955998385
 20
12.6692557237
 30
0.0
 10
14.192652371
 20
12.568817549
 30
0.0
 10
14.1924439939
 20
12.4680953186
 30
0.0
 10
14.194975744
 20
12.3675822267
 30
0.0
 10
14.2002351412
 20
12.267770151
 30
0.0
 10
14.2081962714
 20
12.1691482887
 30
0.0
 10
14.2170889232
 20
12.087993385
 30
0.0
 10
14.2255409246
 20
12.0240519623
 30
0.0
 10
14.2324982839
 20
11.9769082195
 30
0.0
 10
14.2400937976
 20
11.9304190692
 30
0.0
 10
14.2483181931
 20
11.8846413696
 30
0.0
 10
14.2571613588
 20
11.8396312457
 30
0.0
 10
14.2666124434
 20
11.7954438381
 30
0.0
 10
14.2766598461
 20
11.7521332827
 30
0.0
 10
14.2872912393
 20
11.7097526302
 30
0.0
 10
14.2984935777
 20
11.6683537811
 30
0.0
 10
14.3102531186
 20
11.6279874204
 30
0.0
 10
14.3225554415
 20
11.5887029557
 30
0.0
 10
14.3353854675
 20
11.5505484563
 30
0.0
 10
14.3487274795
 20
11.513570592
 30
0.0
 10
14.3625651445
 20
11.4778145756
 30
0.0
 10
14.3768815387
 20
11.4433241044
 30
0.0
 10
14.3916591684
 20
11.4101413028
 30
0.0
 10
14.4068799989
 20
11.3783066697
 30
0.0
 10
14.4225254874
 20
11.347859031
 30
0.0
 10
14.4385766131
 20
11.3188354933
 30
0.0
 10
14.4550139127
 20
11.2912714013
 30
0.0
 10
14.4718175176
 20
11.2652003004
 30
0.0
 10
14.4889671953
 20
11.2406539049
 30
0.0
 10
14.5064423885
 20
11.2176620713
 30
0.0
 10
14.5242222584
 20
11.1962527858
 30
0.0
 10
14.5422857305
 20
11.1764521694
 30
0.0
 10
14.5606115273
 20
11.1582844964
 30
0.0
 10
14.579178194
 20
11.1417722283
 30
0.0
 10
14.5979640856
 20
11.1269360677
 30
0.0
 10
14.616947371
 20
11.1137950131
 30
0.0
 10
14.6361058065
 20
11.1023664318
 30
0.0
 10
14.6554170875
 20
11.0926660014
 30
0.0
 10
14.6748569182
 20
11.084707959
 30
0.0
 10
14.6912288773
 20
11.0795119603
 30
0.0
 10
14.7043358874
 20
11.0762574949
 30
0.0
 10
14.7141336491
 20
11.0742689392
 30
0.0
 10
14.7239436703
 20
11.0727216452
 30
0.0
 10
14.7337631114
 20
11.0716160119
 30
0.0
 10
14.7435885671
 20
11.0709525193
 30
0.0
 10
14.7501433291
 20
11.0708049957
 30
0.0
 10
14.7534174291
 20
11.0708049934
 30
0.0
  0
SPLINE
  5
2B7
100
AcDbEntity
  8
LAYER_FEATURE
100
AcDbSpline
 62
7
  6
CONTINUOUS
 70
0
 71
3
 72
39
 73
35
 74
0
 42
0.0000001
 43
0.0000001
 44
0.0000000001
 40
0.0
 40
0.0
 40
0.0
 40
0.0
 40
0.0468047321
 40
0.0925752426
 40
0.1372770014
 40
0.1808802906
 40
0.2233572602
 40
0.2646837665
 40
0.3048391458
 40
0.3438066759
 40
0.3815739334
 40
0.4181332119
 40
0.4534820099
 40
0.4876235777
 40
0.5205675446
 40
0.5523306024
 40
0.5829372664
 40
0.6124207096
 40
0.6408236498
 40
0.6681992625
 40
0.6946120587
 40
0.7201386389
 40
0.7448682334
 40
0.768902885
 40
0.7923571215
 40
0.8153569777
 40
0.838038262
 40
0.8605440761
 40
0.8830217053
 40
0.9056191196
 40
0.9284814071
 40
0.951747477
 40
0.9755473222
 40
1.0
 40
1.0
 40
1.0
 40
1.0
 10
14.3769716106
 20
13.3279589184
 30
0.0
 10
14.3805776318
 20
13.3396280073
 30
0.0
 10
14.3879373564
 20
13.3626389019
 30
0.0
 10
14.3995571536
 20
13.3965267064
 30
0.0
 10
14.41162323
 20
13.429369946
 30
0.0
 10
14.4241211829
 20
13.4611296415
 30
0.0
 10
14.4370364101
 20
13.4917686023
 30
0.0
 10
14.4503536777
 20
13.5212507369
 30
0.0
 10
14.46405736
 20
13.5495414213
 30
0.0
 10
14.4781313803
 20
13.5766074373
 30
0.0
 10
14.4925592677
 20
13.602417031
 30
0.0
 10
14.5073241808
 20
13.6269399415
 30
0.0
 10
14.5224089375
 20
13.6501474317
 30
0.0
 10
14.5377960524
 20
13.6720123152
 30
0.0
 10
14.5534677585
 20
13.6925089854
 30
0.0
 10
14.569406053
 20
13.7116134185
 30
0.0
 10
14.585592732
 20
13.7293031686
 30
0.0
 10
14.602009417
 20
13.7455573533
 30
0.0
 10
14.6186375759
 20
13.7603566254
 30
0.0
 10
14.6354585185
 20
13.7736831385
 30
0.0
 10
14.6524533632
 20
13.785520509
 30
0.0
 10
14.6696029822
 20
13.7958537568
 30
0.0
 10
14.6868878889
 20
13.8046692855
 30
0.0
 10
14.7042880927
 20
13.8119549136
 30
0.0
 10
14.7217829411
 20
13.8176999821
 30
0.0
 10
14.739350985
 20
13.8218955844
 30
0.0
 10
14.7569699493
 20
13.8245348496
 30
0.0
 10
14.7746168424
 20
13.8256132557
 30
0.0
 10
14.7922682104
 20
13.8251289063
 30
0.0
 10
14.8099005473
 20
13.8230826402
 30
0.0
 10
14.8274905683
 20
13.8194780391
 30
0.0
 10
14.8450159976
 20
13.8143209906
 30
0.0
 10
14.8624539476
 20
13.807620231
 30
0.0
 10
14.8738390298
 20
13.8022103381
 30
0.0
 10
14.8795011151
 20
13.7992682121
 30
0.0
  0
SPLINE
  5
2B8
100
AcDbEntity
  8
LAYER_FEATURE
100
AcDbSpline
 62
7
  6
CONTINUOUS
 70
0
 71
3
 72
74
 73
70
 74
0
 42
0.0000001
 43
0.0000001
 44
0.0000000001
 40
0.0
 40
0.0
 40
0.0
 40
0.0
 40
0.0170572261
 40
0.0344928865
 40
0.0522888852
 40
0.0704264702
 40
0.0888858162
 40
0.107646369
 40
0.1266868097
 40
0.1459851618
 40
0.165518844
 40
0.1852647373
 40
0.2051992446
 40
0.2252983501
 40
0.2455376769
 40
0.2658925436
 40
0.3068478342
 40
0.347963944
 40
0.3890380496
 40
0.4298676831
 40
0.4501286664
 40
0.4702536571
 40
0.490218222
 40
0.5099982791
 40
0.5295701551
 40
0.5489106443
 40
0.567997069
 40
0.5868073421
 40
0.6053200321
 40
0.6235144316
 40
0.6413706284
 40
0.6588695826
 40
0.675993208
 40
0.6927244603
 40
0.7090474332
 40
0.7249474637
 40
0.7404112488
 40
0.7554269764
 40
0.7699844722
 40
0.7840753663
 40
0.7976932836
 40
0.8108340614
 40
0.8234959993
 40
0.8356801462
 40
0.8473906288
 40
0.8586350231
 40
0.8694247716
 40
0.87977564
 40
0.8897082021
 40
0.899248326
 40
0.9084276205
 40
0.9172837785
 40
0.9258607313
 40
0.930060955
 40
0.9342106371
 40
0.9383168941
 40
0.9423871417
 40
0.946429041
 40
0.9504504608
 40
0.954459418
 40
0.9584640237
 40
0.9624724211
 40
0.9664927258
 40
0.9705329626
 40
0.9746010128
 40
0.9787045527
 40
0.9828510169
 40
0.9912989074
 40
1.0
 40
1.0
 40
1.0
 40
1.0
 10
14.3769716106
 20
13.3279589184
 30
0.0
 10
14.3728789906
 20
13.314715195
 30
0.0
 10
14.3649017731
 20
13.287840695
 30
0.0
 10
14.3536711878
 20
13.2468557911
 30
0.0
 10
14.3430567594
 20
13.2048008773
 30
0.0
 10
14.3330740008
 20
13.1617373792
 30
0.0
 10
14.3237374277
 20
13.1177276841
 30
0.0
 10
14.3150606327
 20
13.0728357791
 30
0.0
 10
14.3070562529
 20
13.0271268656
 30
0.0
 10
14.2997359438
 20
12.9806673688
 30
0.0
 10
14.2931103679
 20
12.9335248037
 30
0.0
 10
14.2871891767
 20
12.8857676907
 30
0.0
 10
14.2819809926
 20
12.8374654367
 30
0.0
 10
14.2774934152
 20
12.7886882919
 30
0.0
 10
14.2737329359
 20
12.7395070295
 30
0.0
 10
14.2696878621
 20
12.6733567759
 30
0.0
 10
14.2664899959
 20
12.5901672724
 30
0.0
 10
14.2656206625
 20
12.4900816621
 30
0.0
 10
14.2677170474
 20
12.3901163392
 30
0.0
 10
14.2719356939
 20
12.3071850243
 30
0.0
 10
14.2767940409
 20
12.2413615485
 30
0.0
 10
14.2811569173
 20
12.1925096765
 30
0.0
 10
14.2862415523
 20
12.1441206697
 30
0.0
 10
14.2920405869
 20
12.0962647344
 30
0.0
 10
14.2985455608
 20
12.0490114672
 30
0.0
 10
14.3057470022
 20
12.0024295383
 30
0.0
 10
14.3136344213
 20
11.9565866469
 30
0.0
 10
14.3221963316
 20
11.9115494073
 30
0.0
 10
14.3314202656
 20
11.8673832545
 30
0.0
 10
14.3412927938
 20
11.824152347
 30
0.0
 10
14.3517995456
 20
11.7819194718
 30
0.0
 10
14.3629252314
 20
11.7407459515
 30
0.0
 10
14.3746536658
 20
11.7006915527
 30
0.0
 10
14.3869677933
 20
11.6618143965
 30
0.0
 10
14.3998497173
 20
11.6241708721
 30
0.0
 10
14.4132807293
 20
11.5878155524
 30
0.0
 10
14.427241342
 20
11.5528011123
 30
0.0
 10
14.4417113233
 20
11.5191782493
 30
0.0
 10
14.4566697357
 20
11.4869956079
 30
0.0
 10
14.4720949767
 20
11.4562997078
 30
0.0
 10
14.4879648251
 20
11.4271348762
 30
0.0
 10
14.5042564912
 20
11.3995431877
 30
0.0
 10
14.5209466715
 20
11.3735644099
 30
0.0
 10
14.5380116087
 20
11.3492359615
 30
0.0
 10
14.5554271547
 20
11.3265928821
 30
0.0
 10
14.5731688358
 20
11.305667825
 30
0.0
 10
14.5912119172
 20
11.2864910707
 30
0.0
 10
14.6095314379
 20
11.269090574
 30
0.0
 10
14.6281022749
 20
11.2534920268
 30
0.0
 10
14.6468989534
 20
11.2397190021
 30
0.0
 10
14.6658960985
 20
11.2277929046
 30
0.0
 10
14.6850662687
 20
11.2177335933
 30
0.0
 10
14.7012784218
 20
11.2108727679
 30
0.0
 10
14.7142780642
 20
11.2063631824
 30
0.0
 10
14.7239848468
 20
11.203478964
 30
0.0
 10
14.733711775
 20
11.2010710056
 30
0.0
 10
14.7434553856
 20
11.1991400778
 30
0.0
 10
14.753212012
 20
11.1976871005
 30
0.0
 10
14.762977987
 20
11.1967125862
 30
0.0
 10
14.7727496339
 20
11.1962170024
 30
0.0
 10
14.7825232553
 20
11.1962005263
 30
0.0
 10
14.792295157
 20
11.1966631641
 30
0.0
 10
14.8020616376
 20
11.1976047525
 30
0.0
 10
14.8118190338
 20
11.1990248439
 30
0.0
 10
14.8215636219
 20
11.2009229091
 30
0.0
 10
14.8312919427
 20
11.2032981591
 30
0.0
 10
14.8443156324
 20
11.207123281
 30
0.0
 10
14.8605713883
 20
11.2131289022
 30
0.0
 10
14.8731988652
 20
11.2190679251
 30
0.0
 10
14.8794737278
 20
11.2223275456
 30
0.0
  0
SPLINE
  5
2B9
100
AcDbEntity
  8
LAYER_FEATURE
100
AcDbSpline
 62
7
  6
CONTINUOUS
 70
0
 71
3
 72
15
 73
11
 74
0
 42
0.0000001
 43
0.0000001
 44
0.0000000001
 40
0.0
 40
0.0
 40
0.0
 40
0.0
 40
0.1239905225
 40
0.2530580949
 40
0.3848435431
 40
0.5168893483
 40
0.6467324382
 40
0.7719814137
 40
0.8903981027
 40
1.0
 40
1.0
 40
1.0
 40
1.0
 10
14.3502278003
 20
13.183904237
 30
0.0
 10
14.3500527653
 20
13.1830001092
 30
0.0
 10
14.3497608771
 20
13.1811417362
 30
0.0
 10
14.3494939045
 20
13.1782942684
 30
0.0
 10
14.3493923731
 20
13.1753761969
 30
0.0
 10
14.3494586133
 20
13.1724513955
 30
0.0
 10
14.3496911002
 20
13.169583731
 30
0.0
 10
14.3500846526
 20
13.1668356624
 30
0.0
 10
14.3506303557
 20
13.1642671612
 30
0.0
 10
14.3511084425
 20
13.1626399726
 30
0.0
 10
14.351374981
 20
13.1618707987
 30
0.0
  0
SPLINE
  5
2BA
100
AcDbEntity
  8
LAYER_FEATURE
100
AcDbSpline
 62
7
  6
CONTINUOUS
 70
0
 71
3
 72
15
 73
11
 74
0
 42
0.0000001
 43
0.0000001
 44
0.0000000001
 40
0.0
 40
0.0
 40
0.0
 40
0.0
 40
0.1344766956
 40
0.2680434429
 40
0.399762954
 40
0.5287151248
 40
0.654017246
 40
0.7748346466
 40
0.8903929291
 40
1.0
 40
1.0
 40
1.0
 40
1.0
 10
14.3745962265
 20
13.0592665182
 30
0.0
 10
14.3746009063
 20
13.0620826254
 30
0.0
 10
14.37451057
 20
13.067696468
 30
0.0
 10
14.3740768519
 20
13.0760584918
 30
0.0
 10
14.3733487449
 20
13.0842840883
 30
0.0
 10
14.3723323497
 20
13.0923047312
 30
0.0
 10
14.3710362346
 20
13.1000537305
 30
0.0
 10
14.3694712652
 20
13.107466825
 30
0.0
 10
14.3676506833
 20
13.1144823369
 30
0.0
 10
14.3662365708
 20
13.1189833796
 30
0.0
 10
14.3654850307
 20
13.1211521661
 30
0.0
  0
SPLINE
  5
2BB
100
AcDbEntity
  8
LAYER_FEATURE
100
AcDbSpline
 62
7
  6
CONTINUOUS
 70
0
 71
3
 72
37
 73
33
 74
0
 42
0.0000001
 43
0.0000001
 44
0.0000000001
 40
0.0
 40
0.0
 40
0.0
 40
0.0
 40
0.0222256321
 40
0.0445309857
 40
0.0669947253
 40
0.0896934713
 40
0.1127009076
 40
0.136087007
 40
0.1599174856
 40
0.1842533272
 40
0.2346439592
 40
0.2608116584
 40
0.2876783646
 40
0.3152800847
 40
0.3436482032
 40
0.3728097803
 40
0.4027877122
 40
0.4336011044
 40
0.4652654778
 40
0.4977930032
 40
0.5311928313
 40
0.5654711979
 40
0.6006317276
 40
0.6366756031
 40
0.67360169
 40
0.7114067984
 40
0.7500857047
 40
0.7896314302
 40
0.8300353175
 40
0.8712867525
 40
0.9133741669
 40
1.0
 40
1.0
 40
1.0
 40
1.0
 10
14.7779725139
 20
13.7990549832
 30
0.0
 10
14.7737296033
 20
13.7990549814
 30
0.0
 10
14.7652259762
 20
13.7987776086
 30
0.0
 10
14.7524890029
 20
13.7975304115
 30
0.0
 10
14.7397689652
 20
13.7954529104
 30
0.0
 10
14.727075213
 20
13.7925467519
 30
0.0
 10
14.7144160481
 20
13.7888141575
 30
0.0
 10
14.7017999772
 20
13.7842581098
 30
0.0
 10
14.6892348308
 20
13.7788816738
 30
0.0
 10
14.6723671434
 20
13.7705292742
 30
0.0
 10
14.6558162828
 20
13.7606007502
 30
0.0
 10
14.6396483037
 20
13.7492603901
 30
0.0
 10
14.627458273
 20
13.7398508793
 30
0.0
 10
14.6153671267
 20
13.7296519323
 30
0.0
 10
14.6033816135
 20
13.7186697721
 30
0.0
 10
14.5915095094
 20
13.7069116156
 30
0.0
 10
14.5797581634
 20
13.6943850612
 30
0.0
 10
14.5681350103
 20
13.6810981602
 30
0.0
 10
14.5566473829
 20
13.6670594395
 30
0.0
 10
14.5453025115
 20
13.6522779245
 30
0.0
 10
14.5341076285
 20
13.6367630553
 30
0.0
 10
14.5230698062
 20
13.6205247917
 30
0.0
 10
14.5121960744
 20
13.6035735254
 30
0.0
 10
14.5014933814
 20
13.5859201008
 30
0.0
 10
14.4909685168
 20
13.5675758441
 30
0.0
 10
14.4806282464
 20
13.5485524905
 30
0.0
 10
14.470479158
 20
13.5288622421
 30
0.0
 10
14.4605277357
 20
13.5085177025
 30
0.0
 10
14.450780429
 20
13.4875319654
 30
0.0
 10
14.4412433428
 20
13.4659183966
 30
0.0
 10
14.4286956468
 20
13.4359948524
 30
0.0
 10
14.4198044622
 20
13.4130814357
 30
0.0
 10
14.4140722771
 20
13.3975696659
 30
0.0
  0
SPLINE
  5
2BC
100
AcDbEntity
  8
LAYER_FEATURE
100
AcDbSpline
 62
7
  6
CONTINUOUS
 70
0
 71
3
 72
16
 73
12
 74
0
 42
0.0000001
 43
0.0000001
 44
0.0000000001
 40
0.0
 40
0.0
 40
0.0
 40
0.0
 40
0.1358960788
 40
0.273574541
 40
0.4104722008
 40
0.5440409188
 40
0.6718458255
 40
0.7916512145
 40
0.9015217873
 40
0.9522652165
 40
1.0
 40
1.0
 40
1.0
 40
1.0
 10
14.30507782
 20
12.9408211413
 30
0.0
 10
14.3049811713
 20
12.9398568772
 30
0.0
 10
14.3048463099
 20
12.937909279
 30
0.0
 10
14.3048134719
 20
12.934980805
 30
0.0
 10
14.3049482135
 20
12.9320717123
 30
0.0
 10
14.305247541
 20
12.9292456492
 30
0.0
 10
14.3057046973
 20
12.9265640371
 30
0.0
 10
14.3063095071
 20
12.924085281
 30
0.0
 10
14.3069410766
 20
12.9221846218
 30
0.0
 10
14.3075164533
 20
12.9208141411
 30
0.0
 10
14.3078245838
 20
12.9201825114
 30
0.0
 10
14.3079838612
 20
12.9198816699
 30
0.0
  0
SPLINE
  5
2BD
100
AcDbEntity
  8
LAYER_FEATURE
100
AcDbSpline
 62
7
  6
CONTINUOUS
 70
0
 71
3
 72
15
 73
11
 74
0
 42
0.0000001
 43
0.0000001
 44
0.0000000001
 40
0.0
 40
0.0
 40
0.0
 40
0.0
 40
0.1425474631
 40
0.2817980063
 40
0.4168086437
 40
0.5466867702
 40
0.6706144529
 40
0.7878639573
 40
0.8978175312
 40
1.0
 40
1.0
 40
1.0
 40
1.0
 10
14.3390049839
 20
12.8319174359
 30
0.0
 10
14.3387833826
 20
12.8346519681
 30
0.0
 10
14.3382466204
 20
12.8400503853
 30
0.0
 10
14.3371479232
 20
12.8479987576
 30
0.0
 10
14.3357724454
 20
12.8556566276
 30
0.0
 10
14.3341317156
 20
12.8629603745
 30
0.0
 10
14.332239517
 20
12.8698495169
 30
0.0
 10
14.3301115675
 20
12.8762673874
 30
0.0
 10
14.3277657571
 20
12.8821608878
 30
0.0
 10
14.3260025383
 20
12.885848179
 30
0.0
 10
14.3250823413
 20
12.8875862375
 30
0.0
  0
SPLINE
  5
2BE
100
AcDbEntity
  8
LAYER_FEATURE
100
AcDbSpline
 62
7
  6
CONTINUOUS
 70
0
 71
3
 72
21
 73
17
 74
0
 42
0.0000001
 43
0.0000001
 44
0.0000000001
 40
0.0
 40
0.0
 40
0.0
 40
0.0
 40
0.0437577058
 40
0.0891946074
 40
0.1366299582
 40
0.1863386301
 40
0.2385392687
 40
0.2934008648
 40
0.3510487836
 40
0.411569418
 40
0.4750153523
 40
0.5414087606
 40
0.6107466246
 40
0.683003371
 40
0.8360458765
 40
1.0
 40
1.0
 40
1.0
 40
1.0
 10
14.3105223085
 20
12.7423207937
 30
0.0
 10
14.3110753119
 20
12.7425069427
 30
0.0
 10
14.3121825378
 20
12.7429482524
 30
0.0
 10
14.3138012247
 20
12.7437901995
 30
0.0
 10
14.3154019118
 20
12.7448208271
 30
0.0
 10
14.3169812009
 20
12.7460374711
 30
0.0
 10
14.3185362175
 20
12.7474373915
 30
0.0
 10
14.3200639233
 20
12.7490175953
 30
0.0
 10
14.3215613804
 20
12.7507747354
 30
0.0
 10
14.3230256586
 20
12.7527051629
 30
0.0
 10
14.3244538173
 20
12.754804914
 30
0.0
 10
14.3258430007
 20
12.7570696443
 30
0.0
 10
14.3271904101
 20
12.7594947061
 30
0.0
 10
14.3289614662
 20
12.7630027393
 30
0.0
 10
14.3310412231
 20
12.7677631465
 30
0.0
 10
14.3324882853
 20
12.7717376245
 30
0.0
 10
14.3331809708
 20
12.7738112584
 30
0.0
  0
SPLINE
  5
2BF
100
AcDbEntity
  8
LAYER_FEATURE
100
AcDbSpline
 62
7
  6
CONTINUOUS
 70
0
 71
3
 72
20
 73
16
 74
0
 42
0.0000001
 43
0.0000001
 44
0.0000000001
 40
0.0
 40
0.0
 40
0.0
 40
0.0
 40
0.0368685993
 40
0.0762914536
 40
0.1188628695
 40
0.1650096122
 40
0.2149908825
 40
0.2689357286
 40
0.3268699776
 40
0.3887340301
 40
0.4543999372
 40
0.5236844407
 40
0.6721185028
 40
0.8317950794
 40
1.0
 40
1.0
 40
1.0
 40
1.0
 10
14.2894767836
 20
12.7352365615
 30
0.0
 10
14.2892818377
 20
12.7351709399
 30
0.0
 10
14.288890115
 20
12.7349985897
 30
0.0
 10
14.2883299648
 20
12.7346396527
 30
0.0
 10
14.2877833545
 20
12.7341760102
 30
0.0
 10
14.2872528832
 20
12.7336107165
 30
0.0
 10
14.2867408335
 20
12.7329468711
 30
0.0
 10
14.2862496864
 20
12.7321880315
 30
0.0
 10
14.2857819207
 20
12.7313382186
 30
0.0
 10
14.2853399892
 20
12.7304019714
 30
0.0
 10
14.2849262196
 20
12.7293843239
 30
0.0
 10
14.284403132
 20
12.7278917776
 30
0.0
 10
14.283841748
 20
12.7258597409
 30
0.0
 10
14.2833253941
 20
12.7232510147
 30
0.0
 10
14.2830886944
 20
12.721435641
 30
0.0
 10
14.2829951036
 20
12.7205018848
 30
0.0
  0
SPLINE
  5
2C0
100
AcDbEntity
  8
LAYER_FEATURE
100
AcDbSpline
 62
7
  6
CONTINUOUS
 70
0
 71
3
 72
18
 73
14
 74
0
 42
0.0000001
 43
0.0000001
 44
0.0000000001
 40
0.0
 40
0.0
 40
0.0
 40
0.0
 40
0.1487266811
 40
0.2954669269
 40
0.4375166684
 40
0.5723178394
 40
0.6975751535
 40
0.7560226293
 40
0.8114059866
 40
0.8635707672
 40
0.9124096696
 40
0.9578824541
 40
1.0
 40
1.0
 40
1.0
 40
1.0
 10
14.280595607
 20
12.6789442764
 30
0.0
 10
14.2805793594
 20
12.6779626413
 30
0.0
 10
14.2806033093
 20
12.6760110786
 30
0.0
 10
14.2808060768
 20
12.6731284968
 30
0.0
 10
14.2811710746
 20
12.6703543076
 30
0.0
 10
14.2816901786
 20
12.6677491358
 30
0.0
 10
14.2822537511
 20
12.6657208439
 30
0.0
 10
14.2827784842
 20
12.6642318117
 30
0.0
 10
14.2831933319
 20
12.6632170676
 30
0.0
 10
14.2836362528
 20
12.6622839351
 30
0.0
 10
14.2841049418
 20
12.661437362
 30
0.0
 10
14.2845968715
 20
12.6606820261
 30
0.0
 10
14.2849520916
 20
12.6602246134
 30
0.0
 10
14.2851335007
 20
12.6600139274
 30
0.0
  0
SPLINE
  5
2C1
100
AcDbEntity
  8
LAYER_FEATURE
100
AcDbSpline
 62
7
  6
CONTINUOUS
 70
0
 71
3
 72
15
 73
11
 74
0
 42
0.0000001
 43
0.0000001
 44
0.0000000001
 40
0.0
 40
0.0
 40
0.0
 40
0.0
 40
0.1514828132
 40
0.2968653637
 40
0.4352518354
 40
0.5658486137
 40
0.6879993047
 40
0.8012150148
 40
0.9052166081
 40
1.0
 40
1.0
 40
1.0
 40
1.0
 10
14.3225987288
 20
12.590534199
 30
0.0
 10
14.3221643345
 20
12.5930686951
 30
0.0
 10
14.3212124876
 20
12.5980191598
 30
0.0
 10
14.3194971498
 20
12.6052083669
 30
0.0
 10
14.3175347263
 20
12.6119661991
 30
0.0
 10
14.3153415325
 20
12.6182369185
 30
0.0
 10
14.3129357461
 20
12.623969169
 30
0.0
 10
14.3103366523
 20
12.629116761
 30
0.0
 10
14.3075654591
 20
12.6336376818
 30
0.0
 10
14.3055229649
 20
12.636333892
 30
0.0
 10
14.3044731256
 20
12.6375531605
 30
0.0
  0
SPLINE
  5
2C2
100
AcDbEntity
  8
LAYER_FEATURE
100
AcDbSpline
 62
7
  6
CONTINUOUS
 70
0
 71
3
 72
17
 73
13
 74
0
 42
0.0000001
 43
0.0000001
 44
0.0000000001
 40
0.0
 40
0.0
 40
0.0
 40
0.0
 40
0.0921178863
 40
0.1417222598
 40
0.1937582336
 40
0.2482548698
 40
0.3052176212
 40
0.4264458192
 40
0.557157399
 40
0.69681783
 40
0.8447143926
 40
1.0
 40
1.0
 40
1.0
 40
1.0
 10
14.3019926268
 20
12.4876884674
 30
0.0
 10
14.303080095
 20
12.4886756032
 30
0.0
 10
14.304639951
 20
12.4903220421
 30
0.0
 10
14.3065637197
 20
12.4927399093
 30
0.0
 10
14.3080074542
 20
12.4947694626
 30
0.0
 10
14.3094133086
 20
12.4969656183
 30
0.0
 10
14.3112722515
 20
12.5001773403
 30
0.0
 10
14.3134707152
 20
12.5045902947
 30
0.0
 10
14.3158620564
 20
12.5103620688
 30
0.0
 10
14.3180394798
 20
12.5166691007
 30
0.0
 10
14.3199849187
 20
12.5234592286
 30
0.0
 10
14.3210918639
 20
12.5281666111
 30
0.0
 10
14.3216065293
 20
12.5305883217
 30
0.0
  0
SPLINE
  5
2C3
100
AcDbEntity
  8
LAYER_FEATURE
100
AcDbSpline
 62
7
  6
CONTINUOUS
 70
0
 71
3
 72
18
 73
14
 74
0
 42
0.0000001
 43
0.0000001
 44
0.0000000001
 40
0.0
 40
0.0
 40
0.0
 40
0.0
 40
0.0400740931
 40
0.0835017925
 40
0.1304040282
 40
0.1808251346
 40
0.2347237528
 40
0.2919966182
 40
0.4159787829
 40
0.5511127981
 40
0.6952140544
 40
0.8457557521
 40
1.0
 40
1.0
 40
1.0
 40
1.0
 10
14.2819805693
 20
12.4695227701
 30
0.0
 10
14.2817927133
 20
12.4693522461
 30
0.0
 10
14.2814227618
 20
12.4689728686
 30
0.0
 10
14.280907263
 20
12.4683266496
 30
0.0
 10
14.2804121353
 20
12.4675846357
 30
0.0
 10
14.2799399828
 20
12.4667509388
 30
0.0
 10
14.2794931796
 20
12.4658299362
 30
0.0
 10
14.2789193223
 20
12.4644555292
 30
0.0
 10
14.2782898228
 20
12.4625507045
 30
0.0
 10
14.2776876188
 20
12.4600676954
 30
0.0
 10
14.2772332936
 20
12.4573828819
 30
0.0
 10
14.2769369508
 20
12.4545547984
 30
0.0
 10
14.2768496779
 20
12.4526258785
 30
0.0
 10
14.2768335171
 20
12.4516494919
 30
0.0
  0
SPLINE
  5
2C4
100
AcDbEntity
  8
LAYER_FEATURE
100
AcDbSpline
 62
7
  6
CONTINUOUS
 70
0
 71
3
 72
50
 73
46
 74
0
 42
0.0000001
 43
0.0000001
 44
0.0000000001
 40
0.0
 40
0.0
 40
0.0
 40
0.0
 40
0.0432807752
 40
0.086397643
 40
0.1292682686
 40
0.1718105873
 40
0.2139439093
 40
0.2555888596
 40
0.2966677707
 40
0.337104965
 40
0.3768270752
 40
0.4157633722
 40
0.4538461141
 40
0.491010918
 40
0.527197163
 40
0.5623484317
 40
0.5964130015
 40
0.6293443967
 40
0.6611020147
 40
0.6916518519
 40
0.7064659681
 40
0.7209688622
 40
0.7351585431
 40
0.7490336336
 40
0.762593375
 40
0.7758377272
 40
0.7887673586
 40
0.8013837524
 40
0.8136892317
 40
0.8256870307
 40
0.8373813805
 40
0.8487775407
 40
0.8598819286
 40
0.8707021421
 40
0.8915227915
 40
0.9113309968
 40
0.9302386584
 40
0.9393997858
 40
0.9483894515
 40
0.9572287551
 40
0.9659402339
 40
0.9745477341
 40
0.983076204
 40
0.9915514791
 40
1.0
 40
1.0
 40
1.0
 40
1.0
 10
14.2768335171
 20
12.4516494919
 30
0.0
 10
14.2771989622
 20
12.4312343508
 30
0.0
 10
14.2783066365
 20
12.3904871198
 30
0.0
 10
14.2811024085
 20
12.3295634156
 30
0.0
 10
14.285023978
 20
12.269050632
 30
0.0
 10
14.2900624507
 20
12.2090861937
 30
0.0
 10
14.2962063438
 20
12.1498060899
 30
0.0
 10
14.3034416886
 20
12.0913447412
 30
0.0
 10
14.3117520241
 20
12.033834699
 30
0.0
 10
14.3211184496
 20
11.9774063346
 30
0.0
 10
14.3315196606
 20
11.9221875375
 30
0.0
 10
14.3429320064
 20
11.8683034219
 30
0.0
 10
14.3553295458
 20
11.8158760371
 30
0.0
 10
14.368684111
 20
11.7650240821
 30
0.0
 10
14.382965377
 20
11.7158626338
 30
0.0
 10
14.3981409464
 20
11.6685028561
 30
0.0
 10
14.4141764131
 20
11.6230518029
 30
0.0
 10
14.4310355309
 20
11.5796119194
 30
0.0
 10
14.4486800721
 20
11.5382816621
 30
0.0
 10
14.4641600971
 20
11.5053453303
 30
0.0
 10
14.4769220523
 20
11.480148109
 30
0.0
 10
14.4865664122
 20
11.4620283998
 30
0.0
 10
14.4963761164
 20
11.4445036009
 30
0.0
 10
14.5063456565
 20
11.4275835603
 30
0.0
 10
14.5164694431
 20
11.411277885
 30
0.0
 10
14.5267417222
 20
11.3955957649
 30
0.0
 10
14.537156762
 20
11.3805460931
 30
0.0
 10
14.5477086788
 20
11.3661373624
 30
0.0
 10
14.5583915636
 20
11.3523777229
 30
0.0
 10
14.5691994452
 20
11.3392749791
 30
0.0
 10
14.580126267
 20
11.326836496
 30
0.0
 10
14.5911659012
 20
11.3150694554
 30
0.0
 10
14.6023124548
 20
11.3039801769
 30
0.0
 10
14.6171177806
 20
11.2902835771
 30
0.0
 10
14.6358598241
 20
11.2748163193
 30
0.0
 10
14.6589842631
 20
11.2588124137
 30
0.0
 10
14.6787087925
 20
11.2477257302
 30
0.0
 10
14.6945712658
 20
11.2403585491
 30
0.0
 10
14.7063935074
 20
11.2356122875
 30
0.0
 10
14.7182578918
 20
11.2315909662
 30
0.0
 10
14.7301578631
 20
11.228297085
 30
0.0
 10
14.7420863426
 20
11.2257328009
 30
0.0
 10
14.754036488
 20
11.2238999396
 30
0.0
 10
14.7660005639
 20
11.2227996738
 30
0.0
 10
14.7739867864
 20
11.2225550044
 30
0.0
 10
14.7779725139
 20
11.2225549987
 30
0.0
  0
SPLINE
  5
2C5
100
AcDbEntity
  8
LAYER_FEATURE
100
AcDbSpline
 62
7
  6
CONTINUOUS
 70
0
 71
3
 72
15
 73
11
 74
0
 42
0.0000001
 43
0.0000001
 44
0.0000000001
 40
0.0
 40
0.0
 40
0.0
 40
0.0
 40
0.1126201288
 40
0.2332971211
 40
0.3599529399
 40
0.4902911489
 40
0.6218951856
 40
0.7523075706
 40
0.8791067212
 40
1.0
 40
1.0
 40
1.0
 40
1.0
 10
14.4140722771
 20
13.3975696659
 30
0.0
 10
14.4138241232
 20
13.3967666398
 30
0.0
 10
14.4133837408
 20
13.3950798888
 30
0.0
 10
14.4128945405
 20
13.3924365255
 30
0.0
 10
14.4125612611
 20
13.3896358402
 30
0.0
 10
14.41239146
 20
13.3867390237
 30
0.0
 10
14.412388916
 20
13.3838092401
 30
0.0
 10
14.4125537209
 20
13.3809104636
 30
0.0
 10
14.4128821171
 20
13.3781061337
 30
0.0
 10
14.4132150916
 20
13.3762860593
 30
0.0
 10
14.4134104601
 20
13.3754052276
 30
0.0
  0
SPLINE
  5
2C6
100
AcDbEntity
  8
LAYER_FEATURE
100
AcDbSpline
 62
7
  6
CONTINUOUS
 70
0
 71
3
 72
15
 73
11
 74
0
 42
0.0000001
 43
0.0000001
 44
0.0000000001
 40
0.0
 40
0.0
 40
0.0
 40
0.0
 40
0.127054225
 40
0.2553208736
 40
0.3838964072
 40
0.5118681719
 40
0.6383329915
 40
0.7624062911
 40
0.8832317214
 40
1.0
 40
1.0
 40
1.0
 40
1.0
 10
14.4278169485
 20
13.2626452
 30
0.0
 10
14.4280514397
 20
13.2654198535
 30
0.0
 10
14.4284189533
 20
13.2710049052
 30
0.0
 10
14.428669319
 20
13.2794164167
 30
0.0
 10
14.4286206477
 20
13.2878517298
 30
0.0
 10
14.4282733145
 20
13.2962405027
 30
0.0
 10
14.4276302563
 20
13.3045128941
 30
0.0
 10
14.4266968724
 20
13.3126000905
 30
0.0
 10
14.4254810783
 20
13.3204346745
 30
0.0
 10
14.4244695473
 20
13.3255445956
 30
0.0
 10
14.4239154025
 20
13.3280429944
 30
0.0
  0
SPLINE
  5
2C7
100
AcDbEntity
  8
LAYER_FEATURE
100
AcDbSpline
 62
7
  6
CONTINUOUS
 70
0
 71
3
 72
39
 73
35
 74
0
 42
0.0000001
 43
0.0000001
 44
0.0000000001
 40
0.0
 40
0.0
 40
0.0
 40
0.0
 40
0.0443812161
 40
0.0879669375
 40
0.1307335144
 40
0.17266187
 40
0.2137331579
 40
0.2539302009
 40
0.2932376948
 40
0.3316421066
 40
0.3691319128
 40
0.4056977088
 40
0.4413323949
 40
0.4760313922
 40
0.509792798
 40
0.5426176311
 40
0.574510128
 40
0.6054779696
 40
0.6355325855
 40
0.6646895377
 40
0.6929688335
 40
0.7203952838
 40
0.7469989369
 40
0.7728154411
 40
0.7978863818
 40
0.8222596365
 40
0.8459896189
 40
0.8691373741
 40
0.8917705685
 40
0.9139632712
 40
0.9357954525
 40
0.957352258
 40
0.9787230193
 40
1.0
 40
1.0
 40
1.0
 40
1.0
 10
14.3141571411
 20
13.4059233472
 30
0.0
 10
14.3173964412
 20
13.4164057261
 30
0.0
 10
14.3239848369
 20
13.4371312099
 30
0.0
 10
14.3342943796
 20
13.4677629763
 30
0.0
 10
14.3449352062
 20
13.4976385138
 30
0.0
 10
14.3558987453
 20
13.5267338868
 30
0.0
 10
14.367176424
 20
13.5550263585
 30
0.0
 10
14.3787593183
 20
13.5824935564
 30
0.0
 10
14.3906382955
 20
13.6091138036
 30
0.0
 10
14.4028039981
 20
13.6348661226
 30
0.0
 10
14.4152468255
 20
13.6597302229
 30
0.0
 10
14.4279569996
 20
13.6836865085
 30
0.0
 10
14.4409245407
 20
13.7067161085
 30
0.0
 10
14.4541392507
 20
13.728800907
 30
0.0
 10
14.4675907827
 20
13.7499235213
 30
0.0
 10
14.4812686362
 20
13.7700673208
 30
0.0
 10
14.4951621175
 20
13.7892164754
 30
0.0
 10
14.5092604139
 20
13.8073559204
 30
0.0
 10
14.5235526083
 20
13.8244713543
 30
0.0
 10
14.5380276255
 20
13.8405492987
 30
0.0
 10
14.5526742962
 20
13.8555770573
 30
0.0
 10
14.5674813835
 20
13.869542686
 30
0.0
 10
14.5824375269
 20
13.8824350493
 30
0.0
 10
14.5975312702
 20
13.8942437916
 30
0.0
 10
14.612751089
 20
13.9049592743
 30
0.0
 10
14.6280853275
 20
13.9145726242
 30
0.0
 10
14.6435221726
 20
13.9230757476
 30
0.0
 10
14.6590496669
 20
13.9304612561
 30
0.0
 10
14.6746556288
 20
13.9367225251
 30
0.0
 10
14.6903276298
 20
13.9418538034
 30
0.0
 10
14.7060528796
 20
13.9458501708
 30
0.0
 10
14.721818678
 20
13.9487076307
 30
0.0
 10
14.7376106637
 20
13.9504233032
 30
0.0
 10
14.7481575478
 20
13.9508049961
 30
0.0
 10
14.7534174291
 20
13.9508049924
 30
0.0
  0
ENDSEC
  0
SECTION
  2
OBJECTS
  0
DICTIONARY
  5
C
100
AcDbDictionary
280
0
281
1
  3
ACAD_GROUP
350
D
  3
ACAD_MLINESTYLE
350
17
  3
ACAD_LAYOUT
350
1A
  3
ACAD_PLOTSETTINGS
350
19
  3
ACAD_PLOTSTYLENAME
350
E
  0
DICTIONARY
  5
D
102
{ACAD_REACTORS
330
C
102
}
100
AcDbDictionary
280
0
281
1
  0
ACDBDICTIONARYWDFLT
  5
E
102
{ACAD_REACTORS
330
C
102
}
100
AcDbDictionary
281
1
  3
Normal
350
F
100
AcDbDictionaryWithDefault
340
F
  0
DICTIONARY
  5
17
102
{ACAD_REACTORS
330
C
102
}
100
AcDbDictionary
280
0
281
1
  3
Standard
350
18
  0
DICTIONARY
  5
19
102
{ACAD_REACTORS
330
C
102
}
100
AcDbDictionary
281
1
  0
DICTIONARY
  5
1A
102
{ACAD_REACTORS
330
C
102
}
100
AcDbDictionary
281
1
  3
Model
350
2C8
  3
Layout1
350
2C9
  0
ACDBPLACEHOLDER
  5
F
102
{ACAD_REACTORS
330
E
102
}
  0
MLINESTYLE
  5
18
102
{ACAD_REACTORS
330
17
102
}
100
AcDbMlineStyle
  2
STANDARD
 70
0
  3

 62
256
 51
90.0
 52
90.0
 71
2
 49
0.5
 62
256
  6
BYLAYER
 49
-0.5
 62
256
  6
BYLAYER
  0
LAYOUT
  5
2C8
102
{ACAD_REACTORS
330
1A
102
}
100
AcDbPlotSettings
  1

  2
none_device
  4
ANSI_C_(22.00_x_17.00_Inches)
  6

 40
0.0
 41
0.0
 42
0.0
 43
0.0
 44
558.8
 45
431.8
 46
0.0
 47
0.0
 48
0.0
 49
0.0
140
0.0
141
0.0
142
1.0
143
1.0
 70
1024
 72
0
 73
0
 74
0
  7

 75
0
147
1.0
148
0.0
149
0.0
100
AcDbLayout
  1
Model
 70
0
 71
0
 10
0.0
 20
0.0
 11
22.0
 21
17.0
 12
0.0
 22
0.0
 32
0.0
 14
0.0
 24
0.0
 34
0.0
 15
0.0
 25
0.0
 35
0.0
146
0.0
 13
0.0
 23
0.0
 33
0.0
 16
1.0
 26
0.0
 36
0.0
 17
0.0
 27
1.0
 37
0.0
 76
0
330
222
345
0
346
0
  0
LAYOUT
  5
2C9
102
{ACAD_REACTORS
330
1A
102
}
100
AcDbPlotSettings
  1

  2
none_device
  4
ANSI_C_(22.00_x_17.00_Inches)
  6

 40
0.0
 41
0.0
 42
0.0
 43
0.0
 44
558.8
 45
431.8
 46
0.0
 47
0.0
 48
0.0
 49
0.0
140
0.0
141
0.0
142
1.0
143
1.0
 70
0
 72
0
 73
0
 74
0
  7

 75
0
147
1.0
148
0.0
149
0.0
100
AcDbLayout
  1
Layout1
 70
0
 71
1
 10
0.0
 20
0.0
 11
22.0
 21
17.0
 12
0.0
 22
0.0
 32
0.0
 14
0.0
 24
0.0
 34
0.0
 15
0.0
 25
0.0
 35
0.0
146
0.0
 13
0.0
 23
0.0
 33
0.0
 16
1.0
 26
0.0
 36
0.0
 17
0.0
 27
1.0
 37
0.0
 76
0
330
223
345
0
346
0
  0
ENDSEC
  0
EOF