999
DXF file: _cgs_temp_output.dxf
999
Pro/ENGINEER 2016360 by Parametric Technology Corporation
  0
SECTION
  2
HEADER
  9
$ACADVER
  1
AC1021
  9
$DWGCODEPAGE
  3
ANSI_1252
  9
$EXTMAX
 10
22.0
 20
17.0
 30
0.0
  9
$EXTMIN
 10
0.0
 20
0.0
 30
0.0
  9
$LIMMIN
 10
0.0
 20
0.0
  9
$LIMMAX
 10
22.0
 20
17.0
  9
$VIEWCTR
 10
11.0
 20
8.5
  9
$VIEWSIZE
 40
17.0
  9
$CLAYER
  8
0
  9
$LTSCALE
 40
1.21
  9
$CELTYPE
  6
BYLAYER
  9
$DIMSCALE
 40
1.0
  9
$DIMASZ
 40
0.1875
  9
$DIMEXO
 40
0.0625
  9
$DIMDLI
 40
0.836
  9
$DIMEXE
 40
0.125
  9
$DIMCEN
 40
0.198
  9
$DIMLFAC
 40
1.0
  9
$DIMBLK
  1
_CLOSED
  9
$DIMALT
 70
0
  9
$DIMALTF
 40
25.4
  9
$DIMTXT
 40
0.15625
  9
$DIMTOL
 70
0
  9
$DIMLIM
 70
0
  9
$DIMTFAC
 40
1.0
  9
$DIMGAP
 40
0.09
  9
$DIMDSEP
 70
46
  9
$AUNITS
 70
0
  9
$PDMODE
 70
3
  9
$PDSIZE
 40
0.3125
  9
$HANDSEED
  5
2D5
  9
$TILEMODE
 70
1
  9
$MEASUREMENT
 70
0
  9
$INSUNITS
 70
1
  0
ENDSEC
  0
SECTION
  2
CLASSES
  0
CLASS
  1
ACDBDICTIONARYWDFLT
  2
AcDbDictionaryWithDefault
  3
AutoCAD 2000
 90
0
 91
1
280
0
281
0
  0
CLASS
  1
ACDBPLACEHOLDER
  2
AcDbPlaceHolder
  3
AutoCAD 2000
 90
0
 91
1
280
0
281
0
  0
CLASS
  1
LAYOUT
  2
AcDbLayout
  3
AutoCAD 2000
 90
0
 91
0
280
0
281
0
  0
ENDSEC
  0
SECTION
  2
TABLES
  0
TABLE
  2
VPORT
  5
8
100
AcDbSymbolTable
 70
2
  0
VPORT
  5
1F4
100
AcDbSymbolTableRecord
100
AcDbViewportTableRecord
  2
*ACTIVE
 70
0
 10
0.0
 20
0.0
 11
1.0
 21
1.0
 12
11.0
 22
8.5
 13
0.0
 23
0.0
 14
1.0
 24
1.0
 15
0.0
 25
0.0
 16
0.0
 26
0.0
 36
1.0
 17
0.0
 27
0.0
 37
0.0
 40
17.0
 41
1.2941176471
 42
50.0
 43
0.0
 44
0.0
 50
0.0
 51
0.0
 71
0
 72
100
 73
1
 74
1
 75
0
 76
0
 77
0
 78
0
  0
ENDTAB
  0
TABLE
  2
LTYPE
  5
5
100
AcDbSymbolTable
 70
6
  0
LTYPE
  5
14
100
AcDbSymbolTableRecord
100
AcDbLinetypeTableRecord
  2
BYBLOCK
 70
0
  3

 72
65
 73
0
 40
0.0
  0
LTYPE
  5
15
100
AcDbSymbolTableRecord
100
AcDbLinetypeTableRecord
  2
BYLAYER
 70
0
  3

 72
65
 73
0
 40
0.0
  0
LTYPE
  5
16
100
AcDbSymbolTableRecord
100
AcDbLinetypeTableRecord
  2
CONTINUOUS
 70
64
  3
Solid line
 72
65
 73
0
 40
0.0
  0
LTYPE
  5
1F5
100
AcDbSymbolTableRecord
100
AcDbLinetypeTableRecord
  2
CENTER
 70
64
  3
____ _ ____ _ ____ _ ____ _ ____ _ ____ _ ____
 72
65
 73
4
 40
0.6
 49
0.375
 74
0
 49
-0.075
 74
0
 49
0.075
 74
0
 49
-0.075
 74
0
  0
LTYPE
  5
1F6
100
AcDbSymbolTableRecord
100
AcDbLinetypeTableRecord
  2
HIDDEN
 70
64
  3
- - - - - - - - - - - - - - - - - - - -
 72
65
 73
2
 40
0.2
 49
0.1
 74
0
 49
-0.1
 74
0
  0
LTYPE
  5
1F7
100
AcDbSymbolTableRecord
100
AcDbLinetypeTableRecord
  2
PHANTOM
 70
64
  3
_____ _ _ _____ _ _ _____ _ _ _____
 72
65
 73
6
 40
0.8
 49
0.45
 74
0
 49
-0.05
 74
0
 49
0.1
 74
0
 49
-0.05
 74
0
 49
0.1
 74
0
 49
-0.05
 74
0
  0
LTYPE
  5
1F8
100
AcDbSymbolTableRecord
100
AcDbLinetypeTableRecord
  2
DOT
 70
64
  3
. . . . . . . . . . . . . . . . . . . .
 72
65
 73
2
 40
0.2
 49
0.1
 74
0
 49
-0.1
 74
0
  0
LTYPE
  5
1F9
100
AcDbSymbolTableRecord
100
AcDbLinetypeTableRecord
  2
DASHED
 70
64
  3
- - - - - - - - - - - - - - - - - - - -
 72
65
 73
2
 40
0.2
 49
0.1
 74
0
 49
-0.1
 74
0
  0
ENDTAB
  0
TABLE
  2
LAYER
  5
2
100
AcDbSymbolTable
 70
36
  0
LAYER
  5
10
100
AcDbSymbolTableRecord
100
AcDbLayerTableRecord
  2
0
 70
0
 62
7
  6
CONTINUOUS
370
-3
390
F
  0
LAYER
  5
1FA
100
AcDbSymbolTableRecord
100
AcDbLayerTableRecord
  2
DEFAULT_1
 70
0
 62
7
  6
CENTER
370
-3
390
F
  0
LAYER
  5
1FB
100
AcDbSymbolTableRecord
100
AcDbLayerTableRecord
  2
DEFAULT_2
 70
0
 62
8
  6
HIDDEN
370
-3
390
F
  0
LAYER
  5
1FC
100
AcDbSymbolTableRecord
100
AcDbLayerTableRecord
  2
DEFAULT_3
 70
0
 62
7
  6
PHANTOM
370
-3
390
F
  0
LAYER
  5
1FD
100
AcDbSymbolTableRecord
100
AcDbLayerTableRecord
  2
01_ALL_DTM_PLN
 70
0
 62
7
  6
CONTINUOUS
370
-3
390
F
  0
LAYER
  5
1FE
100
AcDbSymbolTableRecord
100
AcDbLayerTableRecord
  2
01__ASM_ALL_DTM_PLN
 70
0
 62
7
  6
CONTINUOUS
370
-3
390
F
  0
LAYER
  5
1FF
100
AcDbSymbolTableRecord
100
AcDbLayerTableRecord
  2
01__ASM_DEF_DTM_PLN
 70
0
 62
7
  6
CONTINUOUS
370
-3
390
F
  0
LAYER
  5
200
100
AcDbSymbolTableRecord
100
AcDbLayerTableRecord
  2
01___PRT_ALL_DTM_PLN
 70
0
 62
7
  6
CONTINUOUS
370
-3
390
F
  0
LAYER
  5
201
100
AcDbSymbolTableRecord
100
AcDbLayerTableRecord
  2
01___PRT_DEF_DTM_PLN
 70
0
 62
7
  6
CONTINUOUS
370
-3
390
F
  0
LAYER
  5
202
100
AcDbSymbolTableRecord
100
AcDbLayerTableRecord
  2
02_ALL_AXES
 70
0
 62
7
  6
CONTINUOUS
370
-3
390
F
  0
LAYER
  5
203
100
AcDbSymbolTableRecord
100
AcDbLayerTableRecord
  2
02__ASM_ALL_AXES
 70
0
 62
7
  6
CONTINUOUS
370
-3
390
F
  0
LAYER
  5
204
100
AcDbSymbolTableRecord
100
AcDbLayerTableRecord
  2
02___PRT_ALL_AXES
 70
0
 62
7
  6
CONTINUOUS
370
-3
390
F
  0
LAYER
  5
205
100
AcDbSymbolTableRecord
100
AcDbLayerTableRecord
  2
03_ALL_CURVES
 70
0
 62
7
  6
CONTINUOUS
370
-3
390
F
  0
LAYER
  5
206
100
AcDbSymbolTableRecord
100
AcDbLayerTableRecord
  2
03__ASM_ALL_CURVES
 70
0
 62
7
  6
CONTINUOUS
370
-3
390
F
  0
LAYER
  5
207
100
AcDbSymbolTableRecord
100
AcDbLayerTableRecord
  2
03___PRT_ALL_CURVES
 70
0
 62
7
  6
CONTINUOUS
370
-3
390
F
  0
LAYER
  5
208
100
AcDbSymbolTableRecord
100
AcDbLayerTableRecord
  2
04_ALL_DTM_PNT
 70
0
 62
7
  6
CONTINUOUS
370
-3
390
F
  0
LAYER
  5
209
100
AcDbSymbolTableRecord
100
AcDbLayerTableRecord
  2
04__ASM_ALL_DTM_PNT
 70
0
 62
7
  6
CONTINUOUS
370
-3
390
F
  0
LAYER
  5
20A
100
AcDbSymbolTableRecord
100
AcDbLayerTableRecord
  2
04___PRT_ALL_DTM_PNT
 70
0
 62
7
  6
CONTINUOUS
370
-3
390
F
  0
LAYER
  5
20B
100
AcDbSymbolTableRecord
100
AcDbLayerTableRecord
  2
05_ALL_DTM_CSYS
 70
0
 62
7
  6
CONTINUOUS
370
-3
390
F
  0
LAYER
  5
20C
100
AcDbSymbolTableRecord
100
AcDbLayerTableRecord
  2
05__ASM_ALL_DTM_CSYS
 70
0
 62
7
  6
CONTINUOUS
370
-3
390
F
  0
LAYER
  5
20D
100
AcDbSymbolTableRecord
100
AcDbLayerTableRecord
  2
05__ASM_DEF_DTM_CSYS
 70
0
 62
7
  6
CONTINUOUS
370
-3
390
F
  0
LAYER
  5
20E
100
AcDbSymbolTableRecord
100
AcDbLayerTableRecord
  2
05___PRT_ALL_DTM_CSYS
 70
0
 62
7
  6
CONTINUOUS
370
-3
390
F
  0
LAYER
  5
20F
100
AcDbSymbolTableRecord
100
AcDbLayerTableRecord
  2
05___PRT_DEF_DTM_CSYS
 70
0
 62
7
  6
CONTINUOUS
370
-3
390
F
  0
LAYER
  5
210
100
AcDbSymbolTableRecord
100
AcDbLayerTableRecord
  2
06_ALL_SURFS
 70
0
 62
7
  6
CONTINUOUS
370
-3
390
F
  0
LAYER
  5
211
100
AcDbSymbolTableRecord
100
AcDbLayerTableRecord
  2
06__ASM_ALL_SURFS
 70
0
 62
7
  6
CONTINUOUS
370
-3
390
F
  0
LAYER
  5
212
100
AcDbSymbolTableRecord
100
AcDbLayerTableRecord
  2
06___PRT_ALL_SURFS
 70
0
 62
7
  6
CONTINUOUS
370
-3
390
F
  0
LAYER
  5
213
100
AcDbSymbolTableRecord
100
AcDbLayerTableRecord
  2
07__ASM_ALL_SKELETONS
 70
0
 62
7
  6
CONTINUOUS
370
-3
390
F
  0
LAYER
  5
214
100
AcDbSymbolTableRecord
100
AcDbLayerTableRecord
  2
LAYER_AXIS
 70
0
 62
7
  6
CONTINUOUS
370
-3
390
F
  0
LAYER
  5
215
100
AcDbSymbolTableRecord
100
AcDbLayerTableRecord
  2
LAYER_CHAMFER_FEAT
 70
0
 62
7
  6
CONTINUOUS
370
-3
390
F
  0
LAYER
  5
216
100
AcDbSymbolTableRecord
100
AcDbLayerTableRecord
  2
LAYER_CUT_FEAT
 70
0
 62
7
  6
CONTINUOUS
370
-3
390
F
  0
LAYER
  5
217
100
AcDbSymbolTableRecord
100
AcDbLayerTableRecord
  2
LAYER_DATUM
 70
0
 62
7
  6
CONTINUOUS
370
-3
390
F
  0
LAYER
  5
218
100
AcDbSymbolTableRecord
100
AcDbLayerTableRecord
  2
LAYER_DIM
 70
0
 62
7
  6
CONTINUOUS
370
-3
390
F
  0
LAYER
  5
219
100
AcDbSymbolTableRecord
100
AcDbLayerTableRecord
  2
LAYER_FEATURE
 70
0
 62
7
  6
CONTINUOUS
370
-3
390
F
  0
LAYER
  5
21A
100
AcDbSymbolTableRecord
100
AcDbLayerTableRecord
  2
LAYER_GEOM_FEAT
 70
0
 62
7
  6
CONTINUOUS
370
-3
390
F
  0
LAYER
  5
21B
100
AcDbSymbolTableRecord
100
AcDbLayerTableRecord
  2
LAYER_NOGEOM_FEAT
 70
0
 62
7
  6
CONTINUOUS
370
-3
390
F
  0
LAYER
  5
21C
100
AcDbSymbolTableRecord
100
AcDbLayerTableRecord
  2
LAYER_PARAMETER_DIM
 70
0
 62
7
  6
CONTINUOUS
370
-3
390
F
  0
LAYER
  5
21D
100
AcDbSymbolTableRecord
100
AcDbLayerTableRecord
  2
LAYER_PROTRUSION_FEAT
 70
0
 62
7
  6
CONTINUOUS
370
-3
390
F
  0
LAYER
  5
21E
100
AcDbSymbolTableRecord
100
AcDbLayerTableRecord
  2
LAYER_QUILT
 70
0
 62
7
  6
CONTINUOUS
370
-3
390
F
  0
LAYER
  5
21F
100
AcDbSymbolTableRecord
100
AcDbLayerTableRecord
  2
LAYER_ROUND_FEAT
 70
0
 62
7
  6
CONTINUOUS
370
-3
390
F
  0
ENDTAB
  0
TABLE
  2
STYLE
  5
3
100
AcDbSymbolTable
 70
1
  0
STYLE
  5
11
100
AcDbSymbolTableRecord
100
AcDbTextStyleTableRecord
  2
STANDARD
 70
0
 40
0.0
 41
0.8
 50
0.0
 71
0
 42
0.2
  3
txt
  4

  0
STYLE
  5
220
100
AcDbSymbolTableRecord
100
AcDbTextStyleTableRecord
  2
TEXTSTYLE_1
 70
0
 40
0.0
 41
0.8
 50
0.0
 71
0
 42
0.2
  3
gdt
  4

  0
ENDTAB
  0
TABLE
  2
VIEW
  5
6
100
AcDbSymbolTable
 70
0
  0
ENDTAB
  0
TABLE
  2
UCS
  5
7
100
AcDbSymbolTable
 70
0
  0
ENDTAB
  0
TABLE
  2
APPID
  5
9
100
AcDbSymbolTable
 70
1
  0
APPID
  5
221
100
AcDbSymbolTableRecord
100
AcDbRegAppTableRecord
  2
ACAD
 70
0
  0
ENDTAB
  0
TABLE
  2
BLOCK_RECORD
  5
1
100
AcDbSymbolTable
 70
0
  0
BLOCK_RECORD
  5
222
100
AcDbSymbolTableRecord
100
AcDbBlockTableRecord
  2
*Model_Space
  0
BLOCK_RECORD
  5
223
100
AcDbSymbolTableRecord
100
AcDbBlockTableRecord
  2
*Paper_Space
  0
ENDTAB
  0
TABLE
  2
DIMSTYLE
  5
A
100
AcDbSymbolTable
 70
1
100
AcDbDimStyleTable
 71
0
  0
DIMSTYLE
105
224
100
AcDbSymbolTableRecord
100
AcDbDimStyleTableRecord
  2
STANDARD
 70
0
  3

  4

 40
1.0
 41
0.1875
 42
0.0625
 43
0.38
 44
0.125
 45
0.0
 46
0.0
 47
0.0001
 48
0.0001
140
0.15625
141
0.09
142
0.0
143
25.4
144
1.0
145
0.0
146
1.0
147
0.09
 71
0.0
 72
0.0
 73
1
 74
1
 75
0
 76
0
 77
0
 78
4
 79
1
170
0
171
3
172
0
173
0
174
0
175
0
176
0
177
0
178
0
270
2
179
4
271
4
272
4
273
2
274
2
275
0
280
0
281
0
282
0
283
1
284
4
285
0
286
0
287
3
288
0
340
11
278
46
  0
ENDTAB
  0
ENDSEC
  0
SECTION
  2
BLOCKS
  0
BLOCK
  5
20
100
AcDbEntity
  8
0
100
AcDbBlockBegin
  2
*Model_Space
 70
0
 10
0.0
 20
0.0
 30
0.0
  3
*Model_Space
  1

  0
ENDBLK
  5
21
100
AcDbEntity
  8
0
100
AcDbBlockEnd
  0
BLOCK
  5
1C
100
AcDbEntity
  8
0
100
AcDbBlockBegin
  2
*Paper_Space
 70
0
 10
0.0
 20
0.0
 30
0.0
  3
*Paper_Space
  1

  0
ENDBLK
  5
1D
100
AcDbEntity
  8
0
100
AcDbBlockEnd
  0
ENDSEC
  0
SECTION
  2
ENTITIES
  0
MTEXT
  5
225
100
AcDbEntity
  8
0
100
AcDbMText
 62
7
  6
CONTINUOUS
  7
STANDARD
 71
1
 72
1
 10
15.9560215477
 20
0.9479130325
 30
0.0
 11
1.0
 21
0.0
 31
0.0
 44
0.9
  1
SCALE: 1:0.500
 40
0.3
 41
3.36
  0
LINE
  5
226
100
AcDbEntity
  8
0
100
AcDbLine
 62
7
  6
CONTINUOUS
 10
0.0
 20
0.0
 11
0.0
 21
17.0
  0
LINE
  5
227
100
AcDbEntity
  8
0
100
AcDbLine
 62
7
  6
CONTINUOUS
 10
0.0
 20
0.0
 11
22.0
 21
0.0
  0
LINE
  5
228
100
AcDbEntity
  8
0
100
AcDbLine
 62
7
  6
CONTINUOUS
 10
0.0
 20
17.0
 11
22.0
 21
17.0
  0
LINE
  5
229
100
AcDbEntity
  8
0
100
AcDbLine
 62
7
  6
CONTINUOUS
 10
22.0
 20
0.0
 11
22.0
 21
17.0
  0
LINE
  5
22A
100
AcDbEntity
  8
LAYER_FEATURE
100
AcDbLine
 62
7
  6
CONTINUOUS
 10
6.6533672762
 20
3.9926198968
 11
6.5920268405
 21
3.9926198968
  0
LINE
  5
22B
100
AcDbEntity
  8
LAYER_FEATURE
100
AcDbLine
 62
7
  6
CONTINUOUS
 10
5.6073672762
 20
3.9926198968
 11
5.6687077119
 21
3.9926198968
  0
LINE
  5
22C
100
AcDbEntity
  8
02___PRT_ALL_AXES
100
AcDbLine
 62
7
  6
CONTINUOUS
 10
5.6953672762
 20
4.1878698968
 11
6.5653672762
 21
4.1878698968
  0
LINE
  5
22D
100
AcDbEntity
  8
LAYER_FEATURE
100
AcDbLine
 62
7
  6
CONTINUOUS
 10
5.6073672762
 20
7.0476198968
 11
5.6073672762
 21
3.9926198968
  0
LINE
  5
22E
100
AcDbEntity
  8
LAYER_FEATURE
100
AcDbLine
 62
7
  6
CONTINUOUS
 10
5.6687077119
 20
7.0476198968
 11
5.6687077119
 21
3.9926198968
  0
LINE
  5
22F
100
AcDbEntity
  8
LAYER_FEATURE
100
AcDbLine
 62
7
  6
CONTINUOUS
 10
5.6953672762
 20
6.9221965078
 11
5.6953672762
 21
4.1180432857
  0
LINE
  5
230
100
AcDbEntity
  8
LAYER_FEATURE
100
AcDbLine
 62
7
  6
CONTINUOUS
 10
5.6687077119
 20
3.9926198968
 11
5.6953672762
 21
4.1180432857
  0
LINE
  5
231
100
AcDbEntity
  8
LAYER_FEATURE
100
AcDbLine
 62
7
  6
CONTINUOUS
 10
5.6687077119
 20
7.0476198968
 11
5.6953672762
 21
6.9221965078
  0
LINE
  5
232
100
AcDbEntity
  8
LAYER_FEATURE
100
AcDbLine
 62
7
  6
CONTINUOUS
 10
6.5920268405
 20
7.0476198968
 11
6.5653672762
 21
6.9221965078
  0
LINE
  5
233
100
AcDbEntity
  8
LAYER_FEATURE
100
AcDbLine
 62
7
  6
CONTINUOUS
 10
6.5920268405
 20
3.9926198968
 11
6.5653672762
 21
4.1180432857
  0
LINE
  5
234
100
AcDbEntity
  8
LAYER_FEATURE
100
AcDbLine
 62
7
  6
CONTINUOUS
 10
6.5653672762
 20
6.9221965078
 11
6.5653672762
 21
4.1180432857
  0
LINE
  5
235
100
AcDbEntity
  8
LAYER_FEATURE
100
AcDbLine
 62
7
  6
CONTINUOUS
 10
6.5920268405
 20
7.0476198968
 11
6.5920268405
 21
3.9926198968
  0
LINE
  5
236
100
AcDbEntity
  8
LAYER_FEATURE
100
AcDbLine
 62
7
  6
CONTINUOUS
 10
6.6533672762
 20
7.0476198968
 11
6.6533672762
 21
3.9926198968
  0
LINE
  5
237
100
AcDbEntity
  8
LAYER_FEATURE
100
AcDbLine
 62
7
  6
CONTINUOUS
 10
5.6953672762
 20
6.5446072368
 11
6.5653672762
 21
6.5446072368
  0
LINE
  5
238
100
AcDbEntity
  8
0
100
AcDbLine
 62
7
  6
CONTINUOUS
 10
5.6953672762
 20
6.5481475094
 11
6.5653672762
 21
6.5481475094
  0
LINE
  5
239
100
AcDbEntity
  8
LAYER_FEATURE
100
AcDbLine
 62
7
  6
CONTINUOUS
 10
5.6953672762
 20
6.6745707557
 11
6.5653672762
 21
6.6745707557
  0
LINE
  5
23A
100
AcDbEntity
  8
LAYER_FEATURE
100
AcDbLine
 62
7
  6
CONTINUOUS
 10
5.6953672762
 20
6.6950727544
 11
6.5653672762
 21
6.6950727544
  0
LINE
  5
23B
100
AcDbEntity
  8
0
100
AcDbLine
 62
7
  6
CONTINUOUS
 10
5.6953672762
 20
6.6966734961
 11
6.5653672762
 21
6.6966734961
  0
LINE
  5
23C
100
AcDbEntity
  8
LAYER_FEATURE
100
AcDbLine
 62
7
  6
CONTINUOUS
 10
5.6953672762
 20
6.7847887114
 11
6.5653672762
 21
6.7847887114
  0
LINE
  5
23D
100
AcDbEntity
  8
LAYER_FEATURE
100
AcDbLine
 62
7
  6
CONTINUOUS
 10
5.6953672762
 20
6.797435564
 11
6.5653672762
 21
6.797435564
  0
LINE
  5
23E
100
AcDbEntity
  8
0
100
AcDbLine
 62
7
  6
CONTINUOUS
 10
5.6953672762
 20
6.7978398877
 11
6.5653672762
 21
6.7978398877
  0
LINE
  5
23F
100
AcDbEntity
  8
LAYER_FEATURE
100
AcDbLine
 62
7
  6
CONTINUOUS
 10
5.6953672762
 20
6.8432309773
 11
6.5653672762
 21
6.8432309773
  0
LINE
  5
240
100
AcDbEntity
  8
LAYER_FEATURE
100
AcDbLine
 62
7
  6
CONTINUOUS
 10
5.6953672762
 20
6.84750492
 11
6.5653672762
 21
6.84750492
  0
LINE
  5
241
100
AcDbEntity
  8
LAYER_FEATURE
100
AcDbLine
 62
7
  6
CONTINUOUS
 10
6.6533672762
 20
7.0476198968
 11
6.5920268405
 21
7.0476198968
  0
LINE
  5
242
100
AcDbEntity
  8
LAYER_FEATURE
100
AcDbLine
 62
7
  6
CONTINUOUS
 10
5.6073672762
 20
7.0476198968
 11
5.6687077119
 21
7.0476198968
  0
LINE
  5
243
100
AcDbEntity
  8
LAYER_FEATURE
100
AcDbLine
 62
7
  6
CONTINUOUS
 10
5.5478720839
 20
11.0725477814
 11
5.6092125196
 21
11.0725477814
  0
LINE
  5
244
100
AcDbEntity
  8
LAYER_FEATURE
100
AcDbLine
 62
7
  6
CONTINUOUS
 10
6.5325316482
 20
11.0725477814
 11
6.5938720839
 21
11.0725477814
  0
LINE
  5
245
100
AcDbEntity
  8
02___PRT_ALL_AXES
100
AcDbLine
 62
7
  6
CONTINUOUS
 10
5.6358720839
 20
11.2677977814
 11
6.5058720839
 21
11.2677977814
  0
LINE
  5
246
100
AcDbEntity
  8
LAYER_FEATURE
100
AcDbLine
 62
7
  6
CONTINUOUS
 10
5.6358720839
 20
11.7483930669
 11
6.5058720839
 21
11.7483930669
  0
LINE
  5
247
100
AcDbEntity
  8
LAYER_FEATURE
100
AcDbLine
 62
7
  6
CONTINUOUS
 10
6.5058720839
 20
11.880934109
 11
5.6358720839
 21
11.880934109
  0
LINE
  5
248
100
AcDbEntity
  8
0
100
AcDbLine
 62
7
  6
CONTINUOUS
 10
5.6358720839
 20
11.9266484585
 11
6.5058720839
 21
11.9266484585
  0
LINE
  5
249
100
AcDbEntity
  8
LAYER_FEATURE
100
AcDbLine
 62
7
  6
CONTINUOUS
 10
5.6358720839
 20
11.9351167498
 11
6.5058720839
 21
11.9351167498
  0
LINE
  5
24A
100
AcDbEntity
  8
LAYER_FEATURE
100
AcDbLine
 62
7
  6
CONTINUOUS
 10
5.6358720839
 20
11.9720542744
 11
6.5058720839
 21
11.9720542744
  0
LINE
  5
24B
100
AcDbEntity
  8
LAYER_FEATURE
100
AcDbLine
 62
7
  6
CONTINUOUS
 10
5.5478720839
 20
11.0725477814
 11
5.5478720839
 21
14.1275477814
  0
LINE
  5
24C
100
AcDbEntity
  8
LAYER_FEATURE
100
AcDbLine
 62
7
  6
CONTINUOUS
 10
5.6092125196
 20
11.0725477814
 11
5.6092125196
 21
14.1275477814
  0
LINE
  5
24D
100
AcDbEntity
  8
LAYER_FEATURE
100
AcDbLine
 62
7
  6
CONTINUOUS
 10
5.6358720839
 20
11.1979711703
 11
5.6358720839
 21
14.0021243924
  0
LINE
  5
24E
100
AcDbEntity
  8
LAYER_FEATURE
100
AcDbLine
 62
7
  6
CONTINUOUS
 10
6.5058720839
 20
12.093060634
 11
5.6358720839
 21
12.093060634
  0
LINE
  5
24F
100
AcDbEntity
  8
LAYER_FEATURE
100
AcDbLine
 62
7
  6
CONTINUOUS
 10
6.5058720839
 20
12.1481981027
 11
5.6358720839
 21
12.1481981027
  0
LINE
  5
250
100
AcDbEntity
  8
0
100
AcDbLine
 62
7
  6
CONTINUOUS
 10
5.6358720839
 20
12.16915452
 11
6.5058720839
 21
12.16915452
  0
LINE
  5
251
100
AcDbEntity
  8
LAYER_FEATURE
100
AcDbLine
 62
7
  6
CONTINUOUS
 10
5.6358720839
 20
12.1811171765
 11
6.5058720839
 21
12.1811171765
  0
LINE
  5
252
100
AcDbEntity
  8
LAYER_FEATURE
100
AcDbLine
 62
7
  6
CONTINUOUS
 10
5.6358720839
 20
12.2214256098
 11
6.5058720839
 21
12.2214256098
  0
LINE
  5
253
100
AcDbEntity
  8
LAYER_FEATURE
100
AcDbLine
 62
7
  6
CONTINUOUS
 10
6.5058720839
 20
12.3259432723
 11
5.6358720839
 21
12.3259432723
  0
LINE
  5
254
100
AcDbEntity
  8
LAYER_FEATURE
100
AcDbLine
 62
7
  6
CONTINUOUS
 10
6.5058720839
 20
12.3847150687
 11
5.6358720839
 21
12.3847150687
  0
LINE
  5
255
100
AcDbEntity
  8
LAYER_FEATURE
100
AcDbLine
 62
7
  6
CONTINUOUS
 10
5.6092125196
 20
11.0725477814
 11
5.6358720839
 21
11.1979711703
  0
LINE
  5
256
100
AcDbEntity
  8
LAYER_FEATURE
100
AcDbLine
 62
7
  6
CONTINUOUS
 10
5.6358720839
 20
12.4442686714
 11
6.5058720839
 21
12.4442686714
  0
LINE
  5
257
100
AcDbEntity
  8
LAYER_FEATURE
100
AcDbLine
 62
7
  6
CONTINUOUS
 10
5.6358720839
 20
12.4862977814
 11
6.5058720839
 21
12.4862977814
  0
LINE
  5
258
100
AcDbEntity
  8
LAYER_FEATURE
100
AcDbLine
 62
7
  6
CONTINUOUS
 10
5.6092125196
 20
14.1275477814
 11
5.6358720839
 21
14.0021243924
  0
LINE
  5
259
100
AcDbEntity
  8
LAYER_FEATURE
100
AcDbLine
 62
7
  6
CONTINUOUS
 10
6.5058720839
 20
12.5700477814
 11
5.6358720839
 21
12.5700477814
  0
LINE
  5
25A
100
AcDbEntity
  8
LAYER_FEATURE
100
AcDbLine
 62
7
  6
CONTINUOUS
 10
6.5058720839
 20
12.6300477814
 11
5.6358720839
 21
12.6300477814
  0
LINE
  5
25B
100
AcDbEntity
  8
LAYER_FEATURE
100
AcDbLine
 62
7
  6
CONTINUOUS
 10
5.6358720839
 20
12.7137977814
 11
6.5058720839
 21
12.7137977814
  0
LINE
  5
25C
100
AcDbEntity
  8
LAYER_FEATURE
100
AcDbLine
 62
7
  6
CONTINUOUS
 10
6.5058720839
 20
14.0021243924
 11
6.5325316482
 21
14.1275477814
  0
LINE
  5
25D
100
AcDbEntity
  8
LAYER_FEATURE
100
AcDbLine
 62
7
  6
CONTINUOUS
 10
6.5058720839
 20
11.1979711703
 11
6.5325316482
 21
11.0725477814
  0
LINE
  5
25E
100
AcDbEntity
  8
LAYER_FEATURE
100
AcDbLine
 62
7
  6
CONTINUOUS
 10
6.5058720839
 20
11.1979712525
 11
6.5058720839
 21
14.0021243102
  0
LINE
  5
25F
100
AcDbEntity
  8
LAYER_FEATURE
100
AcDbLine
 62
7
  6
CONTINUOUS
 10
6.5325316482
 20
11.0725477814
 11
6.5325316482
 21
14.1275477814
  0
LINE
  5
260
100
AcDbEntity
  8
LAYER_FEATURE
100
AcDbLine
 62
7
  6
CONTINUOUS
 10
6.5938720839
 20
11.0725477814
 11
6.5938720839
 21
14.1275477814
  0
LINE
  5
261
100
AcDbEntity
  8
02___PRT_ALL_AXES
100
AcDbLine
 62
7
  6
CONTINUOUS
 10
5.6358720839
 20
13.9322977814
 11
6.5058720839
 21
13.9322977814
  0
LINE
  5
262
100
AcDbEntity
  8
LAYER_FEATURE
100
AcDbLine
 62
7
  6
CONTINUOUS
 10
5.5478720839
 20
14.1275477814
 11
5.6092125196
 21
14.1275477814
  0
LINE
  5
263
100
AcDbEntity
  8
LAYER_FEATURE
100
AcDbLine
 62
7
  6
CONTINUOUS
 10
6.5325316482
 20
14.1275477814
 11
6.5938720839
 21
14.1275477814
  0
LINE
  5
264
100
AcDbEntity
  8
LAYER_FEATURE
100
AcDbLine
 62
7
  6
CONTINUOUS
 10
14.9893703269
 20
10.9833049929
 11
15.0458686096
 21
10.9833049929
  0
LINE
  5
265
100
AcDbEntity
  8
LAYER_FEATURE
100
AcDbLine
 62
7
  6
CONTINUOUS
 10
15.896301844
 20
10.9833049929
 11
15.9528001266
 21
10.9833049929
  0
LINE
  5
266
100
AcDbEntity
  8
02___PRT_ALL_AXES
100
AcDbLine
 62
7
  6
CONTINUOUS
 10
15.0704236944
 20
11.1785549929
 11
15.6053720817
 21
11.1785549929
  0
LINE
  5
267
100
AcDbEntity
  8
LAYER_FEATURE
100
AcDbLine
 62
7
  6
CONTINUOUS
 10
14.5972068934
 20
12.5570944631
 11
14.5986720014
 21
12.6169763895
  0
LINE
  5
268
100
AcDbEntity
  8
LAYER_FEATURE
100
AcDbLine
 62
7
  6
CONTINUOUS
 10
14.61052227
 20
12.8007626183
 11
14.6166514916
 21
12.8586614131
  0
LINE
  5
269
100
AcDbEntity
  8
LAYER_FEATURE
100
AcDbLine
 62
7
  6
CONTINUOUS
 10
14.6426660649
 20
13.0325598743
 11
14.653208469
 21
13.086105154
  0
LINE
  5
26A
100
AcDbEntity
  8
LAYER_FEATURE
100
AcDbLine
 62
7
  6
CONTINUOUS
 10
14.6958126764
 20
13.2542912624
 11
14.7068462868
 21
13.2899960386
  0
LINE
  5
26B
100
AcDbEntity
  8
02___PRT_ALL_AXES
100
AcDbLine
 62
7
  6
CONTINUOUS
 10
15.8850155042
 20
13.6543285684
 11
15.868139543
 21
13.6484490261
  0
LINE
  5
26C
100
AcDbEntity
  8
02___PRT_ALL_AXES
100
AcDbLine
 62
7
  6
CONTINUOUS
 10
15.8850155042
 20
11.3672814174
 11
15.868139543
 21
11.3731609597
  0
LINE
  5
26D
100
AcDbEntity
  8
LAYER_FEATURE
100
AcDbLine
 62
7
  6
CONTINUOUS
 10
14.5570158646
 20
12.4980262209
 11
14.5772584401
 21
12.5152242094
  0
LINE
  5
26E
100
AcDbEntity
  8
LAYER_FEATURE
100
AcDbLine
 62
7
  6
CONTINUOUS
 10
14.5665236336
 20
12.7636790935
 11
14.5876999812
 21
12.7700612257
  0
LINE
  5
26F
100
AcDbEntity
  8
LAYER_FEATURE
100
AcDbLine
 62
7
  6
CONTINUOUS
 10
14.5809212099
 20
12.6649290255
 11
14.5616760627
 21
12.6884979485
  0
LINE
  5
270
100
AcDbEntity
  8
LAYER_FEATURE
100
AcDbLine
 62
7
  6
CONTINUOUS
 10
14.6030230351
 20
12.9148082127
 11
14.5860193894
 21
12.9478428992
  0
LINE
  5
271
100
AcDbEntity
  8
LAYER_FEATURE
100
AcDbLine
 62
7
  6
CONTINUOUS
 10
14.6442602982
 20
13.1481474606
 11
14.6301942853
 21
13.1892954668
  0
LINE
  5
272
100
AcDbEntity
  8
LAYER_FEATURE
100
AcDbLine
 62
7
  6
CONTINUOUS
 10
14.7029447408
 20
13.355393833
 11
14.6923922249
 21
13.4029705546
  0
LINE
  5
273
100
AcDbEntity
  8
LAYER_FEATURE
100
AcDbLine
 62
7
  6
CONTINUOUS
 10
14.5517552383
 20
12.4805124803
 11
15.3016935337
 21
12.4805124803
  0
LINE
  5
274
100
AcDbEntity
  8
LAYER_FEATURE
100
AcDbLine
 62
7
  6
CONTINUOUS
 10
15.3018366272
 20
12.5570944631
 11
14.5972068934
 21
12.5570944631
  0
LINE
  5
275
100
AcDbEntity
  8
LAYER_FEATURE
100
AcDbLine
 62
7
  6
CONTINUOUS
 10
15.3030022877
 20
12.6169763895
 11
14.5986720014
 21
12.6169763895
  0
LINE
  5
276
100
AcDbEntity
  8
LAYER_FEATURE
100
AcDbLine
 62
7
  6
CONTINUOUS
 10
14.5573104393
 20
12.7075647847
 11
15.3064970657
 21
12.7075647847
  0
LINE
  5
277
100
AcDbEntity
  8
LAYER_FEATURE
100
AcDbLine
 62
7
  6
CONTINUOUS
 10
14.5599978021
 20
12.7492431884
 11
15.3087950779
 21
12.7492431884
  0
LINE
  5
278
100
AcDbEntity
  8
LAYER_FEATURE
100
AcDbLine
 62
7
  6
CONTINUOUS
 10
15.3123602286
 20
12.8007626183
 11
14.61052227
 21
12.8007626183
  0
LINE
  5
279
100
AcDbEntity
  8
LAYER_FEATURE
100
AcDbLine
 62
7
  6
CONTINUOUS
 10
15.3171784958
 20
12.8586614131
 11
14.6166514916
 21
12.8586614131
  0
LINE
  5
27A
100
AcDbEntity
  8
LAYER_FEATURE
100
AcDbLine
 62
7
  6
CONTINUOUS
 10
14.5832377672
 20
12.9687761186
 11
15.328935512
 21
12.9687761186
  0
LINE
  5
27B
100
AcDbEntity
  8
LAYER_FEATURE
100
AcDbLine
 62
7
  6
CONTINUOUS
 10
14.5891372619
 20
13.0082122087
 11
15.3339991049
 21
13.0082122087
  0
LINE
  5
27C
100
AcDbEntity
  8
0
100
AcDbLine
 62
7
  6
CONTINUOUS
 10
14.5960015651
 20
13.0190520223
 11
15.3354780837
 21
13.0190520223
  0
LINE
  5
27D
100
AcDbEntity
  8
LAYER_FEATURE
100
AcDbLine
 62
7
  6
CONTINUOUS
 10
15.3373210883
 20
13.0325598743
 11
14.6426660649
 21
13.0325598743
  0
LINE
  5
27E
100
AcDbEntity
  8
LAYER_FEATURE
100
AcDbLine
 62
7
  6
CONTINUOUS
 10
15.345358555
 20
13.086105154
 11
14.653208469
 21
13.086105154
  0
LINE
  5
27F
100
AcDbEntity
  8
LAYER_FEATURE
100
AcDbLine
 62
7
  6
CONTINUOUS
 10
14.6291105442
 20
13.2112380609
 11
15.3677130485
 21
13.2112380609
  0
LINE
  5
280
100
AcDbEntity
  8
LAYER_FEATURE
100
AcDbLine
 62
7
  6
CONTINUOUS
 10
14.6379806448
 20
13.2468173191
 11
15.3751760583
 21
13.2468173191
  0
LINE
  5
281
100
AcDbEntity
  8
0
100
AcDbLine
 62
7
  6
CONTINUOUS
 10
14.6440058184
 20
13.2542912624
 11
15.3767437725
 21
13.2542912624
  0
LINE
  5
282
100
AcDbEntity
  8
02___PRT_ALL_AXES
100
AcDbLine
 62
7
  6
CONTINUOUS
 10
15.7844206361
 20
13.3532529656
 11
15.7929530997
 21
13.3541860929
  0
LINE
  5
283
100
AcDbEntity
  8
LAYER_FEATURE
100
AcDbLine
 62
7
  6
CONTINUOUS
 10
15.3848088702
 20
13.2899960386
 11
14.7068462868
 21
13.2899960386
  0
LINE
  5
284
100
AcDbEntity
  8
LAYER_FEATURE
100
AcDbLine
 62
7
  6
CONTINUOUS
 10
14.6930507334
 20
13.4250241911
 11
15.4198780135
 21
13.4250241911
  0
LINE
  5
285
100
AcDbEntity
  8
02___PRT_ALL_AXES
100
AcDbLine
 62
7
  6
CONTINUOUS
 10
15.0704236944
 20
13.8430549929
 11
15.6053941033
 21
13.8430549929
  0
LINE
  5
286
100
AcDbEntity
  8
LAYER_FEATURE
100
AcDbLine
 62
7
  6
CONTINUOUS
 10
14.9893703269
 20
14.0383049929
 11
15.0458686096
 21
14.0383049929
  0
LINE
  5
287
100
AcDbEntity
  8
LAYER_FEATURE
100
AcDbLine
 62
7
  6
CONTINUOUS
 10
15.896301844
 20
14.0383049929
 11
15.9528001266
 21
14.0383049929
  0
CIRCLE
  5
288
100
AcDbEntity
  8
LAYER_FEATURE
100
AcDbCircle
 62
7
  6
CONTINUOUS
 10
15.5603552569
 20
5.4606247044
 40
1.5275
  0
CIRCLE
  5
289
100
AcDbEntity
  8
LAYER_FEATURE
100
AcDbCircle
 62
7
  6
CONTINUOUS
 10
15.5603552569
 20
5.4606247044
 40
1.4020766111
  0
CIRCLE
  5
28A
100
AcDbEntity
  8
02___PRT_ALL_AXES
100
AcDbCircle
 62
7
  6
CONTINUOUS
 10
15.5603552569
 20
5.4606247044
 40
1.154
  0
CIRCLE
  5
28B
100
AcDbEntity
  8
LAYER_CHAMFER_FEAT
100
AcDbCircle
 62
7
  6
CONTINUOUS
 10
15.5603552569
 20
5.4606247044
 40
1.0865
  0
CIRCLE
  5
28C
100
AcDbEntity
  8
LAYER_CHAMFER_FEAT
100
AcDbCircle
 62
7
  6
CONTINUOUS
 10
15.5603552569
 20
5.4606247044
 40
1.055
  0
ARC
  5
28D
100
AcDbEntity
  8
02___PRT_ALL_AXES
100
AcDbCircle
 62
7
  6
CONTINUOUS
 10
15.5603552569
 20
5.4606247044
 40
0.84375
100
AcDbArc
 50
153.3827617612
 51
231.6172382388
  0
ARC
  5
28E
100
AcDbEntity
  8
02___PRT_ALL_AXES
100
AcDbCircle
 62
7
  6
CONTINUOUS
 10
15.5603552569
 20
5.4606247044
 40
0.84375
100
AcDbArc
 50
58.3827617612
 51
136.6172382388
  0
ARC
  5
28F
100
AcDbEntity
  8
02___PRT_ALL_AXES
100
AcDbCircle
 62
7
  6
CONTINUOUS
 10
15.5603552569
 20
5.4606247044
 40
0.84375
100
AcDbArc
 50
248.3827617612
 51
41.6172382388
  0
ARC
  5
290
100
AcDbEntity
  8
02___PRT_ALL_AXES
100
AcDbCircle
 62
7
  6
CONTINUOUS
 10
15.5603552569
 20
5.4606247044
 40
0.8131570198
100
AcDbArc
 50
136.1802428979
 51
153.8197571021
  0
ARC
  5
291
100
AcDbEntity
  8
02___PRT_ALL_AXES
100
AcDbCircle
 62
7
  6
CONTINUOUS
 10
15.5603552569
 20
5.4606247044
 40
0.7825640395
100
AcDbArc
 50
58.7288156508
 51
231.2711843492
  0
ARC
  5
292
100
AcDbEntity
  8
02___PRT_ALL_AXES
100
AcDbCircle
 62
7
  6
CONTINUOUS
 10
15.5603552569
 20
5.4606247044
 40
0.7825640395
100
AcDbArc
 50
248.7288156508
 51
41.2711843492
  0
ARC
  5
293
100
AcDbEntity
  8
02___PRT_ALL_AXES
100
AcDbCircle
 62
7
  6
CONTINUOUS
 10
14.894794221
 20
5.926655559
 40
0.125
100
AcDbArc
 50
50.8903869362
 51
239.1096130638
  0
ARC
  5
294
100
AcDbEntity
  8
02___PRT_ALL_AXES
100
AcDbCircle
 62
7
  6
CONTINUOUS
 10
16.0826201898
 20
6.0830358145
 40
0.125
100
AcDbArc
 50
301.820265907
 51
158.179734093
  0
ARC
  5
295
100
AcDbEntity
  8
02___PRT_ALL_AXES
100
AcDbCircle
 62
7
  6
CONTINUOUS
 10
15.1541052569
 20
4.7569790639
 40
0.125
100
AcDbArc
 50
131.820265907
 51
348.179734093
  0
ARC
  5
296
100
AcDbEntity
  8
02___PRT_ALL_AXES
100
AcDbCircle
 62
7
  6
CONTINUOUS
 10
20.9457390058
 20
87.3441794919
 40
75.8244549532
100
AcDbArc
 50
266.0413169623
 51
266.1674715401
  0
ARC
  5
297
100
AcDbEntity
  8
02___PRT_ALL_AXES
100
AcDbCircle
 62
7
  6
CONTINUOUS
 10
12.8900041217
 20
-27.6732234792
 40
39.572728588
100
AcDbArc
 50
85.5408750431
 51
86.0383794059
  0
ARC
  5
298
100
AcDbEntity
  8
LAYER_FEATURE
100
AcDbCircle
 62
7
  6
CONTINUOUS
 10
17.8534867137
 20
12.5159579754
 40
3.301740632
100
AcDbArc
 50
175.9483782169
 51
176.6731387988
  0
ARC
  5
299
100
AcDbEntity
  8
LAYER_FEATURE
100
AcDbCircle
 62
7
  6
CONTINUOUS
 10
17.4239261297
 20
12.5639788526
 40
2.8693851606
100
AcDbArc
 50
171.0937411212
 51
171.8899684921
  0
ARC
  5
29A
100
AcDbEntity
  8
LAYER_FEATURE
100
AcDbCircle
 62
7
  6
CONTINUOUS
 10
16.7952016635
 20
12.6901151928
 40
2.2278958191
100
AcDbArc
 50
165.5297076942
 51
166.4727325096
  0
SPLINE
  5
29B
100
AcDbEntity
  8
02___PRT_ALL_AXES
100
AcDbSpline
 62
7
  6
CONTINUOUS
 70
0
 71
3
 72
39
 73
35
 74
0
 42
0.0000001
 43
0.0000001
 44
0.0000000001
 40
0.0
 40
0.0
 40
0.0
 40
0.0
 40
0.0461783307
 40
0.0913991069
 40
0.135631557
 40
0.1788496002
 40
0.2210282928
 40
0.2621457526
 40
0.3021829177
 40
0.341123823
 40
0.3789559125
 40
0.4156703282
 40
0.4512622889
 40
0.4857314714
 40
0.5190824442
 40
0.5513251624
 40
0.5824755269
 40
0.612555998
 40
0.6415962312
 40
0.6696337631
 40
0.6967147154
 40
0.7228944887
 40
0.7482383589
 40
0.7728219197
 40
0.7967312939
 40
0.8200630028
 40
0.8429233909
 40
0.865427506
 40
0.8876974334
 40
0.9098601183
 40
0.932044798
 40
0.9543802356
 40
0.9769919976
 40
1.0
 40
1.0
 40
1.0
 40
1.0
 10
16.2974499528
 20
11.7934670895
 30
0.0
 10
16.2944690393
 20
11.7838208501
 30
0.0
 10
16.2883919111
 20
11.7647825293
 30
0.0
 10
16.2788247204
 20
11.7367120792
 30
0.0
 10
16.2689092529
 20
11.7094502179
 30
0.0
 10
16.2586560222
 20
11.6830256555
 30
0.0
 10
16.2480756216
 20
11.6574657789
 30
0.0
 10
16.2371791146
 20
11.6327972786
 30
0.0
 10
16.225977846
 20
11.609045825
 30
0.0
 10
16.2144834637
 20
11.5862361377
 30
0.0
 10
16.202707904
 20
11.564391946
 30
0.0
 10
16.1906633626
 20
11.543535963
 30
0.0
 10
16.1783622987
 20
11.5236898539
 30
0.0
 10
16.1658173999
 20
11.5048742221
 30
0.0
 10
16.1530415601
 20
11.487108601
 30
0.0
 10
16.140047857
 20
11.4704114435
 30
0.0
 10
16.126849533
 20
11.4548001096
 30
0.0
 10
16.1134599872
 20
11.4402908529
 30
0.0
 10
16.0998927391
 20
11.4268988454
 30
0.0
 10
16.0861614237
 20
11.4146381924
 30
0.0
 10
16.0722797848
 20
11.403521958
 30
0.0
 10
16.058261703
 20
11.3935621716
 30
0.0
 10
16.0441212236
 20
11.384769855
 30
0.0
 10
16.029872606
 20
11.3771550521
 30
0.0
 10
16.0155304059
 20
11.3707268165
 30
0.0
 10
16.0011095642
 20
11.365493161
 30
0.0
 10
15.9866254995
 20
11.3614609236
 30
0.0
 10
15.9720941351
 20
11.358635646
 30
0.0
 10
15.9575318883
 20
11.3570213871
 30
0.0
 10
15.9429555304
 20
11.3566205604
 30
0.0
 10
15.9283821189
 20
11.357433748
 30
0.0
 10
15.9138283232
 20
11.3594598054
 30
0.0
 10
15.899311858
 20
11.3626954086
 30
0.0
 10
15.8897658736
 20
11.3656263985
 30
0.0
 10
15.8850155042
 20
11.3672814175
 30
0.0
  0
SPLINE
  5
29C
100
AcDbEntity
  8
02___PRT_ALL_AXES
100
AcDbSpline
 62
7
  6
CONTINUOUS
 70
0
 71
3
 72
25
 73
21
 74
0
 42
0.0000001
 43
0.0000001
 44
0.0000000001
 40
0.0
 40
0.0
 40
0.0
 40
0.0
 40
0.0890599164
 40
0.1750070811
 40
0.2576013132
 40
0.3366383225
 40
0.4119409162
 40
0.4833712496
 40
0.5508347787
 40
0.6142893159
 40
0.6737551778
 40
0.7293281291
 40
0.7811950438
 40
0.8296519015
 40
0.8751219832
 40
0.9181693414
 40
0.939014934
 40
0.959530295
 40
0.9798217001
 40
1.0
 40
1.0
 40
1.0
 40
1.0
 10
15.8776043631
 20
11.6892921402
 30
0.0
 10
15.8781384011
 20
11.6870814415
 30
0.0
 10
15.8792568845
 20
11.6827535766
 30
0.0
 10
15.8811219058
 20
11.6764438269
 30
0.0
 10
15.8831386548
 20
11.6704501234
 30
0.0
 10
15.8852989537
 20
11.6647965219
 30
0.0
 10
15.8875942377
 20
11.659505449
 30
0.0
 10
15.8900153777
 20
11.6545979092
 30
0.0
 10
15.8925528843
 20
11.6500932708
 30
0.0
 10
15.8951969494
 20
11.646009239
 30
0.0
 10
15.8979375757
 20
11.6423618107
 30
0.0
 10
15.900764733
 20
11.6391653031
 30
0.0
 10
15.9036683983
 20
11.6364325076
 30
0.0
 10
15.9066388919
 20
11.6341749291
 30
0.0
 10
15.9096656156
 20
11.6324033502
 30
0.0
 10
15.9122549165
 20
11.6313288751
 30
0.0
 10
15.9143284785
 20
11.6307335178
 30
0.0
 10
15.9158725375
 20
11.6304173629
 30
0.0
 10
15.9174198844
 20
11.6302275544
 30
0.0
 10
15.9184538351
 20
11.6301852974
 30
0.0
 10
15.9189691204
 20
11.6301852937
 30
0.0
  0
SPLINE
  5
29D
100
AcDbEntity
  8
LAYER_CHAMFER_FEAT
100
AcDbSpline
 62
7
  6
CONTINUOUS
 70
0
 71
3
 72
15
 73
11
 74
0
 42
0.0000001
 43
0.0000001
 44
0.0000000001
 40
0.0
 40
0.0
 40
0.0
 40
0.0
 40
0.1375060016
 40
0.2714667399
 40
0.4018485959
 40
0.5286396659
 40
0.6518353097
 40
0.7714433989
 40
0.887486029
 40
1.0
 40
1.0
 40
1.0
 40
1.0
 10
15.6824265783
 20
11.6597203056
 30
0.0
 10
15.6856206624
 20
11.6532114465
 30
0.0
 10
15.692077554
 20
11.6404349225
 30
0.0
 10
15.7021055248
 20
11.6217671794
 30
0.0
 10
15.712342225
 20
11.6038606756
 30
0.0
 10
15.7227787522
 20
11.5867309797
 30
0.0
 10
15.7334063305
 20
11.570392544
 30
0.0
 10
15.7442160097
 20
11.5548592582
 30
0.0
 10
15.7551984494
 20
11.5401446533
 30
0.0
 10
15.7627449624
 20
11.5307447428
 30
0.0
 10
15.7665465487
 20
11.5261902538
 30
0.0
  0
SPLINE
  5
29E
100
AcDbEntity
  8
02___PRT_ALL_AXES
100
AcDbSpline
 62
7
  6
CONTINUOUS
 70
0
 71
3
 72
64
 73
60
 74
0
 42
0.0000001
 43
0.0000001
 44
0.0000000001
 40
0.0
 40
0.0
 40
0.0
 40
0.0
 40
0.008204725
 40
0.0162541195
 40
0.0242052971
 40
0.0321180463
 40
0.0400532359
 40
0.0480711018
 40
0.056229603
 40
0.0645830213
 40
0.0731809164
 40
0.0820674736
 40
0.0866319921
 40
0.0912826413
 40
0.1008564433
 40
0.1108177403
 40
0.1211888835
 40
0.1319875531
 40
0.1432271932
 40
0.1549174352
 40
0.1670644946
 40
0.1796715309
 40
0.1927389689
 40
0.2062647811
 40
0.2202447369
 40
0.2346726186
 40
0.249540412
 40
0.2648384724
 40
0.2805556707
 40
0.2966795234
 40
0.3131963079
 40
0.3300911674
 40
0.3473482035
 40
0.364950563
 40
0.3828805157
 40
0.4011195278
 40
0.4196483303
 40
0.4384469828
 40
0.4574949349
 40
0.4767710839
 40
0.4962538317
 40
0.5357494202
 40
0.5758022276
 40
0.6162269578
 40
0.6568352905
 40
0.6974374251
 40
0.7378436116
 40
0.77786568
 40
0.8173185851
 40
0.836775621
 40
0.8560232138
 40
0.8750398273
 40
0.8938044276
 40
0.9122965429
 40
0.930496309
 40
0.9483845728
 40
0.9659428363
 40
0.983153625
 40
1.0
 40
1.0
 40
1.0
 40
1.0
 10
15.8850155046
 20
13.6543285597
 30
0.0
 10
15.8904619389
 20
13.6562260841
 30
0.0
 10
15.9014196335
 20
13.6595249076
 30
0.0
 10
15.918112661
 20
13.6629376032
 30
0.0
 10
15.934849917
 20
13.6647516832
 30
0.0
 10
15.951603633
 20
13.6649627495
 30
0.0
 10
15.968347635
 20
13.6635704785
 30
0.0
 10
15.9850554584
 20
13.6605778286
 30
0.0
 10
16.0017014957
 20
13.6559910379
 30
0.0
 10
16.0182613183
 20
13.6498190019
 30
0.0
 10
16.0347110831
 20
13.6420732444
 30
0.0
 10
16.0481883281
 20
13.6343866243
 30
0.0
 10
16.0588855018
 20
13.6274916049
 30
0.0
 10
16.0697305534
 20
13.6199488492
 30
0.0
 10
16.0831830389
 20
13.6095311557
 30
0.0
 10
16.0989763931
 20
13.5956375016
 30
0.0
 10
16.1145540142
 20
13.5802515969
 30
0.0
 10
16.1298949568
 20
13.5633952626
 30
0.0
 10
16.1449791742
 20
13.5450916022
 30
0.0
 10
16.1597866015
 20
13.5253657277
 30
0.0
 10
16.174297461
 20
13.5042445885
 30
0.0
 10
16.1884922345
 20
13.4817570297
 30
0.0
 10
16.2023517333
 20
13.457933764
 30
0.0
 10
16.2158571395
 20
13.4328073508
 30
0.0
 10
16.2289900518
 20
13.4064121605
 30
0.0
 10
16.2417325259
 20
13.3787843325
 30
0.0
 10
16.2540671122
 20
13.3499617276
 30
0.0
 10
16.2659768894
 20
13.3199838758
 30
0.0
 10
16.2774454965
 20
13.2888919224
 30
0.0
 10
16.2884571625
 20
13.2567285689
 30
0.0
 10
16.2989967314
 20
13.2235380122
 30
0.0
 10
16.3090496871
 20
13.1893658811
 30
0.0
 10
16.3186021765
 20
13.1542591717
 30
0.0
 10
16.3276410306
 20
13.118266181
 30
0.0
 10
16.3361537845
 20
13.0814364387
 30
0.0
 10
16.3441286957
 20
13.0438206372
 30
0.0
 10
16.3515547604
 20
13.0054705631
 30
0.0
 10
16.3584217346
 20
12.9664390135
 30
0.0
 10
16.3647201282
 20
12.9267797676
 30
0.0
 10
16.3704413002
 20
12.8865473393
 30
0.0
 10
16.3773201331
 20
12.8319681736
 30
0.0
 10
16.3844056759
 20
12.7627037149
 30
0.0
 10
16.3904623921
 20
12.6785742369
 30
0.0
 10
16.3940775276
 20
12.5935214866
 30
0.0
 10
16.3952310669
 20
12.5080138499
 30
0.0
 10
16.3939166109
 20
12.4225215673
 30
0.0
 10
16.3901414565
 20
12.3375147911
 30
0.0
 10
16.3839265021
 20
12.2534616523
 30
0.0
 10
16.3767101562
 20
12.1842807218
 30
0.0
 10
16.3697279526
 20
12.1297833837
 30
0.0
 10
16.3639310036
 20
12.0896225959
 30
0.0
 10
16.3575579228
 20
12.0500421637
 30
0.0
 10
16.3506174549
 20
12.0110964892
 30
0.0
 10
16.3431191903
 20
11.9728392376
 30
0.0
 10
16.3350734741
 20
11.9353230588
 30
0.0
 10
16.3264914064
 20
11.8985996545
 30
0.0
 10
16.3173848127
 20
11.8627194327
 30
0.0
 10
16.3077663036
 20
11.827732077
 30
0.0
 10
16.3009463222
 20
11.804781345
 30
0.0
 10
16.2974499528
 20
11.7934670895
 30
0.0
  0
SPLINE
  5
29F
100
AcDbEntity
  8
02___PRT_ALL_AXES
100
AcDbSpline
 62
7
  6
CONTINUOUS
 70
0
 71
3
 72
32
 73
28
 74
0
 42
0.0000001
 43
0.0000001
 44
0.0000000001
 40
0.0
 40
0.0
 40
0.0
 40
0.0
 40
0.0166405861
 40
0.0335092824
 40
0.0508229665
 40
0.0687782301
 40
0.0875455818
 40
0.1072668912
 40
0.1280558195
 40
0.1499997531
 40
0.1731623129
 40
0.1975865077
 40
0.2232975422
 40
0.2503050299
 40
0.2786053317
 40
0.3081834181
 40
0.3390141024
 40
0.3710634561
 40
0.404289971
 40
0.4386452117
 40
0.5105118988
 40
0.5861745235
 40
0.6650673133
 40
0.7465706098
 40
0.8300238113
 40
0.9147357926
 40
1.0
 40
1.0
 40
1.0
 40
1.0
 10
15.7392284899
 20
13.431806114
 30
0.0
 10
15.7384190144
 20
13.4318061076
 30
0.0
 10
15.73678709
 20
13.4317010596
 30
0.0
 10
15.7343539006
 20
13.4312300984
 30
0.0
 10
15.7319351064
 20
13.4304476629
 30
0.0
 10
15.729537742
 20
13.4293569576
 30
0.0
 10
15.7271675551
 20
13.4279618547
 30
0.0
 10
15.7248300151
 20
13.4262667369
 30
0.0
 10
15.7225303249
 20
13.4242763485
 30
0.0
 10
15.720273631
 20
13.421995872
 30
0.0
 10
15.7180650054
 20
13.4194310584
 30
0.0
 10
15.7159095244
 20
13.41658822
 30
0.0
 10
15.7138122554
 20
13.4134742839
 30
0.0
 10
15.7117781634
 20
13.4100968556
 30
0.0
 10
15.7098121342
 20
13.4064641786
 30
0.0
 10
15.7079189607
 20
13.4025851237
 30
0.0
 10
15.7061032526
 20
13.3984692033
 30
0.0
 10
15.7043694684
 20
13.3941265347
 30
0.0
 10
15.702721859
 20
13.3895677719
 30
0.0
 10
15.7006138254
 20
13.3831192738
 30
0.0
 10
15.6982350474
 20
13.3745922488
 30
0.0
 10
15.6958236764
 20
13.3638409206
 30
0.0
 10
15.693838179
 20
13.3525268706
 30
0.0
 10
15.6922983568
 20
13.3407617347
 30
0.0
 10
15.6912196432
 20
13.328661342
 30
0.0
 10
15.6906127865
 20
13.3163452979
 30
0.0
 10
15.6905269019
 20
13.3080748625
 30
0.0
 10
15.6905641075
 20
13.3039273816
 30
0.0
  0
SPLINE
  5
2A0
100
AcDbEntity
  8
LAYER_FEATURE
100
AcDbSpline
 62
7
  6
CONTINUOUS
 70
0
 71
3
 72
68
 73
64
 74
0
 42
0.0000001
 43
0.0000001
 44
0.0000000001
 40
0.0
 40
0.0
 40
0.0
 40
0.0
 40
0.0163580858
 40
0.0330510049
 40
0.0500641651
 40
0.0673825756
 40
0.0849903746
 40
0.1028711641
 40
0.1210079486
 40
0.1393832211
 40
0.1579789974
 40
0.176776863
 40
0.1957580148
 40
0.2149033029
 40
0.2536072195
 40
0.2927309867
 40
0.3321129044
 40
0.3715894139
 40
0.4109962794
 40
0.450169764
 40
0.4889478082
 40
0.5081391481
 40
0.5271722354
 40
0.5460278227
 40
0.5646869974
 40
0.5831312226
 40
0.6013423791
 40
0.6193028086
 40
0.6369953594
 40
0.6544034334
 40
0.6715110358
 40
0.6883028277
 40
0.7047641825
 40
0.7208812464
 40
0.7366410033
 40
0.7520313453
 40
0.767041151
 40
0.7816603709
 40
0.7958801233
 40
0.8096928013
 40
0.8230921932
 40
0.836073619
 40
0.8486340848
 40
0.8607724581
 40
0.8724896662
 40
0.8837889208
 40
0.8946759706
 40
0.9051593824
 40
0.9152508473
 40
0.9249655082
 40
0.9343222939
 40
0.9433442428
 40
0.9520587819
 40
0.9604979211
 40
0.9686983093
 40
0.9727225116
 40
0.9767028171
 40
0.9806450085
 40
0.9845550798
 40
0.9884392169
 40
0.9923037608
 40
0.9961551735
 40
1.0
 40
1.0
 40
1.0
 40
1.0
 10
15.4303503927
 20
13.4603142194
 30
0.0
 10
15.4259877219
 20
13.4461966118
 30
0.0
 10
15.4174651137
 20
13.4175813749
 30
0.0
 10
15.4054008674
 20
13.3739944303
 30
0.0
 10
15.3939378573
 20
13.3293493039
 30
0.0
 10
15.3830902068
 20
13.2837010183
 30
0.0
 10
15.3728712128
 20
13.2371053245
 30
0.0
 10
15.3632934176
 20
13.1896193645
 30
0.0
 10
15.3543685802
 20
13.1413012954
 30
0.0
 10
15.3461076573
 20
13.0922103322
 30
0.0
 10
15.3385207892
 20
13.0424066237
 30
0.0
 10
15.331617305
 20
12.9919512412
 30
0.0
 10
15.3254056322
 20
12.9409059058
 30
0.0
 10
15.3180298205
 20
12.8718957533
 30
0.0
 10
15.3106057938
 20
12.7846019172
 30
0.0
 10
15.3045890826
 20
12.6788839144
 30
0.0
 10
15.301462515
 20
12.5723425814
 30
0.0
 10
15.3012414822
 20
12.4655001489
 30
0.0
 10
15.3039270701
 20
12.3588793475
 30
0.0
 10
15.3095060643
 20
12.2530027973
 30
0.0
 10
15.3165674167
 20
12.1655249868
 30
0.0
 10
15.3236556947
 20
12.0963284379
 30
0.0
 10
15.3296555051
 20
12.0451161653
 30
0.0
 10
15.3363495372
 20
11.9944748994
 30
0.0
 10
15.3437296183
 20
11.9444665896
 30
0.0
 10
15.3517866733
 20
11.8951525588
 30
0.0
 10
15.3605108129
 20
11.8465932332
 30
0.0
 10
15.3698913252
 20
11.7988481186
 30
0.0
 10
15.3799166954
 20
11.7519757137
 30
0.0
 10
15.3905746182
 20
11.7060334407
 30
0.0
 10
15.4018520145
 20
11.6610775733
 30
0.0
 10
15.413735048
 20
11.6171631663
 30
0.0
 10
15.4262091434
 20
11.5743439869
 30
0.0
 10
15.439259004
 20
11.5326724461
 30
0.0
 10
15.452868634
 20
11.4921995337
 30
0.0
 10
15.4670213608
 20
11.4529747545
 30
0.0
 10
15.481699858
 20
11.4150460661
 30
0.0
 10
15.4968861712
 20
11.3784598187
 30
0.0
 10
15.5125617444
 20
11.3432606964
 30
0.0
 10
15.5287074495
 20
11.3094916621
 30
0.0
 10
15.5453036174
 20
11.2771939037
 30
0.0
 10
15.5623300729
 20
11.2464067846
 30
0.0
 10
15.5797661692
 20
11.2171677964
 30
0.0
 10
15.597590829
 20
11.1895125198
 30
0.0
 10
15.6157825883
 20
11.1634745918
 30
0.0
 10
15.6343196405
 20
11.1390856822
 30
0.0
 10
15.6531798831
 20
11.1163754807
 30
0.0
 10
15.6723409606
 20
11.0953716982
 30
0.0
 10
15.6917803054
 20
11.0761000849
 30
0.0
 10
15.71147515
 20
11.0585844699
 30
0.0
 10
15.7314025659
 20
11.042846806
 30
0.0
 10
15.7515392834
 20
11.0289072687
 30
0.0
 10
15.7718620962
 20
11.016784184
 30
0.0
 10
15.792345961
 20
11.0064945196
 30
0.0
 10
15.8096402245
 20
10.9994152281
 30
0.0
 10
15.8235044922
 20
10.9947083989
 30
0.0
 10
15.8338614856
 20
10.9916653607
 30
0.0
 10
15.8442380058
 20
10.9890887603
 30
0.0
 10
15.854631006
 20
10.9869794391
 30
0.0
 10
15.8650371502
 20
10.9853380969
 30
0.0
 10
15.8754532526
 20
10.9841653005
 30
0.0
 10
15.8858757422
 20
10.9834614784
 30
0.0
 10
15.8928287969
 20
10.9833049909
 30
0.0
 10
15.896301844
 20
10.9833049938
 30
0.0
  0
SPLINE
  5
2A1
100
AcDbEntity
  8
02___PRT_ALL_AXES
100
AcDbSpline
 62
7
  6
CONTINUOUS
 70
0
 71
3
 72
23
 73
19
 74
0
 42
0.0000001
 43
0.0000001
 44
0.0000000001
 40
0.0
 40
0.0
 40
0.0
 40
0.0
 40
0.0502902022
 40
0.101170835
 40
0.1529405868
 40
0.2058791657
 40
0.2602430709
 40
0.3162630013
 40
0.3741426714
 40
0.4340587431
 40
0.4961616393
 40
0.5605770273
 40
0.6274075657
 40
0.6967347106
 40
0.7686205913
 40
0.8431098879
 40
0.9202315023
 40
1.0
 40
1.0
 40
1.0
 40
1.0
 10
15.792953099
 20
11.6674238259
 30
0.0
 10
15.7892389366
 20
11.6677059216
 30
0.0
 10
15.7817878416
 20
11.668598534
 30
0.0
 10
15.7706832826
 20
11.6708999302
 30
0.0
 10
15.7596182396
 20
11.6741655227
 30
0.0
 10
15.748607104
 20
11.6783902658
 30
0.0
 10
15.7376623581
 20
11.6835680872
 30
0.0
 10
15.7267964585
 20
11.6896919395
 30
0.0
 10
15.7160214264
 20
11.6967539194
 30
0.0
 10
15.7053490656
 20
11.7047452645
 30
0.0
 10
15.6947909824
 20
11.7136563476
 30
0.0
 10
15.6843586688
 20
11.7234766943
 30
0.0
 10
15.6740635255
 20
11.734194948
 30
0.0
 10
15.6639168475
 20
11.7457988236
 30
0.0
 10
15.6539298288
 20
11.7582750716
 30
0.0
 10
15.6441135202
 20
11.7716095734
 30
0.0
 10
15.6344790011
 20
11.7857870074
 30
0.0
 10
15.6282885401
 20
11.7956243733
 30
0.0
 10
15.6252232289
 20
11.8006752287
 30
0.0
  0
SPLINE
  5
2A2
100
AcDbEntity
  8
LAYER_FEATURE
100
AcDbSpline
 62
7
  6
CONTINUOUS
 70
0
 71
3
 72
23
 73
19
 74
0
 42
0.0000001
 43
0.0000001
 44
0.0000000001
 40
0.0
 40
0.0
 40
0.0
 40
0.0
 40
0.0522061877
 40
0.1047088853
 40
0.1577984444
 40
0.2117533935
 40
0.2668357049
 40
0.3232872213
 40
0.3813273143
 40
0.4411516744
 40
0.5029320843
 40
0.5668169611
 40
0.6329324026
 40
0.701383549
 40
0.7722560825
 40
0.8456178112
 40
0.9215202334
 40
1.0
 40
1.0
 40
1.0
 40
1.0
 10
15.0458686096
 20
14.0383049843
 30
0.0
 10
15.0522067821
 20
14.0383049781
 30
0.0
 10
15.0649252375
 20
14.0377819036
 30
0.0
 10
15.0839584085
 20
14.0354313535
 30
0.0
 10
15.1029499996
 20
14.0315175124
 30
0.0
 10
15.1218774994
 20
14.0260458112
 30
0.0
 10
15.1407211606
 20
14.0190235133
 30
0.0
 10
15.1594612757
 20
14.0104594892
 30
0.0
 10
15.1780788631
 20
14.0003640358
 30
0.0
 10
15.1965553677
 20
13.9887487817
 30
0.0
 10
15.2148726134
 20
13.9756266266
 30
0.0
 10
15.2330126832
 20
13.9610117092
 30
0.0
 10
15.2509578603
 20
13.9449194322
 30
0.0
 10
15.2686905873
 20
13.9273664821
 30
0.0
 10
15.286193442
 20
13.9083709169
 30
0.0
 10
15.3034492323
 20
13.8879520374
 30
0.0
 10
15.3204406116
 20
13.8661309578
 30
0.0
 10
15.331397288
 20
13.8509180797
 30
0.0
 10
15.3368316155
 20
13.8430918389
 30
0.0
  0
SPLINE
  5
2A3
100
AcDbEntity
  8
LAYER_FEATURE
100
AcDbSpline
 62
7
  6
CONTINUOUS
 70
0
 71
3
 72
23
 73
19
 74
0
 42
0.0000001
 43
0.0000001
 44
0.0000000001
 40
0.0
 40
0.0
 40
0.0
 40
0.0
 40
0.0522138878
 40
0.1047240108
 40
0.1578204576
 40
0.2117815285
 40
0.2668689895
 40
0.3233245038
 40
0.3813672978
 40
0.4411929703
 40
0.5029732623
 40
0.5668565522
 40
0.6329689161
 40
0.7014154972
 40
0.7722820304
 40
0.8456363986
 40
0.921530152
 40
1.0
 40
1.0
 40
1.0
 40
1.0
 10
15.0458686096
 20
10.9833050015
 30
0.0
 10
15.0522033757
 20
10.9833049953
 30
0.0
 10
15.0649149501
 20
10.9838275344
 30
0.0
 10
15.0839378733
 20
10.9861755366
 30
0.0
 10
15.1029192912
 20
10.9900851472
 30
0.0
 10
15.1218367235
 20
10.9955509639
 30
0.0
 10
15.1406704546
 20
11.0025657352
 30
0.0
 10
15.1594008089
 20
11.0111205984
 30
0.0
 10
15.1780088389
 20
11.0212052673
 30
0.0
 10
15.1964760176
 20
11.0328081464
 30
0.0
 10
15.2147841847
 20
11.0459163842
 30
0.0
 10
15.2329154558
 20
11.0605158606
 30
0.0
 10
15.2508521424
 20
11.0765911963
 30
0.0
 10
15.268576721
 20
11.0941257306
 30
0.0
 10
15.2860717898
 20
11.113101455
 30
0.0
 10
15.3033201737
 20
11.1334991208
 30
0.0
 10
15.3203045573
 20
11.1552976503
 30
0.0
 10
15.3312570014
 20
11.1704949734
 30
0.0
 10
15.3366892751
 20
11.1783132309
 30
0.0
  0
SPLINE
  5
2A4
100
AcDbEntity
  8
LAYER_FEATURE
100
AcDbSpline
 62
7
  6
CONTINUOUS
 70
0
 71
3
 72
68
 73
64
 74
0
 42
0.0000001
 43
0.0000001
 44
0.0000000001
 40
0.0
 40
0.0
 40
0.0
 40
0.0
 40
0.0038448265
 40
0.0076962392
 40
0.0115607831
 40
0.0154449202
 40
0.0193549915
 40
0.0232971829
 40
0.0272774884
 40
0.0313016907
 40
0.0395020789
 40
0.0479412181
 40
0.0566557572
 40
0.0656777061
 40
0.0750344918
 40
0.0847491527
 40
0.0948406176
 40
0.1053240294
 40
0.1162110792
 40
0.1275103338
 40
0.1392275419
 40
0.1513659152
 40
0.163926381
 40
0.1769078068
 40
0.1903071987
 40
0.2041198767
 40
0.2183396291
 40
0.232958849
 40
0.2479686547
 40
0.2633589967
 40
0.2791187536
 40
0.2952358175
 40
0.3116971723
 40
0.3284889642
 40
0.3455965666
 40
0.3630046406
 40
0.3806971914
 40
0.3986576209
 40
0.4168687774
 40
0.4353130026
 40
0.4539721773
 40
0.4728277646
 40
0.4918608519
 40
0.5110521918
 40
0.549830236
 40
0.5890037206
 40
0.6284105861
 40
0.6678870956
 40
0.7072690133
 40
0.7463927805
 40
0.7850966971
 40
0.8042419852
 40
0.823223137
 40
0.8420210026
 40
0.8606167789
 40
0.8789920514
 40
0.8971288359
 40
0.9150096254
 40
0.9326174244
 40
0.9499358349
 40
0.9669489951
 40
0.9836419142
 40
1.0
 40
1.0
 40
1.0
 40
1.0
 10
15.9528001266
 20
14.0383049921
 30
0.0
 10
15.9562731736
 20
14.0383049949
 30
0.0
 10
15.9632262284
 20
14.0381485074
 30
0.0
 10
15.973648718
 20
14.0374446854
 30
0.0
 10
15.9840648203
 20
14.0362718889
 30
0.0
 10
15.9944709646
 20
14.0346305467
 30
0.0
 10
16.0048639648
 20
14.0325212255
 30
0.0
 10
16.015240485
 20
14.0299446251
 30
0.0
 10
16.0255974784
 20
14.026901587
 30
0.0
 10
16.0394617461
 20
14.0221947577
 30
0.0
 10
16.0567560096
 20
14.0151154662
 30
0.0
 10
16.0772398743
 20
14.0048258019
 30
0.0
 10
16.0975626872
 20
13.9927027171
 30
0.0
 10
16.1176994046
 20
13.9787631798
 30
0.0
 10
16.1376268206
 20
13.9630255159
 30
0.0
 10
16.1573216652
 20
13.9455099009
 30
0.0
 10
16.17676101
 20
13.9262382876
 30
0.0
 10
16.1959220875
 20
13.9052345051
 30
0.0
 10
16.2147823301
 20
13.8825243036
 30
0.0
 10
16.2333193823
 20
13.858135394
 30
0.0
 10
16.2515111416
 20
13.832097466
 30
0.0
 10
16.2693358014
 20
13.8044421894
 30
0.0
 10
16.2867718976
 20
13.7752032012
 30
0.0
 10
16.3037983532
 20
13.7444160821
 30
0.0
 10
16.3203945211
 20
13.7121183237
 30
0.0
 10
16.3365402262
 20
13.6783492894
 30
0.0
 10
16.3522157994
 20
13.6431501671
 30
0.0
 10
16.3674021125
 20
13.6065639197
 30
0.0
 10
16.3820806098
 20
13.5686352313
 30
0.0
 10
16.3962333366
 20
13.5294104521
 30
0.0
 10
16.4098429666
 20
13.4889375397
 30
0.0
 10
16.4228928272
 20
13.4472659989
 30
0.0
 10
16.4353669226
 20
13.4044468195
 30
0.0
 10
16.4472499561
 20
13.3605324126
 30
0.0
 10
16.4585273524
 20
13.3155765451
 30
0.0
 10
16.4691852752
 20
13.2696342721
 30
0.0
 10
16.4792106454
 20
13.2227618672
 30
0.0
 10
16.4885911577
 20
13.1750167526
 30
0.0
 10
16.4973152972
 20
13.126457427
 30
0.0
 10
16.5053723523
 20
13.0771433962
 30
0.0
 10
16.5127524334
 20
13.0271350865
 30
0.0
 10
16.5194464655
 20
12.9764938205
 30
0.0
 10
16.5254462759
 20
12.9252815479
 30
0.0
 10
16.5325345539
 20
12.856084999
 30
0.0
 10
16.5395959063
 20
12.7686071885
 30
0.0
 10
16.5451749005
 20
12.6627306383
 30
0.0
 10
16.5478604884
 20
12.5561098369
 30
0.0
 10
16.5476394556
 20
12.4492674044
 30
0.0
 10
16.544512888
 20
12.3427260714
 30
0.0
 10
16.5384961768
 20
12.2370080686
 30
0.0
 10
16.5310721501
 20
12.1497142325
 30
0.0
 10
16.5236963384
 20
12.08070408
 30
0.0
 10
16.5174846656
 20
12.0296587446
 30
0.0
 10
16.5105811814
 20
11.9792033621
 30
0.0
 10
16.5029943132
 20
11.9293996536
 30
0.0
 10
16.4947333903
 20
11.8803086904
 30
0.0
 10
16.485808553
 20
11.8319906213
 30
0.0
 10
16.4762307578
 20
11.7845046613
 30
0.0
 10
16.4660117637
 20
11.7379089675
 30
0.0
 10
16.4551641132
 20
11.692260682
 30
0.0
 10
16.4437011031
 20
11.6476155555
 30
0.0
 10
16.4316368569
 20
11.6040286109
 30
0.0
 10
16.4231142486
 20
11.5754133741
 30
0.0
 10
16.4187515779
 20
11.5612957664
 30
0.0
  0
SPLINE
  5
2A5
100
AcDbEntity
  8
LAYER_FEATURE
100
AcDbSpline
 62
7
  6
CONTINUOUS
 70
0
 71
3
 72
39
 73
35
 74
0
 42
0.0000001
 43
0.0000001
 44
0.0000000001
 40
0.0
 40
0.0
 40
0.0
 40
0.0
 40
0.0212769805
 40
0.0426477427
 40
0.0642045486
 40
0.0860367268
 40
0.1082294314
 40
0.1308626295
 40
0.1540103791
 40
0.1777403604
 40
0.2021136227
 40
0.2271845602
 40
0.2530010567
 40
0.2796047186
 40
0.307031172
 40
0.3353104562
 40
0.3644674123
 40
0.3945220379
 40
0.4254898696
 40
0.4573823626
 40
0.4902072078
 40
0.5239686095
 40
0.5586675988
 40
0.5943022926
 40
0.630868091
 40
0.6683578902
 40
0.7067623015
 40
0.7460698034
 40
0.7862668444
 40
0.8273381134
 40
0.8692665
 40
0.9120330868
 40
0.9556186933
 40
1.0
 40
1.0
 40
1.0
 40
1.0
 10
15.9528001266
 20
10.9833049938
 30
0.0
 10
15.9583796187
 20
10.9833049983
 30
0.0
 10
15.9695673732
 20
10.9837098613
 30
0.0
 10
15.986318941
 20
10.985529802
 30
0.0
 10
16.003042728
 20
10.9885608982
 30
0.0
 10
16.0197235104
 20
10.9928000795
 30
0.0
 10
16.0363478016
 20
10.9982431631
 30
0.0
 10
16.0529020358
 20
11.0048849063
 30
0.0
 10
16.0693730487
 20
11.0127191684
 30
0.0
 10
16.0857478991
 20
11.021738972
 30
0.0
 10
16.1020138951
 20
11.0319364848
 30
0.0
 10
16.1181585324
 20
11.0433030749
 30
0.0
 10
16.1341694412
 20
11.0558293479
 30
0.0
 10
16.1500343667
 20
11.0695051167
 30
0.0
 10
16.1657411859
 20
11.0843193553
 30
0.0
 10
16.1812778598
 20
11.1002602432
 30
0.0
 10
16.1966324307
 20
11.1173151515
 30
0.0
 10
16.2117930627
 20
11.1354705966
 30
0.0
 10
16.2267480381
 20
11.1547122541
 30
0.0
 10
16.241485746
 20
11.1750249822
 30
0.0
 10
16.2559947045
 20
11.1963928087
 30
0.0
 10
16.2702636096
 20
11.2187989113
 30
0.0
 10
16.2842813053
 20
11.2422256618
 30
0.0
 10
16.2980367953
 20
11.2666546358
 30
0.0
 10
16.3115192873
 20
11.2920666001
 30
0.0
 10
16.3247181969
 20
11.3184415346
 30
0.0
 10
16.3376231337
 20
11.3457586656
 30
0.0
 10
16.3502239173
 20
11.373996467
 30
0.0
 10
16.3625106372
 20
11.4031326733
 30
0.0
 10
16.3744735959
 20
11.4331443069
 30
0.0
 10
16.386103317
 20
11.464007636
 30
0.0
 10
16.3973907172
 20
11.4956985083
 30
0.0
 10
16.4083267112
 20
11.5281915749
 30
0.0
 10
16.4153154383
 20
11.5501764146
 30
0.0
 10
16.4187515779
 20
11.5612957664
 30
0.0
  0
SPLINE
  5
2A6
100
AcDbEntity
  8
LAYER_CHAMFER_FEAT
100
AcDbSpline
 62
7
  6
CONTINUOUS
 70
0
 71
3
 72
53
 73
49
 74
0
 42
0.0000001
 43
0.0000001
 44
0.0000000001
 40
0.0
 40
0.0
 40
0.0
 40
0.0
 40
0.0101614604
 40
0.0206687225
 40
0.0315254918
 40
0.0427337815
 40
0.0542940581
 40
0.0662053917
 40
0.0784655796
 40
0.0910712482
 40
0.1040179478
 40
0.1173002507
 40
0.1309118291
 40
0.1448455148
 40
0.1590933648
 40
0.1736467263
 40
0.1884962871
 40
0.2036321129
 40
0.2190436977
 40
0.2347200085
 40
0.2668192417
 40
0.299833365
 40
0.3336585427
 40
0.36818557
 40
0.4033007747
 40
0.4388868214
 40
0.4748235162
 40
0.5109885598
 40
0.5472583007
 40
0.5835084701
 40
0.6196149134
 40
0.6554543259
 40
0.6909049895
 40
0.7258475262
 40
0.760165669
 40
0.7937470579
 40
0.8264840861
 40
0.8582747833
 40
0.873785731
 40
0.8890249462
 40
0.9039817204
 40
0.9186459075
 40
0.9330079547
 40
0.947058969
 40
0.9607907364
 40
0.9741957084
 40
0.9872675652
 40
1.0
 40
1.0
 40
1.0
 40
1.0
 10
15.7665465482
 20
13.4954197349
 30
0.0
 10
15.762414737
 20
13.4904696257
 30
0.0
 10
15.7542184845
 20
13.4802257397
 30
0.0
 10
15.7423223172
 20
13.4641377117
 30
0.0
 10
15.7306316212
 20
13.4470880394
 30
0.0
 10
15.7191582907
 20
13.4290941758
 30
0.0
 10
15.7079136534
 20
13.4101740855
 30
0.0
 10
15.6969089565
 20
13.3903467872
 30
0.0
 10
15.6861552136
 20
13.369632176
 30
0.0
 10
15.675663211
 20
13.3480510664
 30
0.0
 10
15.6654434729
 20
13.3256251631
 30
0.0
 10
15.6555062756
 20
13.3023770247
 30
0.0
 10
15.6458616324
 20
13.2783300418
 30
0.0
 10
15.6365192584
 20
13.2535084285
 30
0.0
 10
15.6274885633
 20
13.2279371932
 30
0.0
 10
15.6187786596
 20
13.2016421025
 30
0.0
 10
15.6103983454
 20
13.1746496506
 30
0.0
 10
15.6023560902
 20
13.1469870734
 30
0.0
 10
15.5946599549
 20
13.1186822027
 30
0.0
 10
15.5847929374
 20
13.0798185627
 30
0.0
 10
15.5734022626
 20
13.0298257061
 30
0.0
 10
15.5613353047
 20
12.9682061974
 30
0.0
 10
15.5508136508
 20
12.9047422492
 30
0.0
 10
15.5418799163
 20
12.8396899951
 30
0.0
 10
15.5345703555
 20
12.7733114314
 30
0.0
 10
15.5289145693
 20
12.7058741835
 30
0.0
 10
15.5249355303
 20
12.6376501616
 30
0.0
 10
15.5226493455
 20
12.5689145138
 30
0.0
 10
15.5220653141
 20
12.4999444762
 30
0.0
 10
15.523185784
 20
12.4310182458
 30
0.0
 10
15.5260062257
 20
12.3624138398
 30
0.0
 10
15.5305151903
 20
12.2944079581
 30
0.0
 10
15.5366943937
 20
12.2272748548
 30
0.0
 10
15.5445187807
 20
12.1612851955
 30
0.0
 10
15.5539566147
 20
12.0967050094
 30
0.0
 10
15.5649696627
 20
12.0337943524
 30
0.0
 10
15.5775132517
 20
11.9728070961
 30
0.0
 10
15.5892938758
 20
11.923394164
 30
0.0
 10
15.5994648198
 20
11.8850330022
 30
0.0
 10
15.6073798353
 20
11.8571292106
 30
0.0
 10
15.6156359058
 20
11.8298853608
 30
0.0
 10
15.6242247494
 20
11.803328856
 30
0.0
 10
15.6331376712
 20
11.7774864756
 30
0.0
 10
15.6423656901
 20
11.7523842522
 30
0.0
 10
15.6518994926
 20
11.7280475469
 30
0.0
 10
15.661729513
 20
11.7045006546
 30
0.0
 10
15.6718457464
 20
11.6817676794
 30
0.0
 10
15.6788673012
 20
11.6669733498
 30
0.0
 10
15.6824265783
 20
11.6597203056
 30
0.0
  0
SPLINE
  5
2A7
100
AcDbEntity
  8
LAYER_CHAMFER_FEAT
100
AcDbSpline
 62
7
  6
CONTINUOUS
 70
0
 71
3
 72
21
 73
17
 74
0
 42
0.0000001
 43
0.0000001
 44
0.0000000001
 40
0.0
 40
0.0
 40
0.0
 40
0.0
 40
0.1466774409
 40
0.2170603514
 40
0.2855506311
 40
0.3522263222
 40
0.4171766531
 40
0.5422784337
 40
0.6027091433
 40
0.6618935705
 40
0.7199822847
 40
0.7771374828
 40
0.8335317959
 40
0.8893468979
 40
0.9447716772
 40
1.0
 40
1.0
 40
1.0
 40
1.0
 10
15.7548807148
 20
11.5407784365
 30
0.0
 10
15.7610681025
 20
11.5339838427
 30
0.0
 10
15.770569704
 20
11.5242315204
 30
0.0
 10
15.7837900542
 20
11.5121724812
 30
0.0
 10
15.7936551774
 20
11.5038884327
 30
0.0
 10
15.8036000479
 20
11.4962459065
 30
0.0
 10
15.8167904416
 20
11.4870345981
 30
0.0
 10
15.8302911116
 20
11.4789710798
 30
0.0
 10
15.8440481472
 20
11.4721881951
 30
0.0
 10
15.8542964436
 20
11.4678217694
 30
0.0
 10
15.8645859212
 20
11.4641216753
 30
0.0
 10
15.8749102422
 20
11.4610903764
 30
0.0
 10
15.8852625196
 20
11.4587302423
 30
0.0
 10
15.8956360508
 20
11.4570431086
 30
0.0
 10
15.9060232677
 20
11.4560302515
 30
0.0
 10
15.9129580344
 20
11.4558050043
 30
0.0
 10
15.9164182174
 20
11.4558050018
 30
0.0
  0
SPLINE
  5
2A8
100
AcDbEntity
  8
LAYER_FEATURE
100
AcDbSpline
 62
7
  6
CONTINUOUS
 70
0
 71
3
 72
39
 73
35
 74
0
 42
0.0000001
 43
0.0000001
 44
0.0000000001
 40
0.0
 40
0.0
 40
0.0
 40
0.0
 40
0.0443813067
 40
0.0879669132
 40
0.1307335
 40
0.1726618866
 40
0.2137331556
 40
0.2539301966
 40
0.2932376985
 40
0.3316421098
 40
0.369131909
 40
0.4056977074
 40
0.4413324012
 40
0.4760313905
 40
0.5097927922
 40
0.5426176374
 40
0.5745101304
 40
0.6054779621
 40
0.6355325877
 40
0.6646895438
 40
0.692968828
 40
0.7203952814
 40
0.7469989433
 40
0.7728154398
 40
0.7978863773
 40
0.8222596396
 40
0.8459896209
 40
0.8691373705
 40
0.8917705686
 40
0.9139632732
 40
0.9357954514
 40
0.9573522573
 40
0.9787230195
 40
1.0
 40
1.0
 40
1.0
 40
1.0
 10
15.4303503927
 20
13.4603142194
 30
0.0
 10
15.4337865323
 20
13.4714335712
 30
0.0
 10
15.4407752594
 20
13.4934184109
 30
0.0
 10
15.4517112534
 20
13.5259114776
 30
0.0
 10
15.4629986535
 20
13.5576023498
 30
0.0
 10
15.4746283747
 20
13.5884656789
 30
0.0
 10
15.4865913334
 20
13.6184773125
 30
0.0
 10
15.4988780532
 20
13.6476135188
 30
0.0
 10
15.5114788369
 20
13.6758513202
 30
0.0
 10
15.5243837737
 20
13.7031684512
 30
0.0
 10
15.5375826833
 20
13.7295433857
 30
0.0
 10
15.5510651753
 20
13.75495535
 30
0.0
 10
15.5648206653
 20
13.7793843241
 30
0.0
 10
15.578838361
 20
13.8028110745
 30
0.0
 10
15.5931072661
 20
13.8252171772
 30
0.0
 10
15.6076162246
 20
13.8465850036
 30
0.0
 10
15.6223539325
 20
13.8668977317
 30
0.0
 10
15.6373089079
 20
13.8861393892
 30
0.0
 10
15.6524695399
 20
13.9042948343
 30
0.0
 10
15.6678241107
 20
13.9213497426
 30
0.0
 10
15.6833607846
 20
13.9372906305
 30
0.0
 10
15.6990676039
 20
13.9521048691
 30
0.0
 10
15.7149325294
 20
13.9657806379
 30
0.0
 10
15.7309434382
 20
13.9783069109
 30
0.0
 10
15.7470880755
 20
13.9896735011
 30
0.0
 10
15.7633540715
 20
13.9998710138
 30
0.0
 10
15.7797289219
 20
14.0088908174
 30
0.0
 10
15.7961999348
 20
14.0167250796
 30
0.0
 10
15.812754169
 20
14.0233668228
 30
0.0
 10
15.8293784602
 20
14.0288099063
 30
0.0
 10
15.8460592425
 20
14.0330490876
 30
0.0
 10
15.8627830296
 20
14.0360801838
 30
0.0
 10
15.8795345974
 20
14.0379001245
 30
0.0
 10
15.8907223518
 20
14.0383049875
 30
0.0
 10
15.896301844
 20
14.0383049921
 30
0.0
  0
SPLINE
  5
2A9
100
AcDbEntity
  8
LAYER_CHAMFER_FEAT
100
AcDbSpline
 62
7
  6
CONTINUOUS
 70
0
 71
3
 72
21
 73
17
 74
0
 42
0.0000001
 43
0.0000001
 44
0.0000000001
 40
0.0
 40
0.0
 40
0.0
 40
0.0
 40
0.0552847203
 40
0.110764146
 40
0.1666304533
 40
0.2230708988
 40
0.2802657084
 40
0.338386164
 40
0.3975933247
 40
0.4580368157
 40
0.5831315266
 40
0.6480607534
 40
0.7147033086
 40
0.7831482725
 40
0.8534736434
 40
1.0
 40
1.0
 40
1.0
 40
1.0
 10
15.9164182174
 20
13.565804984
 30
0.0
 10
15.9129752955
 20
13.5658049865
 30
0.0
 10
15.9060752655
 20
13.5655819732
 30
0.0
 10
15.8957399238
 20
13.5645792419
 30
0.0
 10
15.8854180619
 20
13.5629089062
 30
0.0
 10
15.8751171177
 20
13.5605723026
 30
0.0
 10
15.8648437107
 20
13.5575711466
 30
0.0
 10
15.8546046124
 20
13.553907816
 30
0.0
 10
15.8444060705
 20
13.549584701
 30
0.0
 10
15.8307164108
 20
13.5428695627
 30
0.0
 10
15.8172794286
 20
13.5348858336
 30
0.0
 10
15.8041488743
 20
13.5257643079
 30
0.0
 10
15.7942492583
 20
13.5181967431
 30
0.0
 10
15.7844282213
 20
13.5099937175
 30
0.0
 10
15.7712667176
 20
13.498053158
 30
0.0
 10
15.7618045217
 20
13.4883948428
 30
0.0
 10
15.7556418879
 20
13.4816650985
 30
0.0
  0
SPLINE
  5
2AA
100
AcDbEntity
  8
LAYER_FEATURE
100
AcDbSpline
 62
7
  6
CONTINUOUS
 70
0
 71
3
 72
67
 73
63
 74
0
 42
0.0000001
 43
0.0000001
 44
0.0000000001
 40
0.0
 40
0.0
 40
0.0
 40
0.0
 40
0.0163581013
 40
0.0330510694
 40
0.0500642491
 40
0.0673826926
 40
0.0849905208
 40
0.1028713409
 40
0.1210081566
 40
0.1393834611
 40
0.15797927
 40
0.1767771682
 40
0.1957583526
 40
0.2149036734
 40
0.2536076561
 40
0.292731491
 40
0.3321134768
 40
0.371590054
 40
0.4109969877
 40
0.45017054
 40
0.4889486503
 40
0.5081400228
 40
0.5271731428
 40
0.546028763
 40
0.5646879707
 40
0.5831322282
 40
0.601343416
 40
0.6193038759
 40
0.6369964566
 40
0.65440456
 40
0.6715121917
 40
0.6883040129
 40
0.7047653969
 40
0.720882489
 40
0.7366422729
 40
0.7520326412
 40
0.7670424724
 40
0.7816617173
 40
0.7958814943
 40
0.8096941963
 40
0.8230936114
 40
0.8360750592
 40
0.8486355463
 40
0.8607739405
 40
0.872491169
 40
0.8837904436
 40
0.8946775128
 40
0.905160943
 40
0.9152524249
 40
0.9249671014
 40
0.9343239024
 40
0.9433458667
 40
0.9520604213
 40
0.9604995757
 40
0.9686999787
 40
0.9767027777
 40
0.9806449746
 40
0.9845550535
 40
0.9884391969
 40
0.9923037475
 40
0.9961551669
 40
1.0
 40
1.0
 40
1.0
 40
1.0
 10
14.5234188756
 20
13.4603142194
 30
0.0
 10
14.5190562083
 20
13.4461966227
 30
0.0
 10
14.5105335998
 20
13.4175813788
 30
0.0
 10
14.4984693511
 20
13.3739944371
 30
0.0
 10
14.4870063413
 20
13.3293492979
 30
0.0
 10
14.4761586902
 20
13.2837010198
 30
0.0
 10
14.4659396956
 20
13.2371053243
 30
0.0
 10
14.4563618993
 20
13.1896193659
 30
0.0
 10
14.4474370614
 20
13.1413012968
 30
0.0
 10
14.4391761393
 20
13.0922103326
 30
0.0
 10
14.4315892735
 20
13.0424066227
 30
0.0
 10
14.4246857907
 20
12.9919512394
 30
0.0
 10
14.4184741178
 20
12.9409059042
 30
0.0
 10
14.4110983046
 20
12.8718957528
 30
0.0
 10
14.4036742735
 20
12.7846019177
 30
0.0
 10
14.3976575624
 20
12.6788839149
 30
0.0
 10
14.3945310026
 20
12.5723425815
 30
0.0
 10
14.3943099688
 20
12.4655001489
 30
0.0
 10
14.3969955495
 20
12.3588793471
 30
0.0
 10
14.4025745434
 20
12.253002797
 30
0.0
 10
14.4096359016
 20
12.1655249878
 30
0.0
 10
14.4167241816
 20
12.0963284402
 30
0.0
 10
14.4227239916
 20
12.0451161677
 30
0.0
 10
14.4294180212
 20
11.9944749003
 30
0.0
 10
14.4367980995
 20
11.9444665885
 30
0.0
 10
14.444855153
 20
11.8951525564
 30
0.0
 10
14.4535792935
 20
11.846593231
 30
0.0
 10
14.4629598076
 20
11.7988481179
 30
0.0
 10
14.4729851794
 20
11.751975715
 30
0.0
 10
14.4836431033
 20
11.7060334435
 30
0.0
 10
14.4949204997
 20
11.6610775764
 30
0.0
 10
14.5068035323
 20
11.6171631682
 30
0.0
 10
14.5192776256
 20
11.5743439866
 30
0.0
 10
14.5323274855
 20
11.5326724445
 30
0.0
 10
14.5459371161
 20
11.4921995323
 30
0.0
 10
14.5600898436
 20
11.4529747542
 30
0.0
 10
14.5747683414
 20
11.4150460668
 30
0.0
 10
14.5899546547
 20
11.3784598198
 30
0.0
 10
14.6056302277
 20
11.3432606973
 30
0.0
 10
14.6217759323
 20
11.3094916624
 30
0.0
 10
14.6383721
 20
11.2771939039
 30
0.0
 10
14.6553985561
 20
11.2464067857
 30
0.0
 10
14.6728346528
 20
11.2171677986
 30
0.0
 10
14.6906593128
 20
11.1895125222
 30
0.0
 10
14.7088510717
 20
11.1634745932
 30
0.0
 10
14.7273881233
 20
11.1390856816
 30
0.0
 10
14.746248365
 20
11.1163754778
 30
0.0
 10
14.7654094423
 20
11.0953716939
 30
0.0
 10
14.7848487859
 20
11.0761000827
 30
0.0
 10
14.8045436379
 20
11.0585844717
 30
0.0
 10
14.8244710357
 20
11.0428468165
 30
0.0
 10
14.8446078197
 20
11.0289072633
 30
0.0
 10
14.8649303948
 20
11.0167842335
 30
0.0
 10
14.8854151027
 20
11.0064943587
 30
0.0
 10
14.9060361737
 20
10.9980527539
 30
0.0
 10
14.9234029521
 20
10.9925410074
 30
0.0
 10
14.9373064034
 20
10.9890888239
 30
0.0
 10
14.9476995096
 20
10.9869794125
 30
0.0
 10
14.9581056282
 20
10.9853381077
 30
0.0
 10
14.968521737
 20
10.9841653026
 30
0.0
 10
14.9789442243
 20
10.9834614664
 30
0.0
 10
14.9858972799
 20
10.9833050049
 30
0.0
 10
14.9893703269
 20
10.9833050015
 30
0.0
  0
SPLINE
  5
2AB
100
AcDbEntity
  8
LAYER_FEATURE
100
AcDbSpline
 62
7
  6
CONTINUOUS
 70
0
 71
3
 72
39
 73
35
 74
0
 42
0.0000001
 43
0.0000001
 44
0.0000000001
 40
0.0
 40
0.0
 40
0.0
 40
0.0
 40
0.0443812481
 40
0.0879669295
 40
0.1307335086
 40
0.172661876
 40
0.2137331571
 40
0.2539301992
 40
0.2932376968
 40
0.3316421073
 40
0.369131911
 40
0.4056977099
 40
0.4413323968
 40
0.4760313903
 40
0.5097927974
 40
0.5426176342
 40
0.5745101269
 40
0.6054779669
 40
0.6355325892
 40
0.664689538
 40
0.6929688298
 40
0.7203952869
 40
0.7469989387
 40
0.7728154376
 40
0.7978863828
 40
0.8222596394
 40
0.8459896168
 40
0.869137373
 40
0.8917705712
 40
0.9139632708
 40
0.935795451
 40
0.9573522592
 40
0.9787230199
 40
1.0
 40
1.0
 40
1.0
 40
1.0
 10
14.5234188756
 20
13.4603142194
 30
0.0
 10
14.5268550107
 20
13.4714335565
 30
0.0
 10
14.5338437411
 20
13.4934183997
 30
0.0
 10
14.5447797329
 20
13.5259114693
 30
0.0
 10
14.5560671359
 20
13.5576023539
 30
0.0
 10
14.5676968602
 20
13.5884656777
 30
0.0
 10
14.5796598165
 20
13.6184773105
 30
0.0
 10
14.5919465339
 20
13.6476135203
 30
0.0
 10
14.6045473207
 20
13.6758513191
 30
0.0
 10
14.6174522594
 20
13.703168449
 30
0.0
 10
14.6306511647
 20
13.7295433868
 30
0.0
 10
14.644133655
 20
13.7549553516
 30
0.0
 10
14.6578891533
 20
13.7793843203
 30
0.0
 10
14.6719068446
 20
13.802811074
 30
0.0
 10
14.686175743
 20
13.8252171814
 30
0.0
 10
14.7006847115
 20
13.846585
 30
0.0
 10
14.7154224194
 20
13.8668977278
 30
0.0
 10
14.7303773857
 20
13.8861393939
 30
0.0
 10
14.745538021
 20
13.9042948357
 30
0.0
 10
14.7608926009
 20
13.9213497345
 30
0.0
 10
14.7764292659
 20
13.9372906321
 30
0.0
 10
14.79213608
 20
13.9521048773
 30
0.0
 10
14.8080010188
 20
13.965780629
 30
0.0
 10
14.8240119239
 20
13.978306906
 30
0.0
 10
14.8401565514
 20
13.9896735125
 30
0.0
 10
14.8564225557
 20
13.9998710119
 30
0.0
 10
14.8727974105
 20
14.0088908044
 30
0.0
 10
14.889268414
 20
14.0167250876
 30
0.0
 10
14.9058226493
 20
14.0233668314
 30
0.0
 10
14.9224469474
 20
14.028809891
 30
0.0
 10
14.9391277252
 20
14.0330490852
 30
0.0
 10
14.9558515106
 20
14.0360802013
 30
0.0
 10
14.9726030815
 20
14.0379001104
 30
0.0
 10
14.9837908349
 20
14.0383049898
 30
0.0
 10
14.9893703269
 20
14.0383049843
 30
0.0
  0
SPLINE
  5
2AC
100
AcDbEntity
  8
02___PRT_ALL_AXES
100
AcDbSpline
 62
7
  6
CONTINUOUS
 70
0
 71
3
 72
15
 73
11
 74
0
 42
0.0000001
 43
0.0000001
 44
0.0000000001
 40
0.0
 40
0.0
 40
0.0
 40
0.0
 40
0.1378927474
 40
0.2720408276
 40
0.4024573234
 40
0.5291682127
 40
0.6522131505
 40
0.7716484544
 40
0.8875496976
 40
1.0
 40
1.0
 40
1.0
 40
1.0
 10
15.6253712238
 20
13.22117848
 30
0.0
 10
15.6278932195
 20
13.2253291956
 30
0.0
 10
15.6329783245
 20
13.2334520113
 30
0.0
 10
15.6408412987
 20
13.2452489651
 30
0.0
 10
15.6488288613
 20
13.2564823523
 30
0.0
 10
15.6569349343
 20
13.2671434292
 30
0.0
 10
15.6651533329
 20
13.2772240984
 30
0.0
 10
15.6734780366
 20
13.2867167419
 30
0.0
 10
15.6819025047
 20
13.2956137275
 30
0.0
 10
15.6876667719
 20
13.301226887
 30
0.0
 10
15.6905641075
 20
13.3039273816
 30
0.0
  0
LINE
  5
2AD
100
AcDbEntity
  8
02___PRT_ALL_AXES
100
AcDbLine
 62
7
  6
CONTINUOUS
 10
15.7844206361
 20
13.3532529656
 11
15.6931812806
 21
13.346378258
  0
SPLINE
  5
2AE
100
AcDbEntity
  8
02___PRT_ALL_AXES
100
AcDbSpline
 62
7
  6
CONTINUOUS
 70
0
 71
3
 72
33
 73
29
 74
0
 42
0.0000001
 43
0.0000001
 44
0.0000000001
 40
0.0
 40
0.0
 40
0.0
 40
0.0
 40
0.0160810812
 40
0.0324327457
 40
0.0493093943
 40
0.0669367092
 40
0.0760960644
 40
0.0855110297
 40
0.1051713316
 40
0.1260401194
 40
0.1482009834
 40
0.1717092917
 40
0.1965962927
 40
0.2228728676
 40
0.2505326242
 40
0.2795543776
 40
0.3099042219
 40
0.3415373531
 40
0.3743994888
 40
0.4084279955
 40
0.4435528754
 40
0.5167737695
 40
0.5933950414
 40
0.6726718875
 40
0.7538086215
 40
0.83597513
 40
0.9183223663
 40
1.0
 40
1.0
 40
1.0
 40
1.0
 10
15.9189691204
 20
11.6301852937
 30
0.0
 10
15.919867575
 20
11.6301852872
 30
0.0
 10
15.9216821465
 20
11.6303151264
 30
0.0
 10
15.9243835155
 20
11.6308963895
 30
0.0
 10
15.9270644187
 20
11.6318610187
 30
0.0
 10
15.9292459313
 20
11.6329661316
 30
0.0
 10
15.930969074
 20
11.6340266815
 30
0.0
 10
15.9327272027
 20
11.6352416441
 30
0.0
 10
15.9348990464
 20
11.6370009335
 30
0.0
 10
15.9374170232
 20
11.6394411638
 30
0.0
 10
15.939877074
 20
11.6422328536
 30
0.0
 10
15.9422721668
 20
11.6453673639
 30
0.0
 10
15.944595581
 20
11.6488353391
 30
0.0
 10
15.946840566
 20
11.6526264005
 30
0.0
 10
15.9490005112
 20
11.6567292114
 30
0.0
 10
15.951068978
 20
11.6611314544
 30
0.0
 10
15.9530397623
 20
11.6658198661
 30
0.0
 10
15.9549069117
 20
11.6707802918
 30
0.0
 10
15.9566647437
 20
11.6759977181
 30
0.0
 10
15.9583079504
 20
11.6814563586
 30
0.0
 10
15.9603677507
 20
11.6891405913
 30
0.0
 10
15.9626079096
 20
11.6992348489
 30
0.0
 10
15.9647344027
 20
11.7118629936
 30
0.0
 10
15.9663089616
 20
11.7250170835
 30
0.0
 10
15.967312154
 20
11.7385373114
 30
0.0
 10
15.9677316239
 20
11.7522597789
 30
0.0
 10
15.9675621873
 20
11.7660175118
 30
0.0
 10
15.9670541638
 20
11.7751710088
 30
0.0
 10
15.9666995161
 20
11.7797205598
 30
0.0
  0
SPLINE
  5
2AF
100
AcDbEntity
  8
LAYER_FEATURE
100
AcDbSpline
 62
7
  6
CONTINUOUS
 70
0
 71
3
 72
24
 73
20
 74
0
 42
0.0000001
 43
0.0000001
 44
0.0000000001
 40
0.0
 40
0.0
 40
0.0
 40
0.0
 40
0.0836660473
 40
0.1647132339
 40
0.2430320452
 40
0.3185262446
 40
0.391116286
 40
0.4607407349
 40
0.5273589255
 40
0.5909538648
 40
0.6515357247
 40
0.7091459617
 40
0.7638621331
 40
0.815803379
 40
0.8651363847
 40
0.9120813691
 40
0.9569172183
 40
0.9786557981
 40
1.0
 40
1.0
 40
1.0
 40
1.0
 10
15.5780366656
 20
13.2244546308
 30
0.0
 10
15.5824003718
 20
13.2385755893
 30
0.0
 10
15.591370556
 20
13.2662602852
 30
0.0
 10
15.6058007718
 20
13.3067014862
 30
0.0
 10
15.6209662601
 20
13.3453269983
 30
0.0
 10
15.6368324766
 20
13.3820487898
 30
0.0
 10
15.6533634482
 20
13.4167836863
 30
0.0
 10
15.6705218592
 20
13.4494530846
 30
0.0
 10
15.6882691831
 20
13.4799832161
 30
0.0
 10
15.7065658595
 20
13.508305272
 30
0.0
 10
15.7253714976
 20
13.5343555104
 30
0.0
 10
15.7446450711
 20
13.5580752701
 30
0.0
 10
15.7643452172
 20
13.5794109326
 30
0.0
 10
15.7844301187
 20
13.5983136098
 30
0.0
 10
15.8048585462
 20
13.6147391561
 30
0.0
 10
15.8255861781
 20
13.6286464019
 30
0.0
 10
15.8432568962
 20
13.6382052021
 30
0.0
 10
15.8574608313
 20
13.644501791
 30
0.0
 10
15.8645789403
 20
13.647208512
 30
0.0
 10
15.8681395434
 20
13.6484490174
 30
0.0
  0
SPLINE
  5
2B0
100
AcDbEntity
  8
LAYER_FEATURE
100
AcDbSpline
 62
7
  6
CONTINUOUS
 70
0
 71
3
 72
99
 73
95
 74
0
 42
0.0000001
 43
0.0000001
 44
0.0000000001
 40
0.0
 40
0.0
 40
0.0
 40
0.0
 40
0.0178412139
 40
0.0361831665
 40
0.0549943443
 40
0.0742409669
 40
0.0938875265
 40
0.1138968816
 40
0.1342304733
 40
0.1548485084
 40
0.1757101329
 40
0.1967735997
 40
0.2179964322
 40
0.2393355856
 40
0.2607476033
 40
0.282188772
 40
0.3036152758
 40
0.3249833508
 40
0.3462494382
 40
0.3673703389
 40
0.3883033717
 40
0.4090065311
 40
0.4294386488
 40
0.4495595602
 40
0.4693302793
 40
0.488713178
 40
0.5076721751
 40
0.526172938
 40
0.544183104
 40
0.561672521
 40
0.5786135097
 40
0.5949811619
 40
0.6107536841
 40
0.6184112465
 40
0.6259134883
 40
0.6332587555
 40
0.6404456662
 40
0.6474731471
 40
0.6543404468
 40
0.6610471529
 40
0.667593235
 40
0.6739790525
 40
0.6802053966
 40
0.6862735244
 40
0.692185181
 40
0.6979426556
 40
0.7035488083
 40
0.7090071135
 40
0.7143217151
 40
0.7245376564
 40
0.7294532364
 40
0.7342491295
 40
0.7389333955
 40
0.7435149555
 40
0.7480035999
 40
0.7524099718
 40
0.7567455186
 40
0.7610224353
 40
0.7652535656
 40
0.7694522847
 40
0.7736323592
 40
0.7778077841
 40
0.7819926126
 40
0.7862007807
 40
0.7904459405
 40
0.7947413012
 40
0.7990994992
 40
0.803532486
 40
0.8080514413
 40
0.8126667244
 40
0.8222206228
 40
0.8271784025
 40
0.8322653204
 40
0.8374874892
 40
0.8428502428
 40
0.8483581785
 40
0.8540152114
 40
0.859824601
 40
0.8657890095
 40
0.8719105394
 40
0.8781907635
 40
0.8846307799
 40
0.8912312293
 40
0.8979923343
 40
0.9049139351
 40
0.9119954992
 40
0.9192361649
 40
0.9266347524
 40
0.9341897841
 40
0.941899515
 40
0.9497619285
 40
0.9659350319
 40
0.9826889787
 40
1.0
 40
1.0
 40
1.0
 40
1.0
 10
15.5005529752
 20
13.3823497906
 30
0.0
 10
15.4949175508
 20
13.3641135503
 30
0.0
 10
15.4840209116
 20
13.3269628025
 30
0.0
 10
15.468978678
 20
13.2700769356
 30
0.0
 10
15.4550396497
 20
13.2113642556
 30
0.0
 10
15.4422376277
 20
13.1509663146
 30
0.0
 10
15.4306034505
 20
13.089028152
 30
0.0
 10
15.4201652028
 20
13.0256987046
 30
0.0
 10
15.4109480694
 20
12.9611302573
 30
0.0
 10
15.4029743022
 20
12.8954781227
 30
0.0
 10
15.3962631584
 20
12.8289002432
 30
0.0
 10
15.3908308426
 20
12.7615568144
 30
0.0
 10
15.3866904654
 20
12.6936098924
 30
0.0
 10
15.3838520247
 20
12.625222998
 30
0.0
 10
15.3823223787
 20
12.5565607194
 30
0.0
 10
15.3821052261
 20
12.4877883138
 30
0.0
 10
15.3832010836
 20
12.4190713058
 30
0.0
 10
15.3856073038
 20
12.3505750851
 30
0.0
 10
15.3893180779
 20
12.2824645063
 30
0.0
 10
15.3943244525
 20
12.2149034881
 30
0.0
 10
15.4006143323
 20
12.1480546133
 30
0.0
 10
15.4081725272
 20
12.0820787345
 30
0.0
 10
15.4169807891
 20
12.0171345844
 30
0.0
 10
15.4270178613
 20
11.9533783886
 30
0.0
 10
15.4382595139
 20
11.8909634789
 30
0.0
 10
15.4506786129
 20
11.8300399194
 30
0.0
 10
15.4642451972
 20
11.7707541388
 30
0.0
 10
15.4789265562
 20
11.713248576
 30
0.0
 10
15.4946873118
 20
11.6576613004
 30
0.0
 10
15.5114894923
 20
11.6041257349
 30
0.0
 10
15.5292927197
 20
11.5527700751
 30
0.0
 10
15.5480541035
 20
11.5037178662
 30
0.0
 10
15.5646087548
 20
11.4644804358
 30
0.0
 10
15.5783151084
 20
11.4343580782
 30
0.0
 10
15.5887045103
 20
11.4126365974
 30
0.0
 10
15.5992982654
 20
11.391576153
 30
0.0
 10
15.6100901178
 20
11.3711893503
 30
0.0
 10
15.6210735652
 20
11.3514884367
 30
0.0
 10
15.6322420231
 20
11.3324852272
 30
0.0
 10
15.6435888417
 20
11.3141911432
 30
0.0
 10
15.6551072035
 20
11.2966171399
 30
0.0
 10
15.666790258
 20
11.2797737707
 30
0.0
 10
15.6786310481
 20
11.2636711442
 30
0.0
 10
15.6906225062
 20
11.2483188991
 30
0.0
 10
15.7027575421
 20
11.2337262894
 30
0.0
 10
15.7150289792
 20
11.2199020224
 30
0.0
 10
15.7274294172
 20
11.2068545574
 30
0.0
 10
15.7399521042
 20
11.1945912817
 30
0.0
 10
15.7565808832
 20
11.1794965871
 30
0.0
 10
15.7736408466
 20
11.1657565453
 30
0.0
 10
15.7911108764
 20
11.1535270755
 30
0.0
 10
15.8041307673
 20
11.1452892317
 30
0.0
 10
15.8172271016
 20
11.1378739628
 30
0.0
 10
15.8303924492
 20
11.1312858709
 30
0.0
 10
15.8436188784
 20
11.1255293479
 30
0.0
 10
15.8568984234
 20
11.1206081969
 30
0.0
 10
15.8702230146
 20
11.1165258664
 30
0.0
 10
15.8835844191
 20
11.1132851922
 30
0.0
 10
15.8969742947
 20
11.1108885077
 30
0.0
 10
15.9103841867
 20
11.1093376253
 30
0.0
 10
15.9238055352
 20
11.1086336355
 30
0.0
 10
15.9372297378
 20
11.1087771228
 30
0.0
 10
15.9506481677
 20
11.1097679665
 30
0.0
 10
15.9640522377
 20
11.1116053849
 30
0.0
 10
15.9774334144
 20
11.114288079
 30
0.0
 10
15.990783278
 20
11.1178140205
 30
0.0
 10
16.0040935492
 20
11.1221807281
 30
0.0
 10
16.0173559409
 20
11.1273851061
 30
0.0
 10
16.0305628237
 20
11.1334237965
 30
0.0
 10
16.0482886721
 20
11.1426875089
 30
0.0
 10
16.0656785426
 20
11.1535443007
 30
0.0
 10
16.0826733834
 20
11.1658319422
 30
0.0
 10
16.0954843087
 20
11.1759722021
 30
0.0
 10
16.1081925753
 20
11.1869154347
 30
0.0
 10
16.1207914679
 20
11.1986554226
 30
0.0
 10
16.1332733938
 20
11.2111848899
 30
0.0
 10
16.1456310187
 20
11.2244963364
 30
0.0
 10
16.1578570649
 20
11.2385817018
 30
0.0
 10
16.169944295
 20
11.2534325281
 30
0.0
 10
16.1818855237
 20
11.2690399074
 30
0.0
 10
16.193673695
 20
11.2853944488
 30
0.0
 10
16.2053017581
 20
11.3024863638
 30
0.0
 10
16.2167627982
 20
11.3203053882
 30
0.0
 10
16.2280499844
 20
11.3388408281
 30
0.0
 10
16.2391565358
 20
11.3580815794
 30
0.0
 10
16.2500758431
 20
11.3780160771
 30
0.0
 10
16.2608013412
 20
11.3986323649
 30
0.0
 10
16.2713266
 20
11.4199180692
 30
0.0
 10
16.2816453139
 20
11.4418603817
 30
0.0
 10
16.2917513091
 20
11.4644461898
 30
0.0
 10
16.305059152
 20
11.4956940991
 30
0.0
 10
16.3210968833
 20
11.5362879564
 30
0.0
 10
16.3392216805
 20
11.5868945847
 30
0.0
 10
16.3504691535
 20
11.6215658866
 30
0.0
 10
16.3559371084
 20
11.6392601952
 30
0.0
  0
SPLINE
  5
2B1
100
AcDbEntity
  8
LAYER_FEATURE
100
AcDbSpline
 62
7
  6
CONTINUOUS
 70
0
 71
3
 72
68
 73
64
 74
0
 42
0.0000001
 43
0.0000001
 44
0.0000000001
 40
0.0
 40
0.0
 40
0.0
 40
0.0
 40
0.0163580858
 40
0.0330510049
 40
0.0500641651
 40
0.0673825756
 40
0.0849903746
 40
0.1028711641
 40
0.1210079486
 40
0.1393832211
 40
0.1579789974
 40
0.176776863
 40
0.1957580148
 40
0.2149033029
 40
0.2536072195
 40
0.2927309867
 40
0.3321129044
 40
0.3715894139
 40
0.4109962794
 40
0.450169764
 40
0.4889478082
 40
0.5081391481
 40
0.5271722354
 40
0.5460278227
 40
0.5646869974
 40
0.5831312226
 40
0.6013423791
 40
0.6193028086
 40
0.6369953594
 40
0.6544034334
 40
0.6715110358
 40
0.6883028277
 40
0.7047641825
 40
0.7208812464
 40
0.7366410033
 40
0.7520313453
 40
0.767041151
 40
0.7816603709
 40
0.7958801233
 40
0.8096928013
 40
0.8230921932
 40
0.836073619
 40
0.8486340848
 40
0.8607724581
 40
0.8724896662
 40
0.8837889208
 40
0.8946759706
 40
0.9051593824
 40
0.9152508473
 40
0.9249655082
 40
0.9343222939
 40
0.9433442428
 40
0.9520587819
 40
0.9604979211
 40
0.9686983093
 40
0.9727225116
 40
0.9767028171
 40
0.9806450085
 40
0.9845550798
 40
0.9884392169
 40
0.9923037608
 40
0.9961551735
 40
1.0
 40
1.0
 40
1.0
 40
1.0
 10
15.4868486753
 20
13.4603142194
 30
0.0
 10
15.4824860046
 20
13.4461966118
 30
0.0
 10
15.4739633963
 20
13.4175813749
 30
0.0
 10
15.4618991501
 20
13.3739944303
 30
0.0
 10
15.45043614
 20
13.3293493039
 30
0.0
 10
15.4395884895
 20
13.2837010183
 30
0.0
 10
15.4293694955
 20
13.2371053245
 30
0.0
 10
15.4197917002
 20
13.1896193645
 30
0.0
 10
15.4108668629
 20
13.1413012954
 30
0.0
 10
15.40260594
 20
13.0922103322
 30
0.0
 10
15.3950190718
 20
13.0424066237
 30
0.0
 10
15.3881155877
 20
12.9919512412
 30
0.0
 10
15.3819039148
 20
12.9409059058
 30
0.0
 10
15.3745281032
 20
12.8718957533
 30
0.0
 10
15.3671040765
 20
12.7846019172
 30
0.0
 10
15.3610873653
 20
12.6788839144
 30
0.0
 10
15.3579607976
 20
12.5723425814
 30
0.0
 10
15.3577397649
 20
12.4655001489
 30
0.0
 10
15.3604253528
 20
12.3588793475
 30
0.0
 10
15.3660043469
 20
12.2530027973
 30
0.0
 10
15.3730656993
 20
12.1655249868
 30
0.0
 10
15.3801539773
 20
12.0963284379
 30
0.0
 10
15.3861537877
 20
12.0451161653
 30
0.0
 10
15.3928478198
 20
11.9944748994
 30
0.0
 10
15.400227901
 20
11.9444665896
 30
0.0
 10
15.408284956
 20
11.8951525588
 30
0.0
 10
15.4170090955
 20
11.8465932332
 30
0.0
 10
15.4263896079
 20
11.7988481186
 30
0.0
 10
15.436414978
 20
11.7519757137
 30
0.0
 10
15.4470729008
 20
11.7060334407
 30
0.0
 10
15.4583502971
 20
11.6610775733
 30
0.0
 10
15.4702333306
 20
11.6171631663
 30
0.0
 10
15.4827074261
 20
11.5743439869
 30
0.0
 10
15.4957572867
 20
11.5326724461
 30
0.0
 10
15.5093669167
 20
11.4921995337
 30
0.0
 10
15.5235196435
 20
11.4529747545
 30
0.0
 10
15.5381981407
 20
11.4150460661
 30
0.0
 10
15.5533844539
 20
11.3784598187
 30
0.0
 10
15.5690600271
 20
11.3432606964
 30
0.0
 10
15.5852057322
 20
11.3094916621
 30
0.0
 10
15.6018019001
 20
11.2771939037
 30
0.0
 10
15.6188283556
 20
11.2464067846
 30
0.0
 10
15.6362644519
 20
11.2171677964
 30
0.0
 10
15.6540891117
 20
11.1895125198
 30
0.0
 10
15.672280871
 20
11.1634745918
 30
0.0
 10
15.6908179232
 20
11.1390856822
 30
0.0
 10
15.7096781657
 20
11.1163754807
 30
0.0
 10
15.7288392432
 20
11.0953716982
 30
0.0
 10
15.7482785881
 20
11.0761000849
 30
0.0
 10
15.7679734327
 20
11.0585844699
 30
0.0
 10
15.7879008486
 20
11.042846806
 30
0.0
 10
15.808037566
 20
11.0289072687
 30
0.0
 10
15.8283603789
 20
11.016784184
 30
0.0
 10
15.8488442437
 20
11.0064945196
 30
0.0
 10
15.8661385072
 20
10.9994152281
 30
0.0
 10
15.8800027748
 20
10.9947083989
 30
0.0
 10
15.8903597683
 20
10.9916653607
 30
0.0
 10
15.9007362885
 20
10.9890887603
 30
0.0
 10
15.9111292887
 20
10.9869794391
 30
0.0
 10
15.9215354329
 20
10.9853380969
 30
0.0
 10
15.9319515353
 20
10.9841653005
 30
0.0
 10
15.9423740249
 20
10.9834614784
 30
0.0
 10
15.9493270796
 20
10.9833049909
 30
0.0
 10
15.9528001266
 20
10.9833049938
 30
0.0
  0
SPLINE
  5
2B2
100
AcDbEntity
  8
02___PRT_ALL_AXES
100
AcDbSpline
 62
7
  6
CONTINUOUS
 70
0
 71
3
 72
70
 73
66
 74
0
 42
0.0000001
 43
0.0000001
 44
0.0000000001
 40
0.0
 40
0.0
 40
0.0
 40
0.0
 40
0.0039246199
 40
0.0078451304
 40
0.0117709376
 40
0.0157114501
 40
0.0196758802
 40
0.0236732091
 40
0.0277121554
 40
0.0318011123
 40
0.0401583616
 40
0.0488061724
 40
0.057795705
 40
0.0671703264
 40
0.0769658209
 40
0.0872108693
 40
0.0979276676
 40
0.109132589
 40
0.12083683
 40
0.1330470079
 40
0.1457656945
 40
0.1589918852
 40
0.1727214033
 40
0.186947251
 40
0.201659911
 40
0.2168476062
 40
0.2324965256
 40
0.2485910208
 40
0.2651137796
 40
0.2820459794
 40
0.2993674257
 40
0.3170566769
 40
0.3350911589
 40
0.353447271
 40
0.3721004861
 40
0.3910254435
 40
0.4101960377
 40
0.4295855035
 40
0.4491664978
 40
0.4689111795
 40
0.5087768658
 40
0.5489541561
 40
0.5892101105
 40
0.6293110042
 40
0.6690246626
 40
0.6886654302
 40
0.7081242436
 40
0.7273735787
 40
0.7463864613
 40
0.7651365485
 40
0.7835982123
 40
0.8017466272
 40
0.8195578618
 40
0.8370089755
 40
0.8540781222
 40
0.8707446618
 40
0.8869892822
 40
0.9027941326
 40
0.9181429704
 40
0.9330213305
 40
0.947416702
 40
0.9613187805
 40
0.9747196064
 40
0.9876141238
 40
1.0
 40
1.0
 40
1.0
 40
1.0
 10
15.7929530992
 20
13.3541861438
 30
0.0
 10
15.795215114
 20
13.3543579522
 30
0.0
 10
15.7997467791
 20
13.3545819887
 30
0.0
 10
15.8065536859
 20
13.3545562644
 30
0.0
 10
15.813358972
 20
13.3541685074
 30
0.0
 10
15.8201593953
 20
13.3534188327
 30
0.0
 10
15.8269520425
 20
13.3523076964
 30
0.0
 10
15.833733822
 20
13.3508356061
 30
0.0
 10
15.8405018857
 20
13.3490032206
 30
0.0
 10
15.8495682441
 20
13.3460600933
 30
0.0
 10
15.8608786751
 20
13.3414534823
 30
0.0
 10
15.8742404931
 20
13.3345408222
 30
0.0
 10
15.8874708148
 20
13.3262174249
 30
0.0
 10
15.9005473157
 20
13.3164998777
 30
0.0
 10
15.9134494751
 20
13.3054061014
 30
0.0
 10
15.9261566818
 20
13.2929558447
 30
0.0
 10
15.9386485996
 20
13.279170696
 30
0.0
 10
15.950905007
 20
13.2640742304
 30
0.0
 10
15.9629058642
 20
13.2476920801
 30
0.0
 10
15.9746313584
 20
13.2300519796
 30
0.0
 10
15.9860619723
 20
13.2111837755
 30
0.0
 10
15.9971785509
 20
13.1911194117
 30
0.0
 10
16.0079623667
 20
13.1698928975
 30
0.0
 10
16.0183951762
 20
13.1475402583
 30
0.0
 10
16.0284592723
 20
13.1240994781
 30
0.0
 10
16.0381375303
 20
13.0996104353
 30
0.0
 10
16.0474134508
 20
13.0741148325
 30
0.0
 10
16.0562711967
 20
13.0476561232
 30
0.0
 10
16.0646956277
 20
13.0202794345
 30
0.0
 10
16.072672332
 20
12.9920314868
 30
0.0
 10
16.0801876546
 20
12.9629605112
 30
0.0
 10
16.0872287236
 20
12.9331161652
 30
0.0
 10
16.0937834764
 20
12.9025494451
 30
0.0
 10
16.09984068
 20
12.8713125964
 30
0.0
 10
16.1053899523
 20
12.8394590214
 30
0.0
 10
16.1104217788
 20
12.8070431894
 30
0.0
 10
16.1149275351
 20
12.77412053
 30
0.0
 10
16.118899483
 20
12.7407473828
 30
0.0
 10
16.1223308552
 20
12.7069807258
 30
0.0
 10
16.126189376
 20
12.661367229
 30
0.0
 10
16.1296142086
 20
12.6037777931
 30
0.0
 10
16.1314860061
 20
12.5342554194
 30
0.0
 10
16.1311197261
 20
12.4645723834
 30
0.0
 10
16.1285178956
 20
12.395205569
 30
0.0
 10
16.1244871587
 20
12.3378477931
 30
0.0
 10
16.1201474889
 20
12.2924970788
 30
0.0
 10
16.1163617158
 20
12.2589813115
 30
0.0
 10
16.1120397207
 20
12.2258964843
 30
0.0
 10
16.1071888683
 20
12.1932990789
 30
0.0
 10
16.1018174891
 20
12.1612448739
 30
0.0
 10
16.0959347889
 20
12.1297886749
 30
0.0
 10
16.089550853
 20
12.0989842648
 30
0.0
 10
16.0826766225
 20
12.0688842987
 30
0.0
 10
16.0753238759
 20
12.039540215
 30
0.0
 10
16.0675052071
 20
12.0110021446
 30
0.0
 10
16.0592340018
 20
11.9833188229
 30
0.0
 10
16.0505244135
 20
11.9565375027
 30
0.0
 10
16.0413913343
 20
11.9307038717
 30
0.0
 10
16.0318503645
 20
11.9058619683
 30
0.0
 10
16.0219177788
 20
11.8820541163
 30
0.0
 10
16.0116104873
 20
11.8593208081
 30
0.0
 10
16.0009460212
 20
11.8377007622
 30
0.0
 10
15.9899423553
 20
11.817230478
 30
0.0
 10
15.9786183798
 20
11.7979452575
 30
0.0
 10
15.9707085725
 20
11.7856521519
 30
0.0
 10
15.9666995161
 20
11.7797205598
 30
0.0
  0
SPLINE
  5
2B3
100
AcDbEntity
  8
LAYER_FEATURE
100
AcDbSpline
 62
7
  6
CONTINUOUS
 70
0
 71
3
 72
56
 73
52
 74
0
 42
0.0000001
 43
0.0000001
 44
0.0000000001
 40
0.0
 40
0.0
 40
0.0
 40
0.0
 40
0.0079087203
 40
0.0160273549
 40
0.0243882161
 40
0.0330198955
 40
0.0419472683
 40
0.0511916073
 40
0.0607707685
 40
0.0706994264
 40
0.0809893269
 40
0.0916495391
 40
0.1026866977
 40
0.1141052247
 40
0.1259075419
 40
0.13809426
 40
0.1506643461
 40
0.1636152715
 40
0.1769431407
 40
0.1906428139
 40
0.2047080132
 40
0.219131415
 40
0.2339047313
 40
0.2490187823
 40
0.2644635682
 40
0.2802283314
 40
0.2963016121
 40
0.3126712972
 40
0.329324667
 40
0.3462484437
 40
0.3808504988
 40
0.4163627242
 40
0.452662712
 40
0.4896226413
 40
0.5271102715
 40
0.5649899148
 40
0.6031233612
 40
0.6413707846
 40
0.6795916393
 40
0.717645547
 40
0.7553931873
 40
0.7926971937
 40
0.8294230736
 40
0.8654401376
 40
0.9006224915
 40
0.9178634062
 40
0.9348511477
 40
0.9515718278
 40
0.9680119276
 40
0.9841588923
 40
1.0
 40
1.0
 40
1.0
 40
1.0
 10
15.868139543
 20
11.3731609599
 30
0.0
 10
15.863221648
 20
11.3748743445
 30
0.0
 10
15.8533867513
 20
11.3787354151
 30
0.0
 10
15.8388958111
 20
11.385687291
 30
0.0
 10
15.8245062678
 20
11.3938592238
 30
0.0
 10
15.8102344568
 20
11.4032408732
 30
0.0
 10
15.7960948801
 20
11.4138213711
 30
0.0
 10
15.7821022695
 20
11.4255886605
 30
0.0
 10
15.7682710698
 20
11.4385296391
 30
0.0
 10
15.754615636
 20
11.4526300964
 30
0.0
 10
15.7411501957
 20
11.4678747018
 30
0.0
 10
15.7278888552
 20
11.4842469788
 30
0.0
 10
15.7148455816
 20
11.5017292886
 30
0.0
 10
15.7020341677
 20
11.5203028142
 30
0.0
 10
15.6894682232
 20
11.5399475782
 30
0.0
 10
15.6771611479
 20
11.5606424532
 30
0.0
 10
15.665126109
 20
11.5823651769
 30
0.0
 10
15.6533760185
 20
11.6050923663
 30
0.0
 10
15.6419234997
 20
11.6287995332
 30
0.0
 10
15.6307808824
 20
11.6534611195
 30
0.0
 10
15.6199601811
 20
11.6790505256
 30
0.0
 10
15.6094730798
 20
11.7055401389
 30
0.0
 10
15.5993309132
 20
11.7329013592
 30
0.0
 10
15.589544643
 20
11.7611046264
 30
0.0
 10
15.5801248567
 20
11.7901194616
 30
0.0
 10
15.5710817526
 20
11.8199144998
 30
0.0
 10
15.5624251237
 20
11.8504575322
 30
0.0
 10
15.5541643652
 20
11.8817155048
 30
0.0
 10
15.5463083653
 20
11.9136546792
 30
0.0
 10
15.5363113439
 20
11.9574246218
 30
0.0
 10
15.5249106728
 20
12.0136035952
 30
0.0
 10
15.5130685998
 20
12.0826786151
 30
0.0
 10
15.5030177035
 20
12.1536051857
 30
0.0
 10
15.4948017361
 20
12.226076297
 30
0.0
 10
15.4884564141
 20
12.299778841
 30
0.0
 10
15.4840093456
 20
12.3743940957
 30
0.0
 10
15.4814798961
 20
12.4495993819
 30
0.0
 10
15.4808790447
 20
12.5250694121
 30
0.0
 10
15.4822094356
 20
12.6004777417
 30
0.0
 10
15.4854652577
 20
12.6754981929
 30
0.0
 10
15.4906323509
 20
12.7498063042
 30
0.0
 10
15.4976882438
 20
12.8230806944
 30
0.0
 10
15.5066022178
 20
12.8950047116
 30
0.0
 10
15.5173355244
 20
12.9652669827
 30
0.0
 10
15.5278265064
 20
13.0225613823
 30
0.0
 10
15.537111627
 20
13.0673164797
 30
0.0
 10
15.5444521123
 20
13.1000548384
 30
0.0
 10
15.5522078869
 20
13.1321550466
 30
0.0
 10
15.5603706072
 20
13.1635826398
 30
0.0
 10
15.5689313812
 20
13.1943032656
 30
0.0
 10
15.5749568746
 20
13.2144884235
 30
0.0
 10
15.5780366656
 20
13.2244546308
 30
0.0
  0
SPLINE
  5
2B4
100
AcDbEntity
  8
LAYER_CHAMFER_FEAT
100
AcDbSpline
 62
7
  6
CONTINUOUS
 70
0
 71
3
 72
40
 73
36
 74
0
 42
0.0000001
 43
0.0000001
 44
0.0000000001
 40
0.0
 40
0.0
 40
0.0
 40
0.0
 40
0.043950306
 40
0.0865555686
 40
0.1278039655
 40
0.1676916609
 40
0.2062199325
 40
0.2433975268
 40
0.2792409185
 40
0.3137752502
 40
0.3470352699
 40
0.3790663195
 40
0.409925385
 40
0.4396821291
 40
0.4684198019
 40
0.496235931
 40
0.5232426478
 40
0.549566466
 40
0.5753473443
 40
0.6007368908
 40
0.6258956919
 40
0.6509898763
 40
0.6761871613
 40
0.70165274
 40
0.7275454117
 40
0.7540143068
 40
0.7811964197
 40
0.8092150211
 40
0.823574637
 40
0.8381829114
 40
0.8681862304
 40
0.8993090503
 40
0.9316180333
 40
0.9651674098
 40
1.0
 40
1.0
 40
1.0
 40
1.0
 10
16.2084366991
 20
13.3618896802
 30
0.0
 10
16.2046711952
 20
13.3695629703
 30
0.0
 10
16.1970459638
 20
13.3845732082
 30
0.0
 10
16.1851310057
 20
13.4063906886
 30
0.0
 10
16.1729289364
 20
13.4271379649
 30
0.0
 10
16.1604544254
 20
13.4467900694
 30
0.0
 10
16.1477220148
 20
13.4653237982
 30
0.0
 10
16.1347466731
 20
13.4827170915
 30
0.0
 10
16.1215435198
 20
13.4989492997
 30
0.0
 10
16.1081278683
 20
13.5140011034
 30
0.0
 10
16.0945151823
 20
13.527854517
 30
0.0
 10
16.0807210574
 20
13.5404928646
 30
0.0
 10
16.0667612161
 20
13.5519007457
 30
0.0
 10
16.0526515371
 20
13.5620640137
 30
0.0
 10
16.0384080938
 20
13.5709697251
 30
0.0
 10
16.0240472376
 20
13.5786061063
 30
0.0
 10
16.0095857206
 20
13.5849625686
 30
0.0
 10
15.9950408311
 20
13.5900297817
 30
0.0
 10
15.9804305246
 20
13.5937998588
 30
0.0
 10
15.9657734693
 20
13.5962665881
 30
0.0
 10
15.951088982
 20
13.5974257005
 30
0.0
 10
15.9363968272
 20
13.5972751229
 30
0.0
 10
15.9217169087
 20
13.5958151155
 30
0.0
 10
15.9070689095
 20
13.593048271
 30
0.0
 10
15.8924720331
 20
13.588979358
 30
0.0
 10
15.8779446899
 20
13.5836149529
 30
0.0
 10
15.8635050283
 20
13.5769635009
 30
0.0
 10
15.8516564388
 20
13.5704097569
 30
0.0
 10
15.8422449217
 20
13.5645542509
 30
0.0
 10
15.8327129165
 20
13.5581734215
 30
0.0
 10
15.8208785416
 20
13.5493875196
 30
0.0
 10
15.8069556835
 20
13.5376956559
 30
0.0
 10
15.793201753
 20
13.5247764418
 30
0.0
 10
15.7796332096
 20
13.5106462498
 30
0.0
 10
15.7708874599
 20
13.5006203568
 30
0.0
 10
15.7665465482
 20
13.4954197349
 30
0.0
  0
SPLINE
  5
2B5
100
AcDbEntity
  8
LAYER_CHAMFER_FEAT
100
AcDbSpline
 62
7
  6
CONTINUOUS
 70
0
 71
3
 72
27
 73
23
 74
0
 42
0.0000001
 43
0.0000001
 44
0.0000000001
 40
0.0
 40
0.0
 40
0.0
 40
0.0
 40
0.0835111206
 40
0.1639083481
 40
0.2411670914
 40
0.3152835272
 40
0.3862766056
 40
0.4541914541
 40
0.5191027288
 40
0.5811185578
 40
0.6403847105
 40
0.6970888413
 40
0.751464346
 40
0.8037931679
 40
0.8292988679
 40
0.8544212625
 40
0.8792091176
 40
0.9037137705
 40
0.9279888845
 40
0.9520900431
 40
0.9760743651
 40
1.0
 40
1.0
 40
1.0
 40
1.0
 10
16.1717981886
 20
13.3372148826
 30
0.0
 10
16.1673826609
 20
13.3462127819
 30
0.0
 10
16.1584206216
 20
13.3637302733
 30
0.0
 10
16.1443001208
 20
13.3890046068
 30
0.0
 10
16.1297789013
 20
13.4127399496
 30
0.0
 10
16.1148821117
 20
13.4348946758
 30
0.0
 10
16.0996350975
 20
13.4554304269
 30
0.0
 10
16.0840636545
 20
13.4743114939
 30
0.0
 10
16.0681938459
 20
13.4915049579
 30
0.0
 10
16.0520519183
 20
13.5069805967
 30
0.0
 10
16.0356644281
 20
13.5207107199
 30
0.0
 10
16.0190577157
 20
13.5326702
 30
0.0
 10
16.0022601185
 20
13.5428356137
 30
0.0
 10
15.9880027544
 20
13.5498545872
 30
0.0
 10
15.9765559605
 20
13.5545193487
 30
0.0
 10
15.9680158602
 20
13.557529489
 30
0.0
 10
15.9594524178
 20
13.5600790456
 30
0.0
 10
15.9508692759
 20
13.5621668047
 30
0.0
 10
15.942270391
 20
13.5637917529
 30
0.0
 10
15.9336595575
 20
13.5649529982
 30
0.0
 10
15.9250410568
 20
13.5656500208
 30
0.0
 10
15.91928975
 20
13.565804982
 30
0.0
 10
15.9164182174
 20
13.565804984
 30
0.0
  0
SPLINE
  5
2B6
100
AcDbEntity
  8
02___PRT_ALL_AXES
100
AcDbSpline
 62
7
  6
CONTINUOUS
 70
0
 71
3
 72
56
 73
52
 74
0
 42
0.0000001
 43
0.0000001
 44
0.0000000001
 40
0.0
 40
0.0
 40
0.0
 40
0.0
 40
0.0079087203
 40
0.0160273549
 40
0.0243882161
 40
0.0330198955
 40
0.0419472683
 40
0.0511916073
 40
0.0607707685
 40
0.0706994264
 40
0.0809893269
 40
0.0916495391
 40
0.1026866977
 40
0.1141052247
 40
0.1259075419
 40
0.13809426
 40
0.1506643461
 40
0.1636152715
 40
0.1769431407
 40
0.1906428139
 40
0.2047080132
 40
0.219131415
 40
0.2339047313
 40
0.2490187823
 40
0.2644635682
 40
0.2802283314
 40
0.2963016121
 40
0.3126712972
 40
0.329324667
 40
0.3462484437
 40
0.3808504988
 40
0.4163627242
 40
0.452662712
 40
0.4896226413
 40
0.5271102715
 40
0.5649899148
 40
0.6031233612
 40
0.6413707846
 40
0.6795916393
 40
0.717645547
 40
0.7553931873
 40
0.7926971937
 40
0.8294230736
 40
0.8654401376
 40
0.9006224915
 40
0.9178634062
 40
0.9348511477
 40
0.9515718278
 40
0.9680119276
 40
0.9841588923
 40
1.0
 40
1.0
 40
1.0
 40
1.0
 10
15.8850155042
 20
11.3672814175
 30
0.0
 10
15.8800721927
 20
11.3690036572
 30
0.0
 10
15.8701864674
 20
11.3728846825
 30
0.0
 10
15.8556206355
 20
11.379872487
 30
0.0
 10
15.8411567246
 20
11.3880866536
 30
0.0
 10
15.8268111544
 20
11.3975167891
 30
0.0
 10
15.8125985019
 20
11.4081519689
 30
0.0
 10
15.798533575
 20
11.4199800736
 30
0.0
 10
15.7846308933
 20
11.4329879335
 30
0.0
 10
15.7709048858
 20
11.4471612643
 30
0.0
 10
15.7573698538
 20
11.4624846566
 30
0.0
 10
15.7440399764
 20
11.4789415483
 30
0.0
 10
15.7309292929
 20
11.4965142097
 30
0.0
 10
15.7180516674
 20
11.5151837266
 30
0.0
 10
15.7054207799
 20
11.5349300181
 30
0.0
 10
15.6930500995
 20
11.5557318478
 30
0.0
 10
15.6809528614
 20
11.5775668384
 30
0.0
 10
15.6691420444
 20
11.6004114858
 30
0.0
 10
15.657630337
 20
11.6242411755
 30
0.0
 10
15.6464301327
 20
11.6490302171
 30
0.0
 10
15.6355535082
 20
11.6747518737
 30
0.0
 10
15.6250122076
 20
11.70137839
 30
0.0
 10
15.6148176246
 20
11.7288810178
 30
0.0
 10
15.6049807772
 20
11.7572300444
 30
0.0
 10
15.5955123078
 20
11.7863948333
 30
0.0
 10
15.5864224674
 20
11.8163438575
 30
0.0
 10
15.5777210996
 20
11.8470447416
 30
0.0
 10
15.569417648
 20
11.8784642609
 30
0.0
 10
15.5615210469
 20
11.9105685025
 30
0.0
 10
15.5514723592
 20
11.9545646557
 30
0.0
 10
15.5400127674
 20
12.0110339719
 30
0.0
 10
15.5281094925
 20
12.0804659834
 30
0.0
 10
15.5180066514
 20
12.151759115
 30
0.0
 10
15.5097482225
 20
12.2246047695
 30
0.0
 10
15.5033701068
 20
12.2986882211
 30
0.0
 10
15.498900055
 20
12.3736891004
 30
0.0
 10
15.4963575329
 20
12.4492830607
 30
0.0
 10
15.4957535762
 20
12.5251431331
 30
0.0
 10
15.4970908429
 20
12.6009411861
 30
0.0
 10
15.5003634916
 20
12.676349356
 30
0.0
 10
15.5055572892
 20
12.7510415046
 30
0.0
 10
15.5126496482
 20
12.8246945896
 30
0.0
 10
15.5216096912
 20
12.8969903226
 30
0.0
 10
15.5323984693
 20
12.9676157213
 30
0.0
 10
15.5429436706
 20
13.0252062284
 30
0.0
 10
15.5522767783
 20
13.0701926279
 30
0.0
 10
15.5596552005
 20
13.1031001842
 30
0.0
 10
15.5674510583
 20
13.1353662918
 30
0.0
 10
15.575655965
 20
13.1669563082
 30
0.0
 10
15.5842609825
 20
13.1978357037
 30
0.0
 10
15.5903176167
 20
13.2181251819
 30
0.0
 10
15.5934133246
 20
13.2281428963
 30
0.0
  0
SPLINE
  5
2B7
100
AcDbEntity
  8
LAYER_FEATURE
100
AcDbSpline
 62
7
  6
CONTINUOUS
 70
0
 71
3
 72
11
 73
7
 74
0
 42
0.0000001
 43
0.0000001
 44
0.0000000001
 40
0.0
 40
0.0
 40
0.0
 40
0.0
 40
0.2201566677
 40
0.4597579353
 40
0.7196339291
 40
1.0
 40
1.0
 40
1.0
 40
1.0
 10
14.6327447083
 20
13.0190045799
 30
0.0
 10
14.6336720253
 20
13.0198264139
 30
0.0
 10
14.6354972749
 20
13.0216703732
 30
0.0
 10
14.6380307305
 20
13.0248378649
 30
0.0
 10
14.6404583846
 20
13.0285004141
 30
0.0
 10
14.6419414205
 20
13.0311581511
 30
0.0
 10
14.6426660649
 20
13.0325598743
 30
0.0
  0
SPLINE
  5
2B8
100
AcDbEntity
  8
LAYER_FEATURE
100
AcDbSpline
 62
7
  6
CONTINUOUS
 70
0
 71
3
 72
20
 73
16
 74
0
 42
0.0000001
 43
0.0000001
 44
0.0000000001
 40
0.0
 40
0.0
 40
0.0
 40
0.0
 40
0.0389948172
 40
0.078995095
 40
0.1209288761
 40
0.1655636216
 40
0.2134911405
 40
0.2651334553
 40
0.320767069
 40
0.3805442613
 40
0.4445162899
 40
0.5126544659
 40
0.6609418248
 40
0.8240642718
 40
1.0
 40
1.0
 40
1.0
 40
1.0
 10
14.5960015651
 20
13.0190520045
 30
0.0
 10
14.5958242915
 20
13.0190520154
 30
0.0
 10
14.595464401
 20
13.0190197599
 30
0.0
 10
14.594931264
 20
13.0188758498
 30
0.0
 10
14.5944049094
 20
13.0186378753
 30
0.0
 10
14.59388795
 20
13.0183079935
 30
0.0
 10
14.5933824404
 20
13.0178882901
 30
0.0
 10
14.5928902817
 20
13.0173810969
 30
0.0
 10
14.5924134362
 20
13.0167888331
 30
0.0
 10
14.5919538948
 20
13.0161142523
 30
0.0
 10
14.5915136056
 20
13.0153604637
 30
0.0
 10
14.5909387253
 20
13.0142220224
 30
0.0
 10
14.5902894917
 20
13.0126200442
 30
0.0
 10
14.5896368292
 20
13.0105007108
 30
0.0
 10
14.5892917699
 20
13.0089969608
 30
0.0
 10
14.5891372619
 20
13.0082122087
 30
0.0
  0
SPLINE
  5
2B9
100
AcDbEntity
  8
LAYER_FEATURE
100
AcDbSpline
 62
7
  6
CONTINUOUS
 70
0
 71
3
 72
17
 73
13
 74
0
 42
0.0000001
 43
0.0000001
 44
0.0000000001
 40
0.0
 40
0.0
 40
0.0
 40
0.0
 40
0.0426455307
 40
0.0860340479
 40
0.130862184
 40
0.1777466722
 40
0.2795083499
 40
0.3943797033
 40
0.5238234907
 40
0.668238905
 40
0.8272721358
 40
1.0
 40
1.0
 40
1.0
 40
1.0
 10
14.6440058184
 20
13.2542912478
 30
0.0
 10
14.6438612967
 20
13.254291246
 30
0.0
 10
14.643569308
 20
13.2542699981
 30
0.0
 10
14.6431347726
 20
13.2541747681
 30
0.0
 10
14.6427036241
 20
13.2540167936
 30
0.0
 10
14.6421196639
 20
13.2537154432
 30
0.0
 10
14.6414032816
 20
13.253170773
 30
0.0
 10
14.6406067046
 20
13.2523040388
 30
0.0
 10
14.6398552782
 20
13.2512178914
 30
0.0
 10
14.6391568325
 20
13.2499251237
 30
0.0
 10
14.6385190391
 20
13.2484409075
 30
0.0
 10
14.6381534704
 20
13.2473765828
 30
0.0
 10
14.6379806448
 20
13.2468173191
 30
0.0
  0
SPLINE
  5
2BA
100
AcDbEntity
  8
LAYER_CHAMFER_FEAT
100
AcDbSpline
 62
7
  6
CONTINUOUS
 70
0
 71
3
 72
79
 73
75
 74
0
 42
0.0000001
 43
0.0000001
 44
0.0000000001
 40
0.0
 40
0.0
 40
0.0
 40
0.0
 40
0.0113884778
 40
0.0222283806
 40
0.0325469701
 40
0.0423804747
 40
0.0517750316
 40
0.0607873878
 40
0.0651724048
 40
0.0694881113
 40
0.0737445445
 40
0.0779522946
 40
0.0821224205
 40
0.0862663643
 40
0.0903958376
 40
0.0945227066
 40
0.098658865
 40
0.1028161065
 40
0.1070060067
 40
0.1112398024
 40
0.1155283018
 40
0.1198817896
 40
0.1243099724
 40
0.1288219197
 40
0.1381276227
 40
0.1478607806
 40
0.1580698048
 40
0.1687930163
 40
0.1800595531
 40
0.1918903764
 40
0.2042992582
 40
0.2172936863
 40
0.2308756647
 40
0.2450424025
 40
0.2597869028
 40
0.2750984618
 40
0.2909630931
 40
0.307363889
 40
0.3242813326
 40
0.3416935665
 40
0.3595766305
 40
0.3779046714
 40
0.3966501319
 40
0.4157839227
 40
0.4352755806
 40
0.455093416
 40
0.4752046519
 40
0.4955755556
 40
0.5161715651
 40
0.5369574118
 40
0.5578972389
 40
0.5789547176
 40
0.600093162
 40
0.6212756413
 40
0.6424650923
 40
0.6636244311
 40
0.684716664
 40
0.7057049997
 40
0.7265529619
 40
0.7472245028
 40
0.7676841189
 40
0.7878969684
 40
0.8078289924
 40
0.8274470395
 40
0.8467189953
 40
0.865613919
 40
0.8841021869
 40
0.9021556467
 40
0.9197477829
 40
0.9368539022
 40
0.9534513248
 40
0.9695196413
 40
0.9850408855
 40
1.0
 40
1.0
 40
1.0
 40
1.0
 10
15.7665465487
 20
11.5261902538
 30
0.0
 10
15.7722117447
 20
11.5194030682
 30
0.0
 10
15.7836490087
 20
11.5064653268
 30
0.0
 10
15.8015766143
 20
11.4886353242
 30
0.0
 10
15.8198111042
 20
11.4729060239
 30
0.0
 10
15.8383178328
 20
11.4593120548
 30
0.0
 10
15.8570603549
 20
11.4478846708
 30
0.0
 10
15.8729934783
 20
11.4401195368
 30
0.0
 10
15.8857854994
 20
11.4350609499
 30
0.0
 10
15.8953252328
 20
11.4318565896
 30
0.0
 10
15.9048917759
 20
11.4292098764
 30
0.0
 10
15.9144802657
 20
11.4271221966
 30
0.0
 10
15.9240855383
 20
11.4255949285
 30
0.0
 10
15.9337024171
 20
11.424628916
 30
0.0
 10
15.9433256896
 20
11.4242248643
 30
0.0
 10
15.95295011
 20
11.4243829186
 30
0.0
 10
15.9625704292
 20
11.4251030915
 30
0.0
 10
15.9721814245
 20
11.4263848207
 30
0.0
 10
15.9817778846
 20
11.4282274182
 30
0.0
 10
15.9913546774
 20
11.4306296568
 30
0.0
 10
16.0009067035
 20
11.4335901855
 30
0.0
 10
16.0104289121
 20
11.437107154
 30
0.0
 10
16.0199165078
 20
11.4411787003
 30
0.0
 10
16.0326433413
 20
11.4474069058
 30
0.0
 10
16.0484642291
 20
11.4566258442
 30
0.0
 10
16.0670246779
 20
11.4697479241
 30
0.0
 10
16.0853218693
 20
11.4850128134
 30
0.0
 10
16.1033198001
 20
11.5023865982
 30
0.0
 10
16.120984685
 20
11.5218329566
 30
0.0
 10
16.1382823739
 20
11.5433117586
 30
0.0
 10
16.1551791181
 20
11.5667791658
 30
0.0
 10
16.1716414891
 20
11.5921874217
 30
0.0
 10
16.1876365884
 20
11.6194848441
 30
0.0
 10
16.2031321804
 20
11.6486158461
 30
0.0
 10
16.2180968353
 20
11.6795210114
 30
0.0
 10
16.2325000509
 20
11.7121371976
 30
0.0
 10
16.2463123612
 20
11.7463976615
 30
0.0
 10
16.2595054309
 20
11.7822321984
 30
0.0
 10
16.2720521398
 20
11.8195672926
 30
0.0
 10
16.283926657
 20
11.8583262757
 30
0.0
 10
16.2951045083
 20
11.8984294924
 30
0.0
 10
16.3055626358
 20
11.9397944718
 30
0.0
 10
16.3152794531
 20
11.9823361038
 30
0.0
 10
16.3242348947
 20
12.0259668203
 30
0.0
 10
16.3324104611
 20
12.0705967805
 30
0.0
 10
16.3397892598
 20
12.1161340606
 30
0.0
 10
16.3463560417
 20
12.1624848472
 30
0.0
 10
16.352097234
 20
12.2095536333
 30
0.0
 10
16.3570009691
 20
12.2572434186
 30
0.0
 10
16.3610571099
 20
12.3054559118
 30
0.0
 10
16.3642572711
 20
12.354091735
 30
0.0
 10
16.3665948365
 20
12.4030506311
 30
0.0
 10
16.3680649733
 20
12.4522316715
 30
0.0
 10
16.3686646419
 20
12.5015334668
 30
0.0
 10
16.3683926024
 20
12.5508543764
 30
0.0
 10
16.3672494173
 20
12.6000927201
 30
0.0
 10
16.3652374498
 20
12.6491469892
 30
0.0
 10
16.3623608598
 20
12.6979160572
 30
0.0
 10
16.3586255945
 20
12.7462993899
 30
0.0
 10
16.354039376
 20
12.7941972546
 30
0.0
 10
16.3486116855
 20
12.8415109273
 30
0.0
 10
16.3423537429
 20
12.8881428985
 30
0.0
 10
16.335278483
 20
12.9339970765
 30
0.0
 10
16.3274005286
 20
12.9789789878
 30
0.0
 10
16.3187361586
 20
13.0229959757
 30
0.0
 10
16.3093032731
 20
13.065957394
 30
0.0
 10
16.299121354
 20
13.1077747982
 30
0.0
 10
16.288211421
 20
13.1483621337
 30
0.0
 10
16.2765959875
 20
13.187635914
 30
0.0
 10
16.264298994
 20
13.2255154146
 30
0.0
 10
16.2513457945
 20
13.2619227881
 30
0.0
 10
16.2377629485
 20
13.2967834594
 30
0.0
 10
16.2235786401
 20
13.3300253844
 30
0.0
 10
16.2135525918
 20
13.351464587
 30
0.0
 10
16.2084366991
 20
13.3618896802
 30
0.0
  0
SPLINE
  5
2BB
100
AcDbEntity
  8
LAYER_CHAMFER_FEAT
100
AcDbSpline
 62
7
  6
CONTINUOUS
 70
0
 71
3
 72
67
 73
63
 74
0
 42
0.0000001
 43
0.0000001
 44
0.0000000001
 40
0.0
 40
0.0
 40
0.0
 40
0.0
 40
0.0038601975
 40
0.0077284268
 40
0.0116126567
 40
0.0155207369
 40
0.019460336
 40
0.0234388977
 40
0.0315392189
 40
0.039877369
 40
0.0485010466
 40
0.0574517756
 40
0.0667648681
 40
0.0764696509
 40
0.0865898538
 40
0.0971440812
 40
0.1081463069
 40
0.119606356
 40
0.1315303531
 40
0.1439211266
 40
0.1567785674
 40
0.1700999426
 40
0.1838801689
 40
0.1981120519
 40
0.2127864927
 40
0.2278926695
 40
0.243418196
 40
0.2593492617
 40
0.2756707573
 40
0.2923663862
 40
0.3094187664
 40
0.3268095222
 40
0.3445193707
 40
0.362528201
 40
0.3808151489
 40
0.3993586671
 40
0.4181365925
 40
0.4371262099
 40
0.4563043146
 40
0.4951298845
 40
0.5344213457
 40
0.5739813672
 40
0.6136102718
 40
0.6531077839
 40
0.6922747696
 40
0.7309149928
 40
0.7499781048
 40
0.7688381809
 40
0.7874723149
 40
0.8058581289
 40
0.8239738367
 40
0.8417983094
 40
0.8593111446
 40
0.8764927398
 40
0.8933243698
 40
0.909788269
 40
0.9258677239
 40
0.9415471598
 40
0.9568122861
 40
0.9716501077
 40
0.9860493296
 40
1.0
 40
1.0
 40
1.0
 40
1.0
 10
15.9164182174
 20
11.4558050018
 30
0.0
 10
15.9190623361
 20
11.4558049999
 30
0.0
 10
15.9243570117
 20
11.4559363427
 30
0.0
 10
15.932292437
 20
11.4565271852
 30
0.0
 10
15.940221928
 20
11.4575115787
 30
0.0
 10
15.9481421111
 20
11.4588891749
 30
0.0
 10
15.9560501951
 20
11.4606593964
 30
0.0
 10
15.9666358283
 20
11.4635589669
 30
0.0
 10
15.9798537087
 20
11.4681907415
 30
0.0
 10
15.9955132938
 20
11.4752734988
 30
0.0
 10
16.0110460828
 20
11.4839013179
 30
0.0
 10
16.0264287517
 20
11.4940588628
 30
0.0
 10
16.041639948
 20
11.5057293894
 30
0.0
 10
16.0566583296
 20
11.5188944224
 30
0.0
 10
16.0714629055
 20
11.533533766
 30
0.0
 10
16.0860328281
 20
11.5496253835
 30
0.0
 10
16.1003474224
 20
11.5671453236
 30
0.0
 10
16.1143862012
 20
11.5860676607
 30
0.0
 10
16.1281289149
 20
11.6063644674
 30
0.0
 10
16.1415556053
 20
11.628005808
 30
0.0
 10
16.1546466612
 20
11.6509597533
 30
0.0
 10
16.1673828734
 20
11.6751924076
 30
0.0
 10
16.1797454846
 20
11.7006679499
 30
0.0
 10
16.1917162334
 20
11.7273486831
 30
0.0
 10
16.2032773964
 20
11.7551950883
 30
0.0
 10
16.2144118255
 20
11.7841658844
 30
0.0
 10
16.2251029821
 20
11.8142180911
 30
0.0
 10
16.2353349687
 20
11.8453070944
 30
0.0
 10
16.2450925573
 20
11.8773867158
 30
0.0
 10
16.2543612163
 20
11.910409283
 30
0.0
 10
16.2631271348
 20
11.9443257027
 30
0.0
 10
16.2713772471
 20
11.9790855351
 30
0.0
 10
16.2790992526
 20
12.0146370718
 30
0.0
 10
16.2862816353
 20
12.0509274151
 30
0.0
 10
16.2929136811
 20
12.0879025554
 30
0.0
 10
16.2989854994
 20
12.1255074651
 30
0.0
 10
16.3044880178
 20
12.1636861351
 30
0.0
 10
16.3094130752
 20
12.2023818353
 30
0.0
 10
16.3152233949
 20
12.2548007769
 30
0.0
 10
16.3209794997
 20
12.3212079653
 30
0.0
 10
16.3254609584
 20
12.4017006952
 30
0.0
 10
16.3275174199
 20
12.4828425044
 30
0.0
 10
16.3271365894
 20
12.5641503934
 30
0.0
 10
16.3243207478
 20
12.6451413044
 30
0.0
 10
16.3190867385
 20
12.7253331377
 30
0.0
 10
16.3127078856
 20
12.7913912565
 30
0.0
 10
16.3064048006
 20
12.8434566784
 30
0.0
 10
16.3011180937
 20
12.8818361808
 30
0.0
 10
16.2952589566
 20
12.9196630521
 30
0.0
 10
16.2888360792
 20
12.9568810892
 30
0.0
 10
16.2818590572
 20
12.993434863
 30
0.0
 10
16.2743382945
 20
13.0292699777
 30
0.0
 10
16.2662850085
 20
13.0643331068
 30
0.0
 10
16.2577112081
 20
13.0985720874
 30
0.0
 10
16.2486296752
 20
13.1319359948
 30
0.0
 10
16.2390539442
 20
13.164375224
 30
0.0
 10
16.2289982776
 20
13.1958415539
 30
0.0
 10
16.2184776449
 20
13.2262882575
 30
0.0
 10
16.2075077032
 20
13.2556700628
 30
0.0
 10
16.1961047106
 20
13.2839435397
 30
0.0
 10
16.1842857504
 20
13.3110663146
 30
0.0
 10
16.1760079213
 20
13.3286363491
 30
0.0
 10
16.1717981886
 20
13.3372148826
 30
0.0
  0
SPLINE
  5
2BC
100
AcDbEntity
  8
LAYER_FEATURE
100
AcDbSpline
 62
7
  6
CONTINUOUS
 70
0
 71
3
 72
99
 73
95
 74
0
 42
0.0000001
 43
0.0000001
 44
0.0000000001
 40
0.0
 40
0.0
 40
0.0
 40
0.0
 40
0.0173110213
 40
0.0340649681
 40
0.0502380715
 40
0.058100485
 40
0.0658102159
 40
0.0733652476
 40
0.0807638351
 40
0.0880045008
 40
0.0950860649
 40
0.1020076657
 40
0.1087687707
 40
0.1153692201
 40
0.1218092365
 40
0.1280894606
 40
0.1342109905
 40
0.140175399
 40
0.1459847886
 40
0.1516418215
 40
0.1571497572
 40
0.1625125108
 40
0.1677346796
 40
0.1728215975
 40
0.1777793772
 40
0.1873332756
 40
0.1919485587
 40
0.196467514
 40
0.2009005008
 40
0.2052586988
 40
0.2095540595
 40
0.2137992193
 40
0.2180073874
 40
0.2221922159
 40
0.2263676408
 40
0.2305477153
 40
0.2347464344
 40
0.2389775647
 40
0.2432544814
 40
0.2475900282
 40
0.2519964001
 40
0.2564850445
 40
0.2610666045
 40
0.2657508705
 40
0.2705467636
 40
0.2754623436
 40
0.2856782849
 40
0.2909928865
 40
0.2964511917
 40
0.3020573444
 40
0.307814819
 40
0.3137264756
 40
0.3197946034
 40
0.3260209475
 40
0.332406765
 40
0.3389528471
 40
0.3456595532
 40
0.3525268529
 40
0.3595543338
 40
0.3667412445
 40
0.3740865117
 40
0.3815887535
 40
0.3892463159
 40
0.4050188381
 40
0.4213864903
 40
0.438327479
 40
0.455816896
 40
0.473827062
 40
0.4923278249
 40
0.511286822
 40
0.5306697207
 40
0.5504404398
 40
0.5705613512
 40
0.5909934689
 40
0.6116966283
 40
0.6326296611
 40
0.6537505618
 40
0.6750166492
 40
0.6963847242
 40
0.717811228
 40
0.7392523967
 40
0.7606644144
 40
0.7820035678
 40
0.8032264003
 40
0.8242898671
 40
0.8451514916
 40
0.8657695267
 40
0.8861031184
 40
0.9061124735
 40
0.9257590331
 40
0.9450056557
 40
0.9638168335
 40
0.9821587861
 40
1.0
 40
1.0
 40
1.0
 40
1.0
 10
15.5005529752
 20
13.3823497906
 30
0.0
 10
15.5060209301
 20
13.4000440992
 30
0.0
 10
15.5172684031
 20
13.4347154011
 30
0.0
 10
15.5353932003
 20
13.4853220294
 30
0.0
 10
15.5514309316
 20
13.5259158867
 30
0.0
 10
15.5647387745
 20
13.557163796
 30
0.0
 10
15.5748447698
 20
13.5797496041
 30
0.0
 10
15.5851634837
 20
13.6016919166
 30
0.0
 10
15.5956887424
 20
13.6229776209
 30
0.0
 10
15.6064142405
 20
13.6435939087
 30
0.0
 10
15.6173335479
 20
13.6635284065
 30
0.0
 10
15.6284400993
 20
13.6827691578
 30
0.0
 10
15.6397272854
 20
13.7013045976
 30
0.0
 10
15.6511883256
 20
13.719123622
 30
0.0
 10
15.6628163886
 20
13.736215537
 30
0.0
 10
15.6746045599
 20
13.7525700784
 30
0.0
 10
15.6865457886
 20
13.7681774577
 30
0.0
 10
15.6986330188
 20
13.783028284
 30
0.0
 10
15.710859065
 20
13.7971136494
 30
0.0
 10
15.7232166899
 20
13.8104250959
 30
0.0
 10
15.7356986157
 20
13.8229545632
 30
0.0
 10
15.7482975083
 20
13.8346945511
 30
0.0
 10
15.761005775
 20
13.8456377838
 30
0.0
 10
15.7738167002
 20
13.8557780436
 30
0.0
 10
15.7908115411
 20
13.8680656852
 30
0.0
 10
15.8082014115
 20
13.8789224769
 30
0.0
 10
15.8259272599
 20
13.8881861893
 30
0.0
 10
15.8391341428
 20
13.8942248797
 30
0.0
 10
15.8523965344
 20
13.8994292577
 30
0.0
 10
15.8657068056
 20
13.9037959653
 30
0.0
 10
15.8790566692
 20
13.9073219068
 30
0.0
 10
15.8924378459
 20
13.9100046009
 30
0.0
 10
15.905841916
 20
13.9118420193
 30
0.0
 10
15.9192603458
 20
13.912832863
 30
0.0
 10
15.9326845484
 20
13.9129763503
 30
0.0
 10
15.9461058969
 20
13.9122723605
 30
0.0
 10
15.9595157889
 20
13.9107214781
 30
0.0
 10
15.9729056646
 20
13.9083247936
 30
0.0
 10
15.9862670691
 20
13.9050841194
 30
0.0
 10
15.9995916602
 20
13.9010017889
 30
0.0
 10
16.0128712053
 20
13.8960806379
 30
0.0
 10
16.0260976345
 20
13.8903241149
 30
0.0
 10
16.039262982
 20
13.883736023
 30
0.0
 10
16.0523593163
 20
13.8763207542
 30
0.0
 10
16.0653792072
 20
13.8680829103
 30
0.0
 10
16.082849237
 20
13.8558534405
 30
0.0
 10
16.0999092005
 20
13.8421133987
 30
0.0
 10
16.1165379794
 20
13.8270187041
 30
0.0
 10
16.1290606665
 20
13.8147554284
 30
0.0
 10
16.1414611044
 20
13.8017079634
 30
0.0
 10
16.1537325416
 20
13.7878836964
 30
0.0
 10
16.1658675774
 20
13.7732910868
 30
0.0
 10
16.1778590355
 20
13.7579388417
 30
0.0
 10
16.1896998256
 20
13.7418362151
 30
0.0
 10
16.2013828802
 20
13.7249928459
 30
0.0
 10
16.2129012419
 20
13.7074188426
 30
0.0
 10
16.2242480606
 20
13.6891247587
 30
0.0
 10
16.2354165184
 20
13.6701215492
 30
0.0
 10
16.2463999658
 20
13.6504206356
 30
0.0
 10
16.2571918182
 20
13.6300338328
 30
0.0
 10
16.2677855733
 20
13.6089733884
 30
0.0
 10
16.2781749752
 20
13.5872519076
 30
0.0
 10
16.2918813289
 20
13.55712955
 30
0.0
 10
16.3084359802
 20
13.5178921196
 30
0.0
 10
16.327197364
 20
13.4688399107
 30
0.0
 10
16.3450005913
 20
13.4174842509
 30
0.0
 10
16.3618027718
 20
13.3639486854
 30
0.0
 10
16.3775635275
 20
13.3083614098
 30
0.0
 10
16.3922448864
 20
13.250855847
 30
0.0
 10
16.4058114708
 20
13.1915700665
 30
0.0
 10
16.4182305698
 20
13.1306465069
 30
0.0
 10
16.4294722224
 20
13.0682315973
 30
0.0
 10
16.4395092945
 20
13.0044754014
 30
0.0
 10
16.4483175565
 20
12.9395312513
 30
0.0
 10
16.4558757513
 20
12.8735553725
 30
0.0
 10
16.4621656312
 20
12.8067064978
 30
0.0
 10
16.4671720057
 20
12.7391454795
 30
0.0
 10
16.4708827798
 20
12.6710349007
 30
0.0
 10
16.473289
 20
12.60253868
 30
0.0
 10
16.4743848576
 20
12.533821672
 30
0.0
 10
16.4741677049
 20
12.4650492664
 30
0.0
 10
16.4726380589
 20
12.3963869878
 30
0.0
 10
16.4697996182
 20
12.3280000934
 30
0.0
 10
16.4656592411
 20
12.2600531714
 30
0.0
 10
16.4602269253
 20
12.1927097426
 30
0.0
 10
16.4535157814
 20
12.1261318631
 30
0.0
 10
16.4455420143
 20
12.0604797285
 30
0.0
 10
16.4363248808
 20
11.9959112813
 30
0.0
 10
16.4258866332
 20
11.9325818338
 30
0.0
 10
16.4142524559
 20
11.8706436712
 30
0.0
 10
16.4014504339
 20
11.8102457302
 30
0.0
 10
16.3875114056
 20
11.7515330502
 30
0.0
 10
16.372469172
 20
11.6946471833
 30
0.0
 10
16.3615725329
 20
11.6574964355
 30
0.0
 10
16.3559371084
 20
11.6392601952
 30
0.0
  0
SPLINE
  5
2BD
100
AcDbEntity
  8
LAYER_FEATURE
100
AcDbSpline
 62
7
  6
CONTINUOUS
 70
0
 71
3
 72
39
 73
35
 74
0
 42
0.0000001
 43
0.0000001
 44
0.0000000001
 40
0.0
 40
0.0
 40
0.0
 40
0.0
 40
0.0443813067
 40
0.0879669132
 40
0.1307335
 40
0.1726618866
 40
0.2137331556
 40
0.2539301966
 40
0.2932376985
 40
0.3316421098
 40
0.369131909
 40
0.4056977074
 40
0.4413324012
 40
0.4760313905
 40
0.5097927922
 40
0.5426176374
 40
0.5745101304
 40
0.6054779621
 40
0.6355325877
 40
0.6646895438
 40
0.692968828
 40
0.7203952814
 40
0.7469989433
 40
0.7728154398
 40
0.7978863773
 40
0.8222596396
 40
0.8459896209
 40
0.8691373705
 40
0.8917705686
 40
0.9139632732
 40
0.9357954514
 40
0.9573522573
 40
0.9787230195
 40
1.0
 40
1.0
 40
1.0
 40
1.0
 10
15.4868486753
 20
13.4603142194
 30
0.0
 10
15.4902848149
 20
13.4714335712
 30
0.0
 10
15.4972735421
 20
13.4934184109
 30
0.0
 10
15.508209536
 20
13.5259114776
 30
0.0
 10
15.5194969362
 20
13.5576023498
 30
0.0
 10
15.5311266573
 20
13.5884656789
 30
0.0
 10
15.5430896161
 20
13.6184773125
 30
0.0
 10
15.5553763359
 20
13.6476135188
 30
0.0
 10
15.5679771196
 20
13.6758513202
 30
0.0
 10
15.5808820563
 20
13.7031684512
 30
0.0
 10
15.5940809659
 20
13.7295433857
 30
0.0
 10
15.6075634579
 20
13.75495535
 30
0.0
 10
15.621318948
 20
13.7793843241
 30
0.0
 10
15.6353366437
 20
13.8028110745
 30
0.0
 10
15.6496055488
 20
13.8252171772
 30
0.0
 10
15.6641145073
 20
13.8465850036
 30
0.0
 10
15.6788522152
 20
13.8668977317
 30
0.0
 10
15.6938071906
 20
13.8861393892
 30
0.0
 10
15.7089678226
 20
13.9042948343
 30
0.0
 10
15.7243223934
 20
13.9213497426
 30
0.0
 10
15.7398590673
 20
13.9372906305
 30
0.0
 10
15.7555658865
 20
13.9521048691
 30
0.0
 10
15.771430812
 20
13.9657806379
 30
0.0
 10
15.7874417209
 20
13.9783069109
 30
0.0
 10
15.8035863582
 20
13.9896735011
 30
0.0
 10
15.8198523542
 20
13.9998710138
 30
0.0
 10
15.8362272045
 20
14.0088908174
 30
0.0
 10
15.8526982174
 20
14.0167250796
 30
0.0
 10
15.8692524516
 20
14.0233668228
 30
0.0
 10
15.8858767429
 20
14.0288099063
 30
0.0
 10
15.9025575252
 20
14.0330490876
 30
0.0
 10
15.9192813123
 20
14.0360801838
 30
0.0
 10
15.9360328801
 20
14.0379001245
 30
0.0
 10
15.9472206345
 20
14.0383049875
 30
0.0
 10
15.9528001266
 20
14.0383049921
 30
0.0
  0
SPLINE
  5
2BE
100
AcDbEntity
  8
02___PRT_ALL_AXES
100
AcDbSpline
 62
7
  6
CONTINUOUS
 70
0
 71
3
 72
24
 73
20
 74
0
 42
0.0000001
 43
0.0000001
 44
0.0000000001
 40
0.0
 40
0.0
 40
0.0
 40
0.0
 40
0.0836660473
 40
0.1647132339
 40
0.2430320452
 40
0.3185262446
 40
0.391116286
 40
0.4607407349
 40
0.5273589255
 40
0.5909538648
 40
0.6515357247
 40
0.7091459617
 40
0.7638621331
 40
0.815803379
 40
0.8651363847
 40
0.9120813691
 40
0.9569172183
 40
0.9786557981
 40
1.0
 40
1.0
 40
1.0
 40
1.0
 10
15.5934133246
 20
13.2281428963
 30
0.0
 10
15.5977995832
 20
13.2423368344
 30
0.0
 10
15.6068161268
 20
13.2701646097
 30
0.0
 10
15.6213209205
 20
13.3108148178
 30
0.0
 10
15.6365647867
 20
13.3496399533
 30
0.0
 10
15.6525130026
 20
13.3865515293
 30
0.0
 10
15.6691294092
 20
13.4214659418
 30
0.0
 10
15.6863764978
 20
13.4543041812
 30
0.0
 10
15.7042155429
 20
13.4849920978
 30
0.0
 10
15.7226067798
 20
13.5134605271
 30
0.0
 10
15.7415096086
 20
13.5396453976
 30
0.0
 10
15.7608827914
 20
13.5634877452
 30
0.0
 10
15.7806847513
 20
13.5849336741
 30
0.0
 10
15.800873455
 20
13.6039340436
 30
0.0
 10
15.8214074602
 20
13.62044448
 30
0.0
 10
15.842242216
 20
13.6344236009
 30
0.0
 10
15.8600042595
 20
13.6440318026
 30
0.0
 10
15.8742816031
 20
13.6503609333
 30
0.0
 10
15.8814364997
 20
13.6530816432
 30
0.0
 10
15.8850155046
 20
13.6543285597
 30
0.0
  0
SPLINE
  5
2BF
100
AcDbEntity
  8
LAYER_FEATURE
100
AcDbSpline
 62
7
  6
CONTINUOUS
 70
0
 71
3
 72
67
 73
63
 74
0
 42
0.0000001
 43
0.0000001
 44
0.0000000001
 40
0.0
 40
0.0
 40
0.0
 40
0.0
 40
0.0163581013
 40
0.0330510694
 40
0.0500642491
 40
0.0673826926
 40
0.0849905208
 40
0.1028713409
 40
0.1210081566
 40
0.1393834611
 40
0.15797927
 40
0.1767771682
 40
0.1957583526
 40
0.2149036734
 40
0.2536076561
 40
0.292731491
 40
0.3321134768
 40
0.371590054
 40
0.4109969877
 40
0.45017054
 40
0.4889486503
 40
0.5081400228
 40
0.5271731428
 40
0.546028763
 40
0.5646879707
 40
0.5831322282
 40
0.601343416
 40
0.6193038759
 40
0.6369964566
 40
0.65440456
 40
0.6715121917
 40
0.6883040129
 40
0.7047653969
 40
0.720882489
 40
0.7366422729
 40
0.7520326412
 40
0.7670424724
 40
0.7816617173
 40
0.7958814943
 40
0.8096941963
 40
0.8230936114
 40
0.8360750592
 40
0.8486355463
 40
0.8607739405
 40
0.872491169
 40
0.8837904436
 40
0.8946775128
 40
0.905160943
 40
0.9152524249
 40
0.9249671014
 40
0.9343239024
 40
0.9433458667
 40
0.9520604213
 40
0.9604995757
 40
0.9686999787
 40
0.9767027777
 40
0.9806449746
 40
0.9845550535
 40
0.9884391969
 40
0.9923037475
 40
0.9961551669
 40
1.0
 40
1.0
 40
1.0
 40
1.0
 10
14.5799171583
 20
13.4603142194
 30
0.0
 10
14.5755544909
 20
13.4461966227
 30
0.0
 10
14.5670318824
 20
13.4175813788
 30
0.0
 10
14.5549676338
 20
13.3739944371
 30
0.0
 10
14.543504624
 20
13.3293492979
 30
0.0
 10
14.5326569728
 20
13.2837010198
 30
0.0
 10
14.5224379783
 20
13.2371053243
 30
0.0
 10
14.512860182
 20
13.1896193659
 30
0.0
 10
14.5039353441
 20
13.1413012968
 30
0.0
 10
14.495674422
 20
13.0922103326
 30
0.0
 10
14.4880875562
 20
13.0424066227
 30
0.0
 10
14.4811840734
 20
12.9919512394
 30
0.0
 10
14.4749724005
 20
12.9409059042
 30
0.0
 10
14.4675965872
 20
12.8718957528
 30
0.0
 10
14.4601725562
 20
12.7846019177
 30
0.0
 10
14.454155845
 20
12.6788839149
 30
0.0
 10
14.4510292853
 20
12.5723425815
 30
0.0
 10
14.4508082515
 20
12.4655001489
 30
0.0
 10
14.4534938322
 20
12.3588793471
 30
0.0
 10
14.459072826
 20
12.253002797
 30
0.0
 10
14.4661341842
 20
12.1655249878
 30
0.0
 10
14.4732224642
 20
12.0963284402
 30
0.0
 10
14.4792222743
 20
12.0451161677
 30
0.0
 10
14.4859163039
 20
11.9944749003
 30
0.0
 10
14.4932963821
 20
11.9444665885
 30
0.0
 10
14.5013534357
 20
11.8951525564
 30
0.0
 10
14.5100775762
 20
11.846593231
 30
0.0
 10
14.5194580902
 20
11.7988481179
 30
0.0
 10
14.5294834621
 20
11.751975715
 30
0.0
 10
14.540141386
 20
11.7060334435
 30
0.0
 10
14.5514187824
 20
11.6610775764
 30
0.0
 10
14.563301815
 20
11.6171631682
 30
0.0
 10
14.5757759083
 20
11.5743439866
 30
0.0
 10
14.5888257681
 20
11.5326724445
 30
0.0
 10
14.6024353988
 20
11.4921995323
 30
0.0
 10
14.6165881263
 20
11.4529747542
 30
0.0
 10
14.6312666241
 20
11.4150460668
 30
0.0
 10
14.6464529374
 20
11.3784598198
 30
0.0
 10
14.6621285104
 20
11.3432606973
 30
0.0
 10
14.678274215
 20
11.3094916624
 30
0.0
 10
14.6948703826
 20
11.2771939039
 30
0.0
 10
14.7118968388
 20
11.2464067857
 30
0.0
 10
14.7293329355
 20
11.2171677986
 30
0.0
 10
14.7471575955
 20
11.1895125222
 30
0.0
 10
14.7653493544
 20
11.1634745932
 30
0.0
 10
14.783886406
 20
11.1390856816
 30
0.0
 10
14.8027466477
 20
11.1163754778
 30
0.0
 10
14.8219077249
 20
11.0953716939
 30
0.0
 10
14.8413470686
 20
11.0761000827
 30
0.0
 10
14.8610419205
 20
11.0585844717
 30
0.0
 10
14.8809693184
 20
11.0428468165
 30
0.0
 10
14.9011061024
 20
11.0289072633
 30
0.0
 10
14.9214286775
 20
11.0167842335
 30
0.0
 10
14.9419133853
 20
11.0064943587
 30
0.0
 10
14.9625344564
 20
10.9980527539
 30
0.0
 10
14.9799012348
 20
10.9925410074
 30
0.0
 10
14.9938046861
 20
10.9890888239
 30
0.0
 10
15.0041977923
 20
10.9869794125
 30
0.0
 10
15.0146039109
 20
10.9853381077
 30
0.0
 10
15.0250200197
 20
10.9841653026
 30
0.0
 10
15.035442507
 20
10.9834614664
 30
0.0
 10
15.0423955626
 20
10.9833050049
 30
0.0
 10
15.0458686096
 20
10.9833050015
 30
0.0
  0
SPLINE
  5
2C0
100
AcDbEntity
  8
LAYER_FEATURE
100
AcDbSpline
 62
7
  6
CONTINUOUS
 70
0
 71
3
 72
46
 73
42
 74
0
 42
0.0000001
 43
0.0000001
 44
0.0000000001
 40
0.0
 40
0.0
 40
0.0
 40
0.0
 40
0.0474737568
 40
0.0937813444
 40
0.1388814512
 40
0.1827374235
 40
0.2253164125
 40
0.2665904535
 40
0.3065366753
 40
0.345137941
 40
0.3823834412
 40
0.4182694197
 40
0.4527999921
 40
0.485988085
 40
0.5178564986
 40
0.5484390945
 40
0.5777820925
 40
0.6059454359
 40
0.6330041521
 40
0.6590495833
 40
0.6841903033
 40
0.7085524777
 40
0.7204887214
 40
0.7322854308
 40
0.7439629273
 40
0.7555423259
 40
0.7670454284
 40
0.7784945838
 40
0.7899125344
 40
0.8013222559
 40
0.8127467856
 40
0.8242090473
 40
0.8357316918
 40
0.8473369203
 40
0.8590463586
 40
0.8708808999
 40
0.8949988971
 40
0.9198461776
 40
0.9455551265
 40
0.9722405959
 40
1.0
 40
1.0
 40
1.0
 40
1.0
 10
14.6427316278
 20
13.3823497906
 30
0.0
 10
14.6469806692
 20
13.3960996937
 30
0.0
 10
14.6556699645
 20
13.423171598
 30
0.0
 10
14.6694596909
 20
13.4629545126
 30
0.0
 10
14.6838276751
 20
13.5013640134
 30
0.0
 10
14.6987530805
 20
13.538344529
 30
0.0
 10
14.714214503
 20
13.5738430167
 30
0.0
 10
14.7301897012
 20
13.6078084442
 30
0.0
 10
14.7466557866
 20
13.6401920785
 30
0.0
 10
14.7635892085
 20
13.6709474856
 30
0.0
 10
14.7809658331
 20
13.7000306143
 30
0.0
 10
14.7987609918
 20
13.7273998448
 30
0.0
 10
14.8169495477
 20
13.7530160328
 30
0.0
 10
14.835505962
 20
13.7768425368
 30
0.0
 10
14.854404361
 20
13.798845225
 30
0.0
 10
14.8736186018
 20
13.8189924583
 30
0.0
 10
14.8931223064
 20
13.837255038
 30
0.0
 10
14.9128889246
 20
13.8536061357
 30
0.0
 10
14.9328915256
 20
13.8680211436
 30
0.0
 10
14.9531032709
 20
13.8804777187
 30
0.0
 10
14.9734950983
 20
13.8909551754
 30
0.0
 10
14.9907344677
 20
13.8980708835
 30
0.0
 10
15.0045553674
 20
13.9027265099
 30
0.0
 10
15.0148762469
 20
13.9056917225
 30
0.0
 10
15.025217684
 20
13.9081524118
 30
0.0
 10
15.0355760603
 20
13.9101076689
 30
0.0
 10
15.0459474757
 20
13.9115566638
 30
0.0
 10
15.0563280714
 20
13.9124988373
 30
0.0
 10
15.0667139595
 20
13.9129337397
 30
0.0
 10
15.0771012407
 20
13.9128612719
 30
0.0
 10
15.0874860126
 20
13.9122813627
 30
0.0
 10
15.0978643832
 20
13.9111943688
 30
0.0
 10
15.1082324698
 20
13.9096006139
 30
0.0
 10
15.1185863727
 20
13.9075008972
 30
0.0
 10
15.1289224357
 20
13.90489586
 30
0.0
 10
15.1427602199
 20
13.900724795
 30
0.0
 10
15.160030888
 20
13.8942140553
 30
0.0
 10
15.1804804299
 20
13.8844478682
 30
0.0
 10
15.2007602336
 20
13.8726956667
 30
0.0
 10
15.2208399592
 20
13.8589781491
 30
0.0
 10
15.2338089594
 20
13.8487471615
 30
0.0
 10
15.2402511258
 20
13.8433330032
 30
0.0
  0
SPLINE
  5
2C1
100
AcDbEntity
  8
LAYER_FEATURE
100
AcDbSpline
 62
7
  6
CONTINUOUS
 70
0
 71
3
 72
81
 73
77
 74
0
 42
0.0000001
 43
0.0000001
 44
0.0000000001
 40
0.0
 40
0.0
 40
0.0
 40
0.0
 40
0.0173849153
 40
0.0351728439
 40
0.0533436081
 40
0.0718760031
 40
0.0907477399
 40
0.1099356237
 40
0.1294156071
 40
0.1491628861
 40
0.1691519753
 40
0.1893567858
 40
0.2097506984
 40
0.230306636
 40
0.2509971331
 40
0.2717944051
 40
0.2926704159
 40
0.3135969451
 40
0.3345456545
 40
0.3554881543
 40
0.3763960691
 40
0.397241104
 40
0.4179951111
 40
0.438630156
 40
0.4591185853
 40
0.4794330947
 40
0.4995467987
 40
0.5194333011
 40
0.5390667678
 40
0.5584220017
 40
0.5774745202
 40
0.5962006367
 40
0.6145775455
 40
0.6325834122
 40
0.6501974709
 40
0.6674001277
 40
0.6841730746
 40
0.7004994142
 40
0.7163637984
 40
0.731752583
 40
0.746654004
 40
0.7610583762
 40
0.7749583232
 40
0.7883490403
 40
0.8012285997
 40
0.8135983024
 40
0.825463083
 40
0.8368319721
 40
0.8477186155
 40
0.8581418429
 40
0.8681262669
 40
0.8729641527
 40
0.8777045328
 40
0.8869111909
 40
0.895793008
 40
0.9001293154
 40
0.9044046648
 40
0.9086266805
 40
0.9128033648
 40
0.916943056
 40
0.9210543784
 40
0.92514618
 40
0.9292274683
 40
0.9333073365
 40
0.9373948896
 40
0.9414991702
 40
0.9456290824
 40
0.9497933288
 40
0.95400034
 40
0.9582582317
 40
0.9625747454
 40
0.9714104772
 40
0.9805633607
 40
0.9852743464
 40
0.9900813358
 40
1.0
 40
1.0
 40
1.0
 40
1.0
 10
14.6427316278
 20
13.3823497906
 30
0.0
 10
14.6381548014
 20
13.367539175
 30
0.0
 10
14.6292455698
 20
13.337465212
 30
0.0
 10
14.6167433826
 20
13.2915689973
 30
0.0
 10
14.6049645829
 20
13.2444264453
 30
0.0
 10
14.5939280891
 20
13.1961130775
 30
0.0
 10
14.5836515208
 20
13.1467058208
 30
0.0
 10
14.5741513158
 20
13.0962835225
 30
0.0
 10
14.5654426678
 20
13.0449266144
 30
0.0
 10
14.5575395064
 20
12.9927170487
 30
0.0
 10
14.5504544748
 20
12.9397381444
 30
0.0
 10
14.5441989079
 20
12.8860744591
 30
0.0
 10
14.5387828141
 20
12.8318116508
 30
0.0
 10
14.5342148594
 20
12.7770363405
 30
0.0
 10
14.5305023527
 20
12.7218359725
 30
0.0
 10
14.5276512345
 20
12.6662986736
 30
0.0
 10
14.5256660668
 20
12.6105131119
 30
0.0
 10
14.5245500263
 20
12.5545683541
 30
0.0
 10
14.5243048987
 20
12.4985537226
 30
0.0
 10
14.5249310763
 20
12.4425586518
 30
0.0
 10
14.5264275572
 20
12.3866725447
 30
0.0
 10
14.5287919467
 20
12.3309846295
 30
0.0
 10
14.5320204615
 20
12.2755838162
 30
0.0
 10
14.5361079357
 20
12.2205585536
 30
0.0
 10
14.5410478288
 20
12.1659966874
 30
0.0
 10
14.5468322369
 20
12.1119853191
 30
0.0
 10
14.5534519051
 20
12.0586106655
 30
0.0
 10
14.5608962424
 20
12.0059579201
 30
0.0
 10
14.5691533395
 20
11.954111116
 30
0.0
 10
14.5782099878
 20
11.9031529897
 30
0.0
 10
14.5880517015
 20
11.8531648477
 30
0.0
 10
14.5986627415
 20
11.804226435
 30
0.0
 10
14.6100261415
 20
11.756415805
 30
0.0
 10
14.6221237375
 20
11.7098091931
 30
0.0
 10
14.6349361979
 20
11.6644808917
 30
0.0
 10
14.6484430583
 20
11.6205031288
 30
0.0
 10
14.6626227577
 20
11.5779459491
 30
0.0
 10
14.677452678
 20
11.5368770986
 30
0.0
 10
14.6929091876
 20
11.4973619122
 30
0.0
 10
14.7089676877
 20
11.4594632062
 30
0.0
 10
14.7256026641
 20
11.4232411739
 30
0.0
 10
14.7427877434
 20
11.3887532879
 30
0.0
 10
14.7604957558
 20
11.3560542082
 30
0.0
 10
14.7786988035
 20
11.3251957001
 30
0.0
 10
14.7973683401
 20
11.2962265607
 30
0.0
 10
14.8164752449
 20
11.2691925709
 30
0.0
 10
14.8359899456
 20
11.2441364368
 30
0.0
 10
14.8558823948
 20
11.2210978725
 30
0.0
 10
14.8761225547
 20
11.2001133294
 30
0.0
 10
14.8966790547
 20
11.1812171378
 30
0.0
 10
14.9142297486
 20
11.1670897073
 30
0.0
 10
14.928392852
 20
11.1569010393
 30
0.0
 10
14.9423475877
 20
11.1476307511
 30
0.0
 10
14.9599428052
 20
11.1373497226
 30
0.0
 10
14.9780149105
 20
11.1287291846
 30
0.0
 10
14.9925199724
 20
11.1229792895
 30
0.0
 10
15.0033451707
 20
11.1192555868
 30
0.0
 10
15.0141978988
 20
11.116088487
 30
0.0
 10
15.0250739302
 20
11.113479286
 30
0.0
 10
15.035968767
 20
11.11142921
 30
0.0
 10
15.0468779286
 20
11.1099391594
 30
0.0
 10
15.0577968974
 20
11.109009866
 30
0.0
 10
15.0687211292
 20
11.1086417079
 30
0.0
 10
15.0796460709
 20
11.108834922
 30
0.0
 10
15.0905671692
 20
11.1095893425
 30
0.0
 10
15.101479871
 20
11.1109047033
 30
0.0
 10
15.1123796589
 20
11.1127803007
 30
0.0
 10
15.123262028
 20
11.115215381
 30
0.0
 10
15.1341224894
 20
11.1182087059
 30
0.0
 10
15.1449567785
 20
11.121759152
 30
0.0
 10
15.1594727916
 20
11.1272756603
 30
0.0
 10
15.17756381
 20
11.1356054717
 30
0.0
 10
15.1951876515
 20
11.1456065886
 30
0.0
 10
15.2091666228
 20
11.1546547752
 30
0.0
 10
15.2233531132
 20
11.1646157874
 30
0.0
 10
15.2336803434
 20
11.1727475634
 30
0.0
 10
15.2404474
 20
11.1784420328
 30
0.0
  0
SPLINE
  5
2C2
100
AcDbEntity
  8
LAYER_FEATURE
100
AcDbSpline
 62
7
  6
CONTINUOUS
 70
0
 71
3
 72
15
 73
11
 74
0
 42
0.0000001
 43
0.0000001
 44
0.0000000001
 40
0.0
 40
0.0
 40
0.0
 40
0.0
 40
0.1236178939
 40
0.2524121797
 40
0.384033672
 40
0.5160270849
 40
0.6459302515
 40
0.771349143
 40
0.8900366167
 40
1.0
 40
1.0
 40
1.0
 40
1.0
 10
14.6291105442
 20
13.2112380609
 30
0.0
 10
14.6289339383
 20
13.2103410725
 30
0.0
 10
14.6286385736
 20
13.2084962461
 30
0.0
 10
14.6283655715
 20
13.2056676868
 30
0.0
 10
14.6282569787
 20
13.2027660251
 30
0.0
 10
14.6283152947
 20
13.1998547652
 30
0.0
 10
14.6285391877
 20
13.1969974847
 30
0.0
 10
14.6289236542
 20
13.194256429
 30
0.0
 10
14.6294599729
 20
13.1916914152
 30
0.0
 10
14.6299312366
 20
13.1900649762
 30
0.0
 10
14.6301942853
 20
13.1892954668
 30
0.0
  0
SPLINE
  5
2C3
100
AcDbEntity
  8
LAYER_FEATURE
100
AcDbSpline
 62
7
  6
CONTINUOUS
 70
0
 71
3
 72
15
 73
11
 74
0
 42
0.0000001
 43
0.0000001
 44
0.0000000001
 40
0.0
 40
0.0
 40
0.0
 40
0.0
 40
0.1342288563
 40
0.2676196209
 40
0.3992357169
 40
0.5281568348
 40
0.6534990628
 40
0.7744254463
 40
0.8901580877
 40
1.0
 40
1.0
 40
1.0
 40
1.0
 10
14.653208469
 20
13.086105154
 30
0.0
 10
14.6532205609
 20
13.0889218538
 30
0.0
 10
14.653144924
 20
13.0945386116
 30
0.0
 10
14.6527331359
 20
13.1029079715
 30
0.0
 10
14.6520266039
 20
13.1111460153
 30
0.0
 10
14.6510312471
 20
13.1191841092
 30
0.0
 10
14.649755457
 20
13.1269554134
 30
0.0
 10
14.6482099301
 20
13.1343954717
 30
0.0
 10
14.6464077448
 20
13.1414423756
 30
0.0
 10
14.6450058722
 20
13.1459663961
 30
0.0
 10
14.6442602982
 20
13.1481474606
 30
0.0
  0
SPLINE
  5
2C4
100
AcDbEntity
  8
LAYER_FEATURE
100
AcDbSpline
 62
7
  6
CONTINUOUS
 70
0
 71
3
 72
37
 73
33
 74
0
 42
0.0000001
 43
0.0000001
 44
0.0000000001
 40
0.0
 40
0.0
 40
0.0
 40
0.0
 40
0.0221927046
 40
0.0444655847
 40
0.066897747
 40
0.0895662339
 40
0.1125450947
 40
0.1359046525
 40
0.1597109017
 40
0.1840250546
 40
0.2089033343
 40
0.2343967974
 40
0.2873940466
 40
0.3149886382
 40
0.3433526291
 40
0.3725130045
 40
0.4024925907
 40
0.4333104083
 40
0.4649818361
 40
0.4975189354
 40
0.5309307004
 40
0.5652232046
 40
0.6003999211
 40
0.6364618364
 40
0.6734076428
 40
0.7112339611
 40
0.7499353616
 40
0.7895046654
 40
0.829933009
 40
0.8712095853
 40
0.9133225575
 40
1.0
 40
1.0
 40
1.0
 40
1.0
 10
15.0704236944
 20
13.8430549897
 30
0.0
 10
15.0660200279
 20
13.8430549837
 30
0.0
 10
15.0571940822
 20
13.8427660459
 30
0.0
 10
15.043974473
 20
13.8414669022
 30
0.0
 10
15.0307725731
 20
13.8393028945
 30
0.0
 10
15.0175981676
 20
13.8362756875
 30
0.0
 10
15.0044599379
 20
13.8323877331
 30
0.0
 10
14.9913666965
 20
13.8276420057
 30
0.0
 10
14.9783270181
 20
13.8220420173
 30
0.0
 10
14.9653494256
 20
13.8155919667
 30
0.0
 10
14.9524419201
 20
13.8082961689
 30
0.0
 10
14.935114513
 20
13.7973068966
 30
0.0
 10
14.9181822014
 20
13.7847408242
 30
0.0
 10
14.9016797679
 20
13.7707671238
 30
0.0
 10
14.8892453781
 20
13.7593291048
 30
0.0
 10
14.8769299678
 20
13.7470835831
 30
0.0
 10
14.8647406375
 20
13.734038018
 30
0.0
 10
14.852685336
 20
13.7202009798
 30
0.0
 10
14.840771644
 20
13.705581399
 30
0.0
 10
14.8290071589
 20
13.6901887287
 30
0.0
 10
14.8173994157
 20
13.6740328783
 30
0.0
 10
14.8059557972
 20
13.6571242961
 30
0.0
 10
14.7946836648
 20
13.6394738689
 30
0.0
 10
14.7835902492
 20
13.6210929839
 30
0.0
 10
14.7726826555
 20
13.6019935099
 30
0.0
 10
14.7619679443
 20
13.5821877542
 30
0.0
 10
14.7514529829
 20
13.5616885179
 30
0.0
 10
14.741144551
 20
13.5405090115
 30
0.0
 10
14.7310493649
 20
13.5186629655
 30
0.0
 10
14.7211738038
 20
13.4961643969
 30
0.0
 10
14.7081835105
 20
13.4650172211
 30
0.0
 10
14.698981778
 20
13.4411684764
 30
0.0
 10
14.6930507334
 20
13.4250241911
 30
0.0
  0
SPLINE
  5
2C5
100
AcDbEntity
  8
LAYER_FEATURE
100
AcDbSpline
 62
7
  6
CONTINUOUS
 70
0
 71
3
 72
16
 73
12
 74
0
 42
0.0000001
 43
0.0000001
 44
0.0000000001
 40
0.0
 40
0.0
 40
0.0
 40
0.0
 40
0.1351037835
 40
0.2722133666
 40
0.4087795805
 40
0.5422560275
 40
0.6702036857
 40
0.7903739746
 40
0.9008052113
 40
0.9518928217
 40
1.0
 40
1.0
 40
1.0
 40
1.0
 10
14.5832377672
 20
12.9687761186
 30
0.0
 10
14.5831364732
 20
12.9678192599
 30
0.0
 10
14.582992076
 20
12.965884581
 30
0.0
 10
14.5829442236
 20
12.9629721457
 30
0.0
 10
14.5830631891
 20
12.9600732045
 30
0.0
 10
14.5833463434
 20
12.9572511839
 30
0.0
 10
14.5837873051
 20
12.9545674494
 30
0.0
 10
14.584376247
 20
12.9520804808
 30
0.0
 10
14.5849944916
 20
12.9501687512
 30
0.0
 10
14.5855594907
 20
12.94878622
 30
0.0
 10
14.5858625889
 20
12.9481475313
 30
0.0
 10
14.5860193894
 20
12.9478428992
 30
0.0
  0
SPLINE
  5
2C6
100
AcDbEntity
  8
LAYER_FEATURE
100
AcDbSpline
 62
7
  6
CONTINUOUS
 70
0
 71
3
 72
15
 73
11
 74
0
 42
0.0000001
 43
0.0000001
 44
0.0000000001
 40
0.0
 40
0.0
 40
0.0
 40
0.0
 40
0.1420014893
 40
0.2808708826
 40
0.4156643973
 40
0.5454861098
 40
0.669511855
 40
0.7870042543
 40
0.8973317307
 40
1.0
 40
1.0
 40
1.0
 40
1.0
 10
14.6166514916
 20
12.8586614131
 30
0.0
 10
14.6164441874
 20
12.8614048605
 30
0.0
 10
14.6159354905
 20
12.8668243771
 30
0.0
 10
14.6148785404
 20
12.8748101468
 30
0.0
 10
14.6135432957
 20
12.8825150305
 30
0.0
 10
14.61194095
 20
12.8898749994
 30
0.0
 10
14.6100849689
 20
12.8968290817
 30
0.0
 10
14.6079907857
 20
12.9033200308
 30
0.0
 10
14.6056760201
 20
12.9092941139
 30
0.0
 10
14.6039333961
 20
12.9130395632
 30
0.0
 10
14.6030230351
 20
12.9148082127
 30
0.0
  0
SPLINE
  5
2C7
100
AcDbEntity
  8
LAYER_FEATURE
100
AcDbSpline
 62
7
  6
CONTINUOUS
 70
0
 71
3
 72
21
 73
17
 74
0
 42
0.0000001
 43
0.0000001
 44
0.0000000001
 40
0.0
 40
0.0
 40
0.0
 40
0.0
 40
0.0438694629
 40
0.0893305699
 40
0.13672294
 40
0.1863412187
 40
0.2384223002
 40
0.2931514545
 40
0.3506682438
 40
0.4110712488
 40
0.4744234163
 40
0.5407556658
 40
0.6100723336
 40
0.6823540068
 40
0.8356033547
 40
1.0
 40
1.0
 40
1.0
 40
1.0
 10
14.5876999812
 20
12.7700612257
 30
0.0
 10
14.5882532337
 20
12.770227965
 30
0.0
 10
14.5893617281
 20
12.7706303165
 30
0.0
 10
14.5909851788
 20
12.7714160873
 30
0.0
 10
14.5925915773
 20
12.7723912304
 30
0.0
 10
14.5941774792
 20
12.7735531602
 30
0.0
 10
14.595739994
 20
12.7748992068
 30
0.0
 10
14.5972760752
 20
12.7764264617
 30
0.0
 10
14.5987827803
 20
12.778131668
 30
0.0
 10
14.6002571732
 20
12.7800112735
 30
0.0
 10
14.6016963048
 20
12.7820614154
 30
0.0
 10
14.6030973062
 20
12.7842778503
 30
0.0
 10
14.604457363
 20
12.786656031
 30
0.0
 10
14.6062473259
 20
12.7901035817
 30
0.0
 10
14.6083524959
 20
12.7947932179
 30
0.0
 10
14.6098192018
 20
12.7987145627
 30
0.0
 10
14.61052227
 20
12.8007626183
 30
0.0
  0
SPLINE
  5
2C8
100
AcDbEntity
  8
LAYER_FEATURE
100
AcDbSpline
 62
7
  6
CONTINUOUS
 70
0
 71
3
 72
20
 73
16
 74
0
 42
0.0000001
 43
0.0000001
 44
0.0000000001
 40
0.0
 40
0.0
 40
0.0
 40
0.0
 40
0.0368185197
 40
0.0760853626
 40
0.1184316511
 40
0.164320989
 40
0.2140430834
 40
0.2677504994
 40
0.3254856721
 40
0.3872027447
 40
0.4527854349
 40
0.5220564712
 40
0.6706976085
 40
0.8309123562
 40
1.0
 40
1.0
 40
1.0
 40
1.0
 10
14.5665236336
 20
12.7636790935
 30
0.0
 10
14.5663297175
 20
12.763620651
 30
0.0
 10
14.5659394577
 20
12.7634629696
 30
0.0
 10
14.5653798696
 20
12.7631250806
 30
0.0
 10
14.5648333248
 20
12.7626824698
 30
0.0
 10
14.5643024393
 20
12.7621381727
 30
0.0
 10
14.5637894141
 20
12.7614952475
 30
0.0
 10
14.5632967662
 20
12.7607571029
 30
0.0
 10
14.5628269276
 20
12.7599276816
 30
0.0
 10
14.5623823386
 20
12.7590114065
 30
0.0
 10
14.5619653804
 20
12.7580131794
 30
0.0
 10
14.5614368734
 20
12.7565454517
 30
0.0
 10
14.560867605
 20
12.7545420835
 30
0.0
 10
14.5603403824
 20
12.7519644392
 30
0.0
 10
14.5600957181
 20
12.7501681379
 30
0.0
 10
14.5599978021
 20
12.7492431884
 30
0.0
  0
SPLINE
  5
2C9
100
AcDbEntity
  8
LAYER_FEATURE
100
AcDbSpline
 62
7
  6
CONTINUOUS
 70
0
 71
3
 72
17
 73
13
 74
0
 42
0.0000001
 43
0.0000001
 44
0.0000000001
 40
0.0
 40
0.0
 40
0.0
 40
0.0
 40
0.1474415104
 40
0.2932866381
 40
0.4348447644
 40
0.5695517325
 40
0.6950916785
 40
0.8095061505
 40
0.8620828569
 40
0.9113880288
 40
0.9573656254
 40
1.0
 40
1.0
 40
1.0
 40
1.0
 10
14.5573104393
 20
12.7075647847
 30
0.0
 10
14.557286537
 20
12.7065878482
 30
0.0
 10
14.5572951884
 20
12.704642716
 30
0.0
 10
14.5574744902
 20
12.7017646064
 30
0.0
 10
14.5578160421
 20
12.6989860058
 30
0.0
 10
14.5583122159
 20
12.6963673363
 30
0.0
 10
14.5589519419
 20
12.6939654968
 30
0.0
 10
14.5596102668
 20
12.6921382285
 30
0.0
 10
14.5602047725
 20
12.6908329425
 30
0.0
 10
14.5606643943
 20
12.6899666114
 30
0.0
 10
14.5611478011
 20
12.6891898968
 30
0.0
 10
14.5614973388
 20
12.688716826
 30
0.0
 10
14.5616760627
 20
12.6884979485
 30
0.0
  0
SPLINE
  5
2CA
100
AcDbEntity
  8
LAYER_FEATURE
100
AcDbSpline
 62
7
  6
CONTINUOUS
 70
0
 71
3
 72
15
 73
11
 74
0
 42
0.0000001
 43
0.0000001
 44
0.0000000001
 40
0.0
 40
0.0
 40
0.0
 40
0.0
 40
0.1505831276
 40
0.2953598342
 40
0.4334259421
 40
0.5639730394
 40
0.6863219118
 40
0.799950567
 40
0.9045330829
 40
1.0
 40
1.0
 40
1.0
 40
1.0
 10
14.5986720014
 20
12.6169763895
 30
0.0
 10
14.5982573412
 20
12.6195351829
 30
0.0
 10
14.5973437611
 20
12.6245386062
 30
0.0
 10
14.595685217
 20
12.63181554
 30
0.0
 10
14.5937762253
 20
12.6386739646
 30
0.0
 10
14.5916326798
 20
12.6450572533
 30
0.0
 10
14.5892723875
 20
12.6509130444
 30
0.0
 10
14.5867143802
 20
12.6561940194
 30
0.0
 10
14.5839796398
 20
12.6608570045
 30
0.0
 10
14.5819606203
 20
12.6636560925
 30
0.0
 10
14.5809212099
 20
12.6649290255
 30
0.0
  0
SPLINE
  5
2CB
100
AcDbEntity
  8
LAYER_FEATURE
100
AcDbSpline
 62
7
  6
CONTINUOUS
 70
0
 71
3
 72
18
 73
14
 74
0
 42
0.0000001
 43
0.0000001
 44
0.0000000001
 40
0.0
 40
0.0
 40
0.0
 40
0.0
 40
0.0915513949
 40
0.1408719801
 40
0.1926417869
 40
0.2469017426
 40
0.3036673561
 40
0.3629330215
 40
0.4246741739
 40
0.5553850762
 40
0.6953255558
 40
0.8438076913
 40
1.0
 40
1.0
 40
1.0
 40
1.0
 10
14.5772584401
 20
12.5152242094
 30
0.0
 10
14.5783532751
 20
12.5161543756
 30
0.0
 10
14.5799265694
 20
12.5177200662
 30
0.0
 10
14.5818689039
 20
12.5200372781
 30
0.0
 10
14.58332849
 20
12.5219915107
 30
0.0
 10
14.5847514177
 20
12.5241142275
 30
0.0
 10
14.586135003
 20
12.5264013913
 30
0.0
 10
14.5874764141
 20
12.5288481893
 30
0.0
 10
14.5892385596
 20
12.5323842213
 30
0.0
 10
14.5913063449
 20
12.5371775
 30
0.0
 10
14.5935327696
 20
12.5433699705
 30
0.0
 10
14.5955311065
 20
12.5500577164
 30
0.0
 10
14.5966737038
 20
12.5547022023
 30
0.0
 10
14.5972068934
 20
12.5570944631
 30
0.0
  0
SPLINE
  5
2CC
100
AcDbEntity
  8
LAYER_FEATURE
100
AcDbSpline
 62
7
  6
CONTINUOUS
 70
0
 71
3
 72
18
 73
14
 74
0
 42
0.0000001
 43
0.0000001
 44
0.0000000001
 40
0.0
 40
0.0
 40
0.0
 40
0.0
 40
0.0396247699
 40
0.0825861462
 40
0.1290323861
 40
0.1790331344
 40
0.2325675484
 40
0.2895473463
 40
0.4131954532
 40
0.5483847745
 40
0.6929639671
 40
0.844415648
 40
1.0
 40
1.0
 40
1.0
 40
1.0
 10
14.5570158646
 20
12.4980262209
 30
0.0
 10
14.5568276888
 20
12.4978663477
 30
0.0
 10
14.5564565299
 20
12.497507942
 30
0.0
 10
14.5559384729
 20
12.4968915552
 30
0.0
 10
14.5554400161
 20
12.4961788474
 30
0.0
 10
14.5549637688
 20
12.4953738005
 30
0.0
 10
14.5545120503
 20
12.4944806435
 30
0.0
 10
14.5539299455
 20
12.4931418758
 30
0.0
 10
14.5532885034
 20
12.491277952
 30
0.0
 10
14.5526702167
 20
12.4888389512
 30
0.0
 10
14.5521974262
 20
12.4861916056
 30
0.0
 10
14.5518806388
 20
12.4833935815
 30
0.0
 10
14.551778952
 20
12.481481708
 30
0.0
 10
14.5517552383
 20
12.4805124803
 30
0.0
  0
SPLINE
  5
2CD
100
AcDbEntity
  8
LAYER_FEATURE
100
AcDbSpline
 62
7
  6
CONTINUOUS
 70
0
 71
3
 72
52
 73
48
 74
0
 42
0.0000001
 43
0.0000001
 44
0.0000000001
 40
0.0
 40
0.0
 40
0.0
 40
0.0
 40
0.0430793316
 40
0.0860327773
 40
0.1287756825
 40
0.1712235467
 40
0.2132931527
 40
0.2549025352
 40
0.2959713732
 40
0.336421293
 40
0.3761761959
 40
0.4151626
 40
0.4533100005
 40
0.4905512536
 40
0.5268229952
 40
0.5620660912
 40
0.5962261365
 40
0.6292540171
 40
0.6611065502
 40
0.6917472244
 40
0.7066044708
 40
0.7211485755
 40
0.7353772723
 40
0.7492888838
 40
0.7628824109
 40
0.7761575275
 40
0.7891146728
 40
0.8017550886
 40
0.8140808695
 40
0.826095063
 40
0.837801691
 40
0.849205872
 40
0.8603138672
 40
0.8711331703
 40
0.8816726091
 40
0.8919423909
 40
0.9019542275
 40
0.9117213685
 40
0.9305769812
 40
0.9397058944
 40
0.9486595707
 40
0.9574594725
 40
0.9661285804
 40
0.9746912396
 40
0.9831729607
 40
0.9916001869
 40
1.0
 40
1.0
 40
1.0
 40
1.0
 10
14.5517552383
 20
12.4805124803
 30
0.0
 10
14.551945309
 20
12.4590521191
 30
0.0
 10
14.5527282702
 20
12.4161965717
 30
0.0
 10
14.5551125789
 20
12.352083936
 30
0.0
 10
14.5587001928
 20
12.2883421525
 30
0.0
 10
14.5634827303
 20
12.2251204125
 30
0.0
 10
14.5694489568
 20
12.1625664876
 30
0.0
 10
14.5765848923
 20
12.1008265741
 30
0.0
 10
14.5848738027
 20
12.0400449483
 30
0.0
 10
14.5942962507
 20
11.9803636236
 30
0.0
 10
14.6048301465
 20
11.9219220124
 30
0.0
 10
14.6164508011
 20
11.8648565968
 30
0.0
 10
14.6291309875
 20
11.8093006034
 30
0.0
 10
14.6428410109
 20
11.7553836808
 30
0.0
 10
14.6575487755
 20
11.7032315896
 30
0.0
 10
14.6732198798
 20
11.652965878
 30
0.0
 10
14.6898176942
 20
11.6047036605
 30
0.0
 10
14.7073035381
 20
11.5585570747
 30
0.0
 10
14.7256365394
 20
11.5146339165
 30
0.0
 10
14.7417459682
 20
11.4796175512
 30
0.0
 10
14.7550413411
 20
11.4528212443
 30
0.0
 10
14.765095085
 20
11.4335488225
 30
0.0
 10
14.7753273397
 20
11.4149061782
 30
0.0
 10
14.7857322629
 20
11.3969041478
 30
0.0
 10
14.7963037382
 20
11.3795532158
 30
0.0
 10
14.8070356705
 20
11.3628635096
 30
0.0
 10
14.8179218165
 20
11.3468447471
 30
0.0
 10
14.8289558618
 20
11.3315062549
 30
0.0
 10
14.8401314613
 20
11.3168569943
 30
0.0
 10
14.8514421147
 20
11.3029054725
 30
0.0
 10
14.8628813556
 20
11.2896598616
 30
0.0
 10
14.8744425717
 20
11.277127874
 30
0.0
 10
14.8861191421
 20
11.265316844
 30
0.0
 10
14.8979043839
 20
11.2542337288
 30
0.0
 10
14.9097915755
 20
11.2438849846
 30
0.0
 10
14.9217737755
 20
11.2342769014
 30
0.0
 10
14.9338448378
 20
11.2254147635
 30
0.0
 10
14.9498573079
 20
11.2147277593
 30
0.0
 10
14.9662213865
 20
11.2053843327
 30
0.0
 10
14.9828710491
 20
11.1975310919
 30
0.0
 10
14.9952787282
 20
11.1924725453
 30
0.0
 10
15.0077319738
 20
11.1881865218
 30
0.0
 10
15.0202237736
 20
11.1846756423
 30
0.0
 10
15.0327464622
 20
11.1819423615
 30
0.0
 10
15.0452926277
 20
11.1799886489
 30
0.0
 10
15.0578538936
 20
11.1788158138
 30
0.0
 10
15.0662390869
 20
11.1785550052
 30
0.0
 10
15.0704236944
 20
11.1785550002
 30
0.0
  0
SPLINE
  5
2CE
100
AcDbEntity
  8
LAYER_FEATURE
100
AcDbSpline
 62
7
  6
CONTINUOUS
 70
0
 71
3
 72
15
 73
11
 74
0
 42
0.0000001
 43
0.0000001
 44
0.0000000001
 40
0.0
 40
0.0
 40
0.0
 40
0.0
 40
0.1126204601
 40
0.233296856
 40
0.3599530997
 40
0.4902911285
 40
0.6218950407
 40
0.7523079002
 40
0.8791063589
 40
1.0
 40
1.0
 40
1.0
 40
1.0
 10
14.6930507334
 20
13.4250241911
 30
0.0
 10
14.6928038194
 20
13.424225177
 30
0.0
 10
14.6923656363
 20
13.4225468608
 30
0.0
 10
14.6918788902
 20
13.419916709
 30
0.0
 10
14.6915472727
 20
13.4171300281
 30
0.0
 10
14.6913783142
 20
13.4142476923
 30
0.0
 10
14.6913757892
 20
13.4113325535
 30
0.0
 10
14.6915397743
 20
13.4084482714
 30
0.0
 10
14.6918665204
 20
13.4056579584
 30
0.0
 10
14.6921978325
 20
13.4038469856
 30
0.0
 10
14.6923922249
 20
13.4029705546
 30
0.0
  0
SPLINE
  5
2CF
100
AcDbEntity
  8
LAYER_FEATURE
100
AcDbSpline
 62
7
  6
CONTINUOUS
 70
0
 71
3
 72
15
 73
11
 74
0
 42
0.0000001
 43
0.0000001
 44
0.0000000001
 40
0.0
 40
0.0
 40
0.0
 40
0.0
 40
0.127054225
 40
0.2553208736
 40
0.3838964072
 40
0.5118681719
 40
0.6383329915
 40
0.7624062911
 40
0.8832317214
 40
1.0
 40
1.0
 40
1.0
 40
1.0
 10
14.7068462868
 20
13.2899960386
 30
0.0
 10
14.707080778
 20
13.2927706921
 30
0.0
 10
14.7074482917
 20
13.2983557438
 30
0.0
 10
14.7076986573
 20
13.3067672553
 30
0.0
 10
14.707649986
 20
13.3152025684
 30
0.0
 10
14.7073026528
 20
13.3235913413
 30
0.0
 10
14.7066595946
 20
13.3318637327
 30
0.0
 10
14.7057262108
 20
13.3399509291
 30
0.0
 10
14.7045104166
 20
13.3477855131
 30
0.0
 10
14.7034988856
 20
13.3528954342
 30
0.0
 10
14.7029447408
 20
13.355393833
 30
0.0
  0
SPLINE
  5
2D0
100
AcDbEntity
  8
LAYER_FEATURE
100
AcDbSpline
 62
7
  6
CONTINUOUS
 70
0
 71
3
 72
39
 73
35
 74
0
 42
0.0000001
 43
0.0000001
 44
0.0000000001
 40
0.0
 40
0.0
 40
0.0
 40
0.0
 40
0.0443812481
 40
0.0879669295
 40
0.1307335086
 40
0.172661876
 40
0.2137331571
 40
0.2539301992
 40
0.2932376968
 40
0.3316421073
 40
0.369131911
 40
0.4056977099
 40
0.4413323968
 40
0.4760313903
 40
0.5097927974
 40
0.5426176342
 40
0.5745101269
 40
0.6054779669
 40
0.6355325892
 40
0.664689538
 40
0.6929688298
 40
0.7203952869
 40
0.7469989387
 40
0.7728154376
 40
0.7978863828
 40
0.8222596394
 40
0.8459896168
 40
0.869137373
 40
0.8917705712
 40
0.9139632708
 40
0.935795451
 40
0.9573522592
 40
0.9787230199
 40
1.0
 40
1.0
 40
1.0
 40
1.0
 10
14.5799171583
 20
13.4603142194
 30
0.0
 10
14.5833532933
 20
13.4714335565
 30
0.0
 10
14.5903420238
 20
13.4934183997
 30
0.0
 10
14.6012780156
 20
13.5259114693
 30
0.0
 10
14.6125654186
 20
13.5576023539
 30
0.0
 10
14.6241951429
 20
13.5884656777
 30
0.0
 10
14.6361580992
 20
13.6184773105
 30
0.0
 10
14.6484448166
 20
13.6476135203
 30
0.0
 10
14.6610456034
 20
13.6758513191
 30
0.0
 10
14.6739505421
 20
13.703168449
 30
0.0
 10
14.6871494473
 20
13.7295433868
 30
0.0
 10
14.7006319377
 20
13.7549553516
 30
0.0
 10
14.7143874359
 20
13.7793843203
 30
0.0
 10
14.7284051273
 20
13.802811074
 30
0.0
 10
14.7426740256
 20
13.8252171814
 30
0.0
 10
14.7571829941
 20
13.846585
 30
0.0
 10
14.771920702
 20
13.8668977278
 30
0.0
 10
14.7868756684
 20
13.8861393939
 30
0.0
 10
14.8020363037
 20
13.9042948357
 30
0.0
 10
14.8173908835
 20
13.9213497345
 30
0.0
 10
14.8329275486
 20
13.9372906321
 30
0.0
 10
14.8486343626
 20
13.9521048773
 30
0.0
 10
14.8644993015
 20
13.965780629
 30
0.0
 10
14.8805102065
 20
13.978306906
 30
0.0
 10
14.8966548341
 20
13.9896735125
 30
0.0
 10
14.9129208384
 20
13.9998710119
 30
0.0
 10
14.9292956932
 20
14.0088908044
 30
0.0
 10
14.9457666967
 20
14.0167250876
 30
0.0
 10
14.962320932
 20
14.0233668314
 30
0.0
 10
14.9789452301
 20
14.028809891
 30
0.0
 10
14.9956260079
 20
14.0330490852
 30
0.0
 10
15.0123497933
 20
14.0360802013
 30
0.0
 10
15.0291013641
 20
14.0379001104
 30
0.0
 10
15.0402891176
 20
14.0383049898
 30
0.0
 10
15.0458686096
 20
14.0383049843
 30
0.0
  0
SPLINE
  5
2D1
100
AcDbEntity
  8
02___PRT_ALL_AXES
100
AcDbSpline
 62
7
  6
CONTINUOUS
 70
0
 71
3
 72
15
 73
11
 74
0
 42
0.0000001
 43
0.0000001
 44
0.0000000001
 40
0.0
 40
0.0
 40
0.0
 40
0.0
 40
0.1342987959
 40
0.264798317
 40
0.3920025367
 40
0.5164815661
 40
0.6388501983
 40
0.7597652933
 40
0.8799141043
 40
1.0
 40
1.0
 40
1.0
 40
1.0
 10
15.8776043631
 20
11.6892921402
 30
0.0
 10
15.8741960005
 20
11.6872419415
 30
0.0
 10
15.8673447095
 20
11.6834118099
 30
0.0
 10
15.8568381552
 20
11.6784506079
 30
0.0
 10
15.846270068
 20
11.6743674964
 30
0.0
 10
15.8356524068
 20
11.6711680634
 30
0.0
 10
15.8249966757
 20
11.6688566182
 30
0.0
 10
15.8143147303
 20
11.6674365047
 30
0.0
 10
15.8036198759
 20
11.6669097454
 30
0.0
 10
15.7964994157
 20
11.6671544783
 30
0.0
 10
15.792953099
 20
11.6674238259
 30
0.0
  0
SPLINE
  5
2D2
100
AcDbEntity
  8
02___PRT_ALL_AXES
100
AcDbSpline
 62
7
  6
CONTINUOUS
 70
0
 71
3
 72
25
 73
21
 74
0
 42
0.0000001
 43
0.0000001
 44
0.0000000001
 40
0.0
 40
0.0
 40
0.0
 40
0.0
 40
0.0894094958
 40
0.1761934296
 40
0.2599832928
 40
0.3404388721
 40
0.4172547983
 40
0.4901665287
 40
0.558958407
 40
0.6234734128
 40
0.6836257641
 40
0.7394172901
 40
0.7909587449
 40
0.838496766
 40
0.8824453935
 40
0.9234164867
 40
0.9430539373
 40
0.9622739223
 40
0.9812091587
 40
1.0
 40
1.0
 40
1.0
 40
1.0
 10
15.7844206361
 20
13.3532529656
 30
0.0
 10
15.7839780662
 20
13.3560925565
 30
0.0
 10
15.7830154148
 20
13.3616747655
 30
0.0
 10
15.7813113663
 20
13.3698575029
 30
0.0
 10
15.7793760115
 20
13.3776927904
 30
0.0
 10
15.777220076
 20
13.3851375007
 30
0.0
 10
15.7748554641
 20
13.3921508805
 30
0.0
 10
15.7722951693
 20
13.3986946368
 30
0.0
 10
15.769553157
 20
13.4047332105
 30
0.0
 10
15.7666441948
 20
13.4102339871
 30
0.0
 10
15.7635836497
 20
13.4151674734
 30
0.0
 10
15.7603871461
 20
13.4195073976
 30
0.0
 10
15.7570703603
 20
13.4232305929
 30
0.0
 10
15.7536481455
 20
13.4263166661
 30
0.0
 10
15.750136271
 20
13.4287467565
 30
0.0
 10
15.747103038
 20
13.4302310104
 30
0.0
 10
15.7446689383
 20
13.4310520336
 30
0.0
 10
15.7428601522
 20
13.4314867785
 30
0.0
 10
15.7410458929
 20
13.4317479497
 30
0.0
 10
15.7398324804
 20
13.4318061188
 30
0.0
 10
15.7392284899
 20
13.431806114
 30
0.0
  0
ENDSEC
  0
SECTION
  2
OBJECTS
  0
DICTIONARY
  5
C
100
AcDbDictionary
280
0
281
1
  3
ACAD_GROUP
350
D
  3
ACAD_MLINESTYLE
350
17
  3
ACAD_LAYOUT
350
1A
  3
ACAD_PLOTSETTINGS
350
19
  3
ACAD_PLOTSTYLENAME
350
E
  0
DICTIONARY
  5
D
102
{ACAD_REACTORS
330
C
102
}
100
AcDbDictionary
280
0
281
1
  0
ACDBDICTIONARYWDFLT
  5
E
102
{ACAD_REACTORS
330
C
102
}
100
AcDbDictionary
281
1
  3
Normal
350
F
100
AcDbDictionaryWithDefault
340
F
  0
DICTIONARY
  5
17
102
{ACAD_REACTORS
330
C
102
}
100
AcDbDictionary
280
0
281
1
  3
Standard
350
18
  0
DICTIONARY
  5
19
102
{ACAD_REACTORS
330
C
102
}
100
AcDbDictionary
281
1
  0
DICTIONARY
  5
1A
102
{ACAD_REACTORS
330
C
102
}
100
AcDbDictionary
281
1
  3
Model
350
2D3
  3
Layout1
350
2D4
  0
ACDBPLACEHOLDER
  5
F
102
{ACAD_REACTORS
330
E
102
}
  0
MLINESTYLE
  5
18
102
{ACAD_REACTORS
330
17
102
}
100
AcDbMlineStyle
  2
STANDARD
 70
0
  3

 62
256
 51
90.0
 52
90.0
 71
2
 49
0.5
 62
256
  6
BYLAYER
 49
-0.5
 62
256
  6
BYLAYER
  0
LAYOUT
  5
2D3
102
{ACAD_REACTORS
330
1A
102
}
100
AcDbPlotSettings
  1

  2
none_device
  4
ANSI_C_(22.00_x_17.00_Inches)
  6

 40
0.0
 41
0.0
 42
0.0
 43
0.0
 44
558.8
 45
431.8
 46
0.0
 47
0.0
 48
0.0
 49
0.0
140
0.0
141
0.0
142
1.0
143
1.0
 70
1024
 72
0
 73
0
 74
0
  7

 75
0
147
1.0
148
0.0
149
0.0
100
AcDbLayout
  1
Model
 70
0
 71
0
 10
0.0
 20
0.0
 11
22.0
 21
17.0
 12
0.0
 22
0.0
 32
0.0
 14
0.0
 24
0.0
 34
0.0
 15
0.0
 25
0.0
 35
0.0
146
0.0
 13
0.0
 23
0.0
 33
0.0
 16
1.0
 26
0.0
 36
0.0
 17
0.0
 27
1.0
 37
0.0
 76
0
330
222
345
0
346
0
  0
LAYOUT
  5
2D4
102
{ACAD_REACTORS
330
1A
102
}
100
AcDbPlotSettings
  1

  2
none_device
  4
ANSI_C_(22.00_x_17.00_Inches)
  6

 40
0.0
 41
0.0
 42
0.0
 43
0.0
 44
558.8
 45
431.8
 46
0.0
 47
0.0
 48
0.0
 49
0.0
140
0.0
141
0.0
142
1.0
143
1.0
 70
0
 72
0
 73
0
 74
0
  7

 75
0
147
1.0
148
0.0
149
0.0
100
AcDbLayout
  1
Layout1
 70
0
 71
1
 10
0.0
 20
0.0
 11
22.0
 21
17.0
 12
0.0
 22
0.0
 32
0.0
 14
0.0
 24
0.0
 34
0.0
 15
0.0
 25
0.0
 35
0.0
146
0.0
 13
0.0
 23
0.0
 33
0.0
 16
1.0
 26
0.0
 36
0.0
 17
0.0
 27
1.0
 37
0.0
 76
0
330
223
345
0
346
0
  0
ENDSEC
  0
EOF