999
DXF file: _cgs_temp_output.dxf
999
Pro/ENGINEER 2016360 by Parametric Technology Corporation
  0
SECTION
  2
HEADER
  9
$ACADVER
  1
AC1021
  9
$DWGCODEPAGE
  3
ANSI_1252
  9
$EXTMAX
 10
22.0
 20
17.0
 30
0.0
  9
$EXTMIN
 10
0.0
 20
0.0
 30
0.0
  9
$LIMMIN
 10
0.0
 20
0.0
  9
$LIMMAX
 10
22.0
 20
17.0
  9
$VIEWCTR
 10
11.0
 20
8.5
  9
$VIEWSIZE
 40
17.0
  9
$CLAYER
  8
0
  9
$LTSCALE
 40
1.21
  9
$CELTYPE
  6
BYLAYER
  9
$DIMSCALE
 40
1.0
  9
$DIMASZ
 40
0.1875
  9
$DIMEXO
 40
0.0625
  9
$DIMDLI
 40
0.836
  9
$DIMEXE
 40
0.125
  9
$DIMCEN
 40
0.198
  9
$DIMLFAC
 40
1.0
  9
$DIMBLK
  1
_CLOSED
  9
$DIMALT
 70
0
  9
$DIMALTF
 40
25.4
  9
$DIMTXT
 40
0.15625
  9
$DIMTOL
 70
0
  9
$DIMLIM
 70
0
  9
$DIMTFAC
 40
1.0
  9
$DIMGAP
 40
0.09
  9
$DIMDSEP
 70
46
  9
$AUNITS
 70
0
  9
$PDMODE
 70
3
  9
$PDSIZE
 40
0.3125
  9
$HANDSEED
  5
2D4
  9
$TILEMODE
 70
1
  9
$MEASUREMENT
 70
0
  9
$INSUNITS
 70
1
  0
ENDSEC
  0
SECTION
  2
CLASSES
  0
CLASS
  1
ACDBDICTIONARYWDFLT
  2
AcDbDictionaryWithDefault
  3
AutoCAD 2000
 90
0
 91
1
280
0
281
0
  0
CLASS
  1
ACDBPLACEHOLDER
  2
AcDbPlaceHolder
  3
AutoCAD 2000
 90
0
 91
1
280
0
281
0
  0
CLASS
  1
LAYOUT
  2
AcDbLayout
  3
AutoCAD 2000
 90
0
 91
0
280
0
281
0
  0
ENDSEC
  0
SECTION
  2
TABLES
  0
TABLE
  2
VPORT
  5
8
100
AcDbSymbolTable
 70
2
  0
VPORT
  5
1F4
100
AcDbSymbolTableRecord
100
AcDbViewportTableRecord
  2
*ACTIVE
 70
0
 10
0.0
 20
0.0
 11
1.0
 21
1.0
 12
11.0
 22
8.5
 13
0.0
 23
0.0
 14
1.0
 24
1.0
 15
0.0
 25
0.0
 16
0.0
 26
0.0
 36
1.0
 17
0.0
 27
0.0
 37
0.0
 40
17.0
 41
1.2941176471
 42
50.0
 43
0.0
 44
0.0
 50
0.0
 51
0.0
 71
0
 72
100
 73
1
 74
1
 75
0
 76
0
 77
0
 78
0
  0
ENDTAB
  0
TABLE
  2
LTYPE
  5
5
100
AcDbSymbolTable
 70
6
  0
LTYPE
  5
14
100
AcDbSymbolTableRecord
100
AcDbLinetypeTableRecord
  2
BYBLOCK
 70
0
  3

 72
65
 73
0
 40
0.0
  0
LTYPE
  5
15
100
AcDbSymbolTableRecord
100
AcDbLinetypeTableRecord
  2
BYLAYER
 70
0
  3

 72
65
 73
0
 40
0.0
  0
LTYPE
  5
16
100
AcDbSymbolTableRecord
100
AcDbLinetypeTableRecord
  2
CONTINUOUS
 70
64
  3
Solid line
 72
65
 73
0
 40
0.0
  0
LTYPE
  5
1F5
100
AcDbSymbolTableRecord
100
AcDbLinetypeTableRecord
  2
CENTER
 70
64
  3
____ _ ____ _ ____ _ ____ _ ____ _ ____ _ ____
 72
65
 73
4
 40
0.6
 49
0.375
 74
0
 49
-0.075
 74
0
 49
0.075
 74
0
 49
-0.075
 74
0
  0
LTYPE
  5
1F6
100
AcDbSymbolTableRecord
100
AcDbLinetypeTableRecord
  2
HIDDEN
 70
64
  3
- - - - - - - - - - - - - - - - - - - -
 72
65
 73
2
 40
0.2
 49
0.1
 74
0
 49
-0.1
 74
0
  0
LTYPE
  5
1F7
100
AcDbSymbolTableRecord
100
AcDbLinetypeTableRecord
  2
PHANTOM
 70
64
  3
_____ _ _ _____ _ _ _____ _ _ _____
 72
65
 73
6
 40
0.8
 49
0.45
 74
0
 49
-0.05
 74
0
 49
0.1
 74
0
 49
-0.05
 74
0
 49
0.1
 74
0
 49
-0.05
 74
0
  0
LTYPE
  5
1F8
100
AcDbSymbolTableRecord
100
AcDbLinetypeTableRecord
  2
DOT
 70
64
  3
. . . . . . . . . . . . . . . . . . . .
 72
65
 73
2
 40
0.2
 49
0.1
 74
0
 49
-0.1
 74
0
  0
LTYPE
  5
1F9
100
AcDbSymbolTableRecord
100
AcDbLinetypeTableRecord
  2
DASHED
 70
64
  3
- - - - - - - - - - - - - - - - - - - -
 72
65
 73
2
 40
0.2
 49
0.1
 74
0
 49
-0.1
 74
0
  0
ENDTAB
  0
TABLE
  2
LAYER
  5
2
100
AcDbSymbolTable
 70
36
  0
LAYER
  5
10
100
AcDbSymbolTableRecord
100
AcDbLayerTableRecord
  2
0
 70
0
 62
7
  6
CONTINUOUS
370
-3
390
F
  0
LAYER
  5
1FA
100
AcDbSymbolTableRecord
100
AcDbLayerTableRecord
  2
DEFAULT_1
 70
0
 62
7
  6
CENTER
370
-3
390
F
  0
LAYER
  5
1FB
100
AcDbSymbolTableRecord
100
AcDbLayerTableRecord
  2
DEFAULT_2
 70
0
 62
8
  6
HIDDEN
370
-3
390
F
  0
LAYER
  5
1FC
100
AcDbSymbolTableRecord
100
AcDbLayerTableRecord
  2
DEFAULT_3
 70
0
 62
7
  6
PHANTOM
370
-3
390
F
  0
LAYER
  5
1FD
100
AcDbSymbolTableRecord
100
AcDbLayerTableRecord
  2
01_ALL_DTM_PLN
 70
0
 62
7
  6
CONTINUOUS
370
-3
390
F
  0
LAYER
  5
1FE
100
AcDbSymbolTableRecord
100
AcDbLayerTableRecord
  2
01__ASM_ALL_DTM_PLN
 70
0
 62
7
  6
CONTINUOUS
370
-3
390
F
  0
LAYER
  5
1FF
100
AcDbSymbolTableRecord
100
AcDbLayerTableRecord
  2
01__ASM_DEF_DTM_PLN
 70
0
 62
7
  6
CONTINUOUS
370
-3
390
F
  0
LAYER
  5
200
100
AcDbSymbolTableRecord
100
AcDbLayerTableRecord
  2
01___PRT_ALL_DTM_PLN
 70
0
 62
7
  6
CONTINUOUS
370
-3
390
F
  0
LAYER
  5
201
100
AcDbSymbolTableRecord
100
AcDbLayerTableRecord
  2
01___PRT_DEF_DTM_PLN
 70
0
 62
7
  6
CONTINUOUS
370
-3
390
F
  0
LAYER
  5
202
100
AcDbSymbolTableRecord
100
AcDbLayerTableRecord
  2
02_ALL_AXES
 70
0
 62
7
  6
CONTINUOUS
370
-3
390
F
  0
LAYER
  5
203
100
AcDbSymbolTableRecord
100
AcDbLayerTableRecord
  2
02__ASM_ALL_AXES
 70
0
 62
7
  6
CONTINUOUS
370
-3
390
F
  0
LAYER
  5
204
100
AcDbSymbolTableRecord
100
AcDbLayerTableRecord
  2
02___PRT_ALL_AXES
 70
0
 62
7
  6
CONTINUOUS
370
-3
390
F
  0
LAYER
  5
205
100
AcDbSymbolTableRecord
100
AcDbLayerTableRecord
  2
03_ALL_CURVES
 70
0
 62
7
  6
CONTINUOUS
370
-3
390
F
  0
LAYER
  5
206
100
AcDbSymbolTableRecord
100
AcDbLayerTableRecord
  2
03__ASM_ALL_CURVES
 70
0
 62
7
  6
CONTINUOUS
370
-3
390
F
  0
LAYER
  5
207
100
AcDbSymbolTableRecord
100
AcDbLayerTableRecord
  2
03___PRT_ALL_CURVES
 70
0
 62
7
  6
CONTINUOUS
370
-3
390
F
  0
LAYER
  5
208
100
AcDbSymbolTableRecord
100
AcDbLayerTableRecord
  2
04_ALL_DTM_PNT
 70
0
 62
7
  6
CONTINUOUS
370
-3
390
F
  0
LAYER
  5
209
100
AcDbSymbolTableRecord
100
AcDbLayerTableRecord
  2
04__ASM_ALL_DTM_PNT
 70
0
 62
7
  6
CONTINUOUS
370
-3
390
F
  0
LAYER
  5
20A
100
AcDbSymbolTableRecord
100
AcDbLayerTableRecord
  2
04___PRT_ALL_DTM_PNT
 70
0
 62
7
  6
CONTINUOUS
370
-3
390
F
  0
LAYER
  5
20B
100
AcDbSymbolTableRecord
100
AcDbLayerTableRecord
  2
05_ALL_DTM_CSYS
 70
0
 62
7
  6
CONTINUOUS
370
-3
390
F
  0
LAYER
  5
20C
100
AcDbSymbolTableRecord
100
AcDbLayerTableRecord
  2
05__ASM_ALL_DTM_CSYS
 70
0
 62
7
  6
CONTINUOUS
370
-3
390
F
  0
LAYER
  5
20D
100
AcDbSymbolTableRecord
100
AcDbLayerTableRecord
  2
05__ASM_DEF_DTM_CSYS
 70
0
 62
7
  6
CONTINUOUS
370
-3
390
F
  0
LAYER
  5
20E
100
AcDbSymbolTableRecord
100
AcDbLayerTableRecord
  2
05___PRT_ALL_DTM_CSYS
 70
0
 62
7
  6
CONTINUOUS
370
-3
390
F
  0
LAYER
  5
20F
100
AcDbSymbolTableRecord
100
AcDbLayerTableRecord
  2
05___PRT_DEF_DTM_CSYS
 70
0
 62
7
  6
CONTINUOUS
370
-3
390
F
  0
LAYER
  5
210
100
AcDbSymbolTableRecord
100
AcDbLayerTableRecord
  2
06_ALL_SURFS
 70
0
 62
7
  6
CONTINUOUS
370
-3
390
F
  0
LAYER
  5
211
100
AcDbSymbolTableRecord
100
AcDbLayerTableRecord
  2
06__ASM_ALL_SURFS
 70
0
 62
7
  6
CONTINUOUS
370
-3
390
F
  0
LAYER
  5
212
100
AcDbSymbolTableRecord
100
AcDbLayerTableRecord
  2
06___PRT_ALL_SURFS
 70
0
 62
7
  6
CONTINUOUS
370
-3
390
F
  0
LAYER
  5
213
100
AcDbSymbolTableRecord
100
AcDbLayerTableRecord
  2
07__ASM_ALL_SKELETONS
 70
0
 62
7
  6
CONTINUOUS
370
-3
390
F
  0
LAYER
  5
214
100
AcDbSymbolTableRecord
100
AcDbLayerTableRecord
  2
LAYER_AXIS
 70
0
 62
7
  6
CONTINUOUS
370
-3
390
F
  0
LAYER
  5
215
100
AcDbSymbolTableRecord
100
AcDbLayerTableRecord
  2
LAYER_CHAMFER_FEAT
 70
0
 62
7
  6
CONTINUOUS
370
-3
390
F
  0
LAYER
  5
216
100
AcDbSymbolTableRecord
100
AcDbLayerTableRecord
  2
LAYER_CUT_FEAT
 70
0
 62
7
  6
CONTINUOUS
370
-3
390
F
  0
LAYER
  5
217
100
AcDbSymbolTableRecord
100
AcDbLayerTableRecord
  2
LAYER_DATUM
 70
0
 62
7
  6
CONTINUOUS
370
-3
390
F
  0
LAYER
  5
218
100
AcDbSymbolTableRecord
100
AcDbLayerTableRecord
  2
LAYER_DIM
 70
0
 62
7
  6
CONTINUOUS
370
-3
390
F
  0
LAYER
  5
219
100
AcDbSymbolTableRecord
100
AcDbLayerTableRecord
  2
LAYER_FEATURE
 70
0
 62
7
  6
CONTINUOUS
370
-3
390
F
  0
LAYER
  5
21A
100
AcDbSymbolTableRecord
100
AcDbLayerTableRecord
  2
LAYER_GEOM_FEAT
 70
0
 62
7
  6
CONTINUOUS
370
-3
390
F
  0
LAYER
  5
21B
100
AcDbSymbolTableRecord
100
AcDbLayerTableRecord
  2
LAYER_NOGEOM_FEAT
 70
0
 62
7
  6
CONTINUOUS
370
-3
390
F
  0
LAYER
  5
21C
100
AcDbSymbolTableRecord
100
AcDbLayerTableRecord
  2
LAYER_PARAMETER_DIM
 70
0
 62
7
  6
CONTINUOUS
370
-3
390
F
  0
LAYER
  5
21D
100
AcDbSymbolTableRecord
100
AcDbLayerTableRecord
  2
LAYER_PROTRUSION_FEAT
 70
0
 62
7
  6
CONTINUOUS
370
-3
390
F
  0
LAYER
  5
21E
100
AcDbSymbolTableRecord
100
AcDbLayerTableRecord
  2
LAYER_QUILT
 70
0
 62
7
  6
CONTINUOUS
370
-3
390
F
  0
LAYER
  5
21F
100
AcDbSymbolTableRecord
100
AcDbLayerTableRecord
  2
LAYER_ROUND_FEAT
 70
0
 62
7
  6
CONTINUOUS
370
-3
390
F
  0
ENDTAB
  0
TABLE
  2
STYLE
  5
3
100
AcDbSymbolTable
 70
1
  0
STYLE
  5
11
100
AcDbSymbolTableRecord
100
AcDbTextStyleTableRecord
  2
STANDARD
 70
0
 40
0.0
 41
0.8
 50
0.0
 71
0
 42
0.2
  3
txt
  4

  0
STYLE
  5
220
100
AcDbSymbolTableRecord
100
AcDbTextStyleTableRecord
  2
TEXTSTYLE_1
 70
0
 40
0.0
 41
0.8
 50
0.0
 71
0
 42
0.2
  3
gdt
  4

  0
ENDTAB
  0
TABLE
  2
VIEW
  5
6
100
AcDbSymbolTable
 70
0
  0
ENDTAB
  0
TABLE
  2
UCS
  5
7
100
AcDbSymbolTable
 70
0
  0
ENDTAB
  0
TABLE
  2
APPID
  5
9
100
AcDbSymbolTable
 70
1
  0
APPID
  5
221
100
AcDbSymbolTableRecord
100
AcDbRegAppTableRecord
  2
ACAD
 70
0
  0
ENDTAB
  0
TABLE
  2
BLOCK_RECORD
  5
1
100
AcDbSymbolTable
 70
0
  0
BLOCK_RECORD
  5
222
100
AcDbSymbolTableRecord
100
AcDbBlockTableRecord
  2
*Model_Space
  0
BLOCK_RECORD
  5
223
100
AcDbSymbolTableRecord
100
AcDbBlockTableRecord
  2
*Paper_Space
  0
ENDTAB
  0
TABLE
  2
DIMSTYLE
  5
A
100
AcDbSymbolTable
 70
1
100
AcDbDimStyleTable
 71
0
  0
DIMSTYLE
105
224
100
AcDbSymbolTableRecord
100
AcDbDimStyleTableRecord
  2
STANDARD
 70
0
  3

  4

 40
1.0
 41
0.1875
 42
0.0625
 43
0.38
 44
0.125
 45
0.0
 46
0.0
 47
0.0001
 48
0.0001
140
0.15625
141
0.09
142
0.0
143
25.4
144
1.0
145
0.0
146
1.0
147
0.09
 71
0.0
 72
0.0
 73
1
 74
1
 75
0
 76
0
 77
0
 78
4
 79
1
170
0
171
3
172
0
173
0
174
0
175
0
176
0
177
0
178
0
270
2
179
4
271
4
272
4
273
2
274
2
275
0
280
0
281
0
282
0
283
1
284
4
285
0
286
0
287
3
288
0
340
11
278
46
  0
ENDTAB
  0
ENDSEC
  0
SECTION
  2
BLOCKS
  0
BLOCK
  5
20
100
AcDbEntity
  8
0
100
AcDbBlockBegin
  2
*Model_Space
 70
0
 10
0.0
 20
0.0
 30
0.0
  3
*Model_Space
  1

  0
ENDBLK
  5
21
100
AcDbEntity
  8
0
100
AcDbBlockEnd
  0
BLOCK
  5
1C
100
AcDbEntity
  8
0
100
AcDbBlockBegin
  2
*Paper_Space
 70
0
 10
0.0
 20
0.0
 30
0.0
  3
*Paper_Space
  1

  0
ENDBLK
  5
1D
100
AcDbEntity
  8
0
100
AcDbBlockEnd
  0
ENDSEC
  0
SECTION
  2
ENTITIES
  0
MTEXT
  5
225
100
AcDbEntity
  8
0
100
AcDbMText
 62
7
  6
CONTINUOUS
  7
STANDARD
 71
1
 72
1
 10
15.9560215477
 20
0.9479130325
 30
0.0
 11
1.0
 21
0.0
 31
0.0
 44
0.9
  1
SCALE: 1:0.500
 40
0.3
 41
3.36
  0
LINE
  5
226
100
AcDbEntity
  8
0
100
AcDbLine
 62
7
  6
CONTINUOUS
 10
0.0
 20
0.0
 11
0.0
 21
17.0
  0
LINE
  5
227
100
AcDbEntity
  8
0
100
AcDbLine
 62
7
  6
CONTINUOUS
 10
0.0
 20
0.0
 11
22.0
 21
0.0
  0
LINE
  5
228
100
AcDbEntity
  8
0
100
AcDbLine
 62
7
  6
CONTINUOUS
 10
0.0
 20
17.0
 11
22.0
 21
17.0
  0
LINE
  5
229
100
AcDbEntity
  8
0
100
AcDbLine
 62
7
  6
CONTINUOUS
 10
22.0
 20
0.0
 11
22.0
 21
17.0
  0
LINE
  5
22A
100
AcDbEntity
  8
LAYER_FEATURE
100
AcDbLine
 62
7
  6
CONTINUOUS
 10
6.6533672762
 20
3.7276198968
 11
6.5920268405
 21
3.7276198968
  0
LINE
  5
22B
100
AcDbEntity
  8
LAYER_FEATURE
100
AcDbLine
 62
7
  6
CONTINUOUS
 10
5.6073672762
 20
3.7276198968
 11
5.6687077119
 21
3.7276198968
  0
LINE
  5
22C
100
AcDbEntity
  8
02___PRT_ALL_AXES
100
AcDbLine
 62
7
  6
CONTINUOUS
 10
5.6953672762
 20
3.8808698968
 11
6.5653672762
 21
3.8808698968
  0
LINE
  5
22D
100
AcDbEntity
  8
LAYER_FEATURE
100
AcDbLine
 62
7
  6
CONTINUOUS
 10
5.6073672762
 20
7.3126198968
 11
5.6073672762
 21
3.7276198968
  0
LINE
  5
22E
100
AcDbEntity
  8
LAYER_FEATURE
100
AcDbLine
 62
7
  6
CONTINUOUS
 10
5.6687077119
 20
7.3126198968
 11
5.6687077119
 21
3.7276198968
  0
LINE
  5
22F
100
AcDbEntity
  8
LAYER_FEATURE
100
AcDbLine
 62
7
  6
CONTINUOUS
 10
5.6953672762
 20
7.1871965078
 11
5.6953672762
 21
3.8530432857
  0
LINE
  5
230
100
AcDbEntity
  8
LAYER_FEATURE
100
AcDbLine
 62
7
  6
CONTINUOUS
 10
5.6687077119
 20
3.7276198968
 11
5.6953672762
 21
3.8530432857
  0
LINE
  5
231
100
AcDbEntity
  8
LAYER_FEATURE
100
AcDbLine
 62
7
  6
CONTINUOUS
 10
5.6687077119
 20
7.3126198968
 11
5.6953672762
 21
7.1871965078
  0
LINE
  5
232
100
AcDbEntity
  8
LAYER_FEATURE
100
AcDbLine
 62
7
  6
CONTINUOUS
 10
6.5920268405
 20
7.3126198968
 11
6.5653672762
 21
7.1871965078
  0
LINE
  5
233
100
AcDbEntity
  8
LAYER_FEATURE
100
AcDbLine
 62
7
  6
CONTINUOUS
 10
6.5920268405
 20
3.7276198968
 11
6.5653672762
 21
3.8530432857
  0
LINE
  5
234
100
AcDbEntity
  8
LAYER_FEATURE
100
AcDbLine
 62
7
  6
CONTINUOUS
 10
6.5653672762
 20
7.1871965078
 11
6.5653672762
 21
3.8530432857
  0
LINE
  5
235
100
AcDbEntity
  8
LAYER_FEATURE
100
AcDbLine
 62
7
  6
CONTINUOUS
 10
6.5920268405
 20
7.3126198968
 11
6.5920268405
 21
3.7276198968
  0
LINE
  5
236
100
AcDbEntity
  8
LAYER_FEATURE
100
AcDbLine
 62
7
  6
CONTINUOUS
 10
6.6533672762
 20
7.3126198968
 11
6.6533672762
 21
3.7276198968
  0
LINE
  5
237
100
AcDbEntity
  8
LAYER_FEATURE
100
AcDbLine
 62
7
  6
CONTINUOUS
 10
5.6953672762
 20
6.9041830719
 11
6.5653672762
 21
6.9041830719
  0
LINE
  5
238
100
AcDbEntity
  8
0
100
AcDbLine
 62
7
  6
CONTINUOUS
 10
5.6953672762
 20
6.9064981926
 11
6.5653672762
 21
6.9064981926
  0
LINE
  5
239
100
AcDbEntity
  8
LAYER_FEATURE
100
AcDbLine
 62
7
  6
CONTINUOUS
 10
5.6953672762
 20
7.0124611038
 11
6.5653672762
 21
7.0124611038
  0
LINE
  5
23A
100
AcDbEntity
  8
LAYER_FEATURE
100
AcDbLine
 62
7
  6
CONTINUOUS
 10
5.6953672762
 20
7.0298789401
 11
6.5653672762
 21
7.0298789401
  0
LINE
  5
23B
100
AcDbEntity
  8
0
100
AcDbLine
 62
7
  6
CONTINUOUS
 10
5.6953672762
 20
7.0309197062
 11
6.5653672762
 21
7.0309197062
  0
LINE
  5
23C
100
AcDbEntity
  8
LAYER_FEATURE
100
AcDbLine
 62
7
  6
CONTINUOUS
 10
5.6953672762
 20
7.1037480694
 11
6.5653672762
 21
7.1037480694
  0
LINE
  5
23D
100
AcDbEntity
  8
LAYER_FEATURE
100
AcDbLine
 62
7
  6
CONTINUOUS
 10
5.6953672762
 20
7.1143925173
 11
6.5653672762
 21
7.1143925173
  0
LINE
  5
23E
100
AcDbEntity
  8
0
100
AcDbLine
 62
7
  6
CONTINUOUS
 10
5.6953672762
 20
7.1146544953
 11
6.5653672762
 21
7.1146544953
  0
LINE
  5
23F
100
AcDbEntity
  8
LAYER_FEATURE
100
AcDbLine
 62
7
  6
CONTINUOUS
 10
5.6953672762
 20
7.1518377866
 11
6.5653672762
 21
7.1518377866
  0
LINE
  5
240
100
AcDbEntity
  8
LAYER_FEATURE
100
AcDbLine
 62
7
  6
CONTINUOUS
 10
5.6953672762
 20
7.1554184933
 11
6.5653672762
 21
7.1554184933
  0
LINE
  5
241
100
AcDbEntity
  8
LAYER_FEATURE
100
AcDbLine
 62
7
  6
CONTINUOUS
 10
6.6533672762
 20
7.3126198968
 11
6.5920268405
 21
7.3126198968
  0
LINE
  5
242
100
AcDbEntity
  8
LAYER_FEATURE
100
AcDbLine
 62
7
  6
CONTINUOUS
 10
5.6073672762
 20
7.3126198968
 11
5.6687077119
 21
7.3126198968
  0
LINE
  5
243
100
AcDbEntity
  8
LAYER_FEATURE
100
AcDbLine
 62
7
  6
CONTINUOUS
 10
5.5478720839
 20
10.8075477814
 11
5.6092125196
 21
10.8075477814
  0
LINE
  5
244
100
AcDbEntity
  8
LAYER_FEATURE
100
AcDbLine
 62
7
  6
CONTINUOUS
 10
6.5325316482
 20
10.8075477814
 11
6.5938720839
 21
10.8075477814
  0
LINE
  5
245
100
AcDbEntity
  8
02___PRT_ALL_AXES
100
AcDbLine
 62
7
  6
CONTINUOUS
 10
5.6358720839
 20
10.9607977814
 11
6.5058720839
 21
10.9607977814
  0
LINE
  5
246
100
AcDbEntity
  8
LAYER_FEATURE
100
AcDbLine
 62
7
  6
CONTINUOUS
 10
5.6358720839
 20
11.7216915383
 11
6.5058720839
 21
11.7216915383
  0
LINE
  5
247
100
AcDbEntity
  8
LAYER_FEATURE
100
AcDbLine
 62
7
  6
CONTINUOUS
 10
6.5058720839
 20
11.8489384735
 11
5.6358720839
 21
11.8489384735
  0
LINE
  5
248
100
AcDbEntity
  8
LAYER_FEATURE
100
AcDbLine
 62
7
  6
CONTINUOUS
 10
6.5058720839
 20
11.9017068985
 11
5.6358720839
 21
11.9017068985
  0
LINE
  5
249
100
AcDbEntity
  8
0
100
AcDbLine
 62
7
  6
CONTINUOUS
 10
5.6358720839
 20
11.9117055856
 11
6.5058720839
 21
11.9117055856
  0
LINE
  5
24A
100
AcDbEntity
  8
LAYER_FEATURE
100
AcDbLine
 62
7
  6
CONTINUOUS
 10
5.6358720839
 20
11.9217718167
 11
6.5058720839
 21
11.9217718167
  0
LINE
  5
24B
100
AcDbEntity
  8
LAYER_FEATURE
100
AcDbLine
 62
7
  6
CONTINUOUS
 10
5.6358720839
 20
11.9614804838
 11
6.5058720839
 21
11.9614804838
  0
LINE
  5
24C
100
AcDbEntity
  8
LAYER_FEATURE
100
AcDbLine
 62
7
  6
CONTINUOUS
 10
5.5478720839
 20
10.8075477814
 11
5.5478720839
 21
14.3925477814
  0
LINE
  5
24D
100
AcDbEntity
  8
LAYER_FEATURE
100
AcDbLine
 62
7
  6
CONTINUOUS
 10
6.5058720839
 20
12.0772533824
 11
5.6358720839
 21
12.0772533824
  0
LINE
  5
24E
100
AcDbEntity
  8
LAYER_FEATURE
100
AcDbLine
 62
7
  6
CONTINUOUS
 10
5.6092125196
 20
10.8075477814
 11
5.6092125196
 21
14.3925477814
  0
LINE
  5
24F
100
AcDbEntity
  8
LAYER_FEATURE
100
AcDbLine
 62
7
  6
CONTINUOUS
 10
5.6358720839
 20
10.9329712786
 11
5.6358720839
 21
14.2671242842
  0
LINE
  5
250
100
AcDbEntity
  8
LAYER_FEATURE
100
AcDbLine
 62
7
  6
CONTINUOUS
 10
6.5058720839
 20
12.1340024169
 11
5.6358720839
 21
12.1340024169
  0
LINE
  5
251
100
AcDbEntity
  8
LAYER_FEATURE
100
AcDbLine
 62
7
  6
CONTINUOUS
 10
5.6358720839
 20
12.1766539063
 11
6.5058720839
 21
12.1766539063
  0
LINE
  5
252
100
AcDbEntity
  8
LAYER_FEATURE
100
AcDbLine
 62
7
  6
CONTINUOUS
 10
5.6358720839
 20
12.2186878806
 11
6.5058720839
 21
12.2186878806
  0
LINE
  5
253
100
AcDbEntity
  8
LAYER_FEATURE
100
AcDbLine
 62
7
  6
CONTINUOUS
 10
6.5058720839
 20
12.3198287596
 11
5.6358720839
 21
12.3198287596
  0
LINE
  5
254
100
AcDbEntity
  8
LAYER_FEATURE
100
AcDbLine
 62
7
  6
CONTINUOUS
 10
6.5058720839
 20
12.3790104378
 11
5.6358720839
 21
12.3790104378
  0
LINE
  5
255
100
AcDbEntity
  8
LAYER_FEATURE
100
AcDbLine
 62
7
  6
CONTINUOUS
 10
5.6358720839
 20
12.4430850771
 11
6.5058720839
 21
12.4430850771
  0
LINE
  5
256
100
AcDbEntity
  8
LAYER_FEATURE
100
AcDbLine
 62
7
  6
CONTINUOUS
 10
5.6358720839
 20
12.4862977814
 11
6.5058720839
 21
12.4862977814
  0
LINE
  5
257
100
AcDbEntity
  8
LAYER_FEATURE
100
AcDbLine
 62
7
  6
CONTINUOUS
 10
5.6092125196
 20
10.8075477814
 11
5.6358720839
 21
10.9329711703
  0
LINE
  5
258
100
AcDbEntity
  8
LAYER_FEATURE
100
AcDbLine
 62
7
  6
CONTINUOUS
 10
6.5058720839
 20
12.5700477814
 11
5.6358720839
 21
12.5700477814
  0
LINE
  5
259
100
AcDbEntity
  8
LAYER_FEATURE
100
AcDbLine
 62
7
  6
CONTINUOUS
 10
5.6092125196
 20
14.3925477814
 11
5.6358720839
 21
14.2671243924
  0
LINE
  5
25A
100
AcDbEntity
  8
LAYER_FEATURE
100
AcDbLine
 62
7
  6
CONTINUOUS
 10
6.5058720839
 20
14.2671243924
 11
6.5325316482
 21
14.3925477814
  0
LINE
  5
25B
100
AcDbEntity
  8
LAYER_FEATURE
100
AcDbLine
 62
7
  6
CONTINUOUS
 10
6.5058720839
 20
12.6300477814
 11
5.6358720839
 21
12.6300477814
  0
LINE
  5
25C
100
AcDbEntity
  8
LAYER_FEATURE
100
AcDbLine
 62
7
  6
CONTINUOUS
 10
5.6358720839
 20
12.7137977814
 11
6.5058720839
 21
12.7137977814
  0
LINE
  5
25D
100
AcDbEntity
  8
LAYER_FEATURE
100
AcDbLine
 62
7
  6
CONTINUOUS
 10
6.5058720839
 20
10.9329711703
 11
6.5325316482
 21
10.8075477814
  0
LINE
  5
25E
100
AcDbEntity
  8
LAYER_FEATURE
100
AcDbLine
 62
7
  6
CONTINUOUS
 10
6.5058720839
 20
10.9329711703
 11
6.5058720839
 21
14.2671243924
  0
LINE
  5
25F
100
AcDbEntity
  8
LAYER_FEATURE
100
AcDbLine
 62
7
  6
CONTINUOUS
 10
6.5325316482
 20
10.8075477814
 11
6.5325316482
 21
14.3925477814
  0
LINE
  5
260
100
AcDbEntity
  8
LAYER_FEATURE
100
AcDbLine
 62
7
  6
CONTINUOUS
 10
6.5938720839
 20
10.8075477814
 11
6.5938720839
 21
14.3925477814
  0
LINE
  5
261
100
AcDbEntity
  8
02___PRT_ALL_AXES
100
AcDbLine
 62
7
  6
CONTINUOUS
 10
5.6358720839
 20
14.2392977814
 11
6.5058720839
 21
14.2392977814
  0
LINE
  5
262
100
AcDbEntity
  8
LAYER_FEATURE
100
AcDbLine
 62
7
  6
CONTINUOUS
 10
5.5478720839
 20
14.3925477814
 11
5.6092125196
 21
14.3925477814
  0
LINE
  5
263
100
AcDbEntity
  8
LAYER_FEATURE
100
AcDbLine
 62
7
  6
CONTINUOUS
 10
6.5325316482
 20
14.3925477814
 11
6.5938720839
 21
14.3925477814
  0
LINE
  5
264
100
AcDbEntity
  8
LAYER_FEATURE
100
AcDbLine
 62
7
  6
CONTINUOUS
 10
14.9893656008
 20
10.7183049929
 11
15.0458638835
 21
10.7183049929
  0
LINE
  5
265
100
AcDbEntity
  8
LAYER_FEATURE
100
AcDbLine
 62
7
  6
CONTINUOUS
 10
15.8962971179
 20
10.7183049929
 11
15.9527954006
 21
10.7183049929
  0
LINE
  5
266
100
AcDbEntity
  8
02___PRT_ALL_AXES
100
AcDbLine
 62
7
  6
CONTINUOUS
 10
15.0704189683
 20
10.8715549929
 11
15.6142232551
 21
10.8715549929
  0
LINE
  5
267
100
AcDbEntity
  8
02___PRT_ALL_AXES
100
AcDbLine
 62
7
  6
CONTINUOUS
 10
15.8711894094
 20
13.9159318821
 11
15.8543134482
 21
13.9100523397
  0
LINE
  5
268
100
AcDbEntity
  8
02___PRT_ALL_AXES
100
AcDbLine
 62
7
  6
CONTINUOUS
 10
15.8711894094
 20
11.1056781037
 11
15.8543134482
 21
11.1115576461
  0
LINE
  5
269
100
AcDbEntity
  8
LAYER_FEATURE
100
AcDbLine
 62
7
  6
CONTINUOUS
 10
14.4844518717
 20
12.7460095816
 11
14.4885142975
 21
12.8050957275
  0
LINE
  5
26A
100
AcDbEntity
  8
LAYER_FEATURE
100
AcDbLine
 62
7
  6
CONTINUOUS
 10
14.5075194083
 20
12.9904711155
 11
14.5153136225
 21
13.047034347
  0
LINE
  5
26B
100
AcDbEntity
  8
LAYER_FEATURE
100
AcDbLine
 62
7
  6
CONTINUOUS
 10
14.5459413776
 20
13.221848608
 11
14.5572547744
 21
13.2743460274
  0
LINE
  5
26C
100
AcDbEntity
  8
LAYER_FEATURE
100
AcDbLine
 62
7
  6
CONTINUOUS
 10
14.6022720329
 20
13.4454877465
 11
14.6131937077
 21
13.4808302989
  0
LINE
  5
26D
100
AcDbEntity
  8
LAYER_FEATURE
100
AcDbLine
 62
7
  6
CONTINUOUS
 10
14.441426446
 20
12.6985690454
 11
14.4628059256
 21
12.7101275337
  0
LINE
  5
26E
100
AcDbEntity
  8
LAYER_FEATURE
100
AcDbLine
 62
7
  6
CONTINUOUS
 10
14.47296199
 20
12.8578428986
 11
14.4544164503
 21
12.8875027844
  0
LINE
  5
26F
100
AcDbEntity
  8
LAYER_FEATURE
100
AcDbLine
 62
7
  6
CONTINUOUS
 10
14.503354319
 20
13.1056355748
 11
14.4869628009
 21
13.1427295406
  0
LINE
  5
270
100
AcDbEntity
  8
LAYER_FEATURE
100
AcDbLine
 62
7
  6
CONTINUOUS
 10
14.5492146934
 20
13.3372028233
 11
14.5354243147
 21
13.3807190425
  0
LINE
  5
271
100
AcDbEntity
  8
LAYER_FEATURE
100
AcDbLine
 62
7
  6
CONTINUOUS
 10
14.6092921617
 20
13.5462280933
 11
14.598479088
 21
13.5949795569
  0
LINE
  5
272
100
AcDbEntity
  8
LAYER_FEATURE
100
AcDbLine
 62
7
  6
CONTINUOUS
 10
14.4356012874
 20
12.6831123778
 11
15.20162336
 21
12.6831123778
  0
LINE
  5
273
100
AcDbEntity
  8
LAYER_FEATURE
100
AcDbLine
 62
7
  6
CONTINUOUS
 10
15.2044070392
 20
12.7460095816
 11
14.4844518717
 21
12.7460095816
  0
LINE
  5
274
100
AcDbEntity
  8
LAYER_FEATURE
100
AcDbLine
 62
7
  6
CONTINUOUS
 10
15.2077936152
 20
12.8050957275
 11
14.4885142975
 21
12.8050957275
  0
LINE
  5
275
100
AcDbEntity
  8
LAYER_FEATURE
100
AcDbLine
 62
7
  6
CONTINUOUS
 10
14.4510046518
 20
12.907147348
 11
15.2156748538
 21
12.907147348
  0
LINE
  5
276
100
AcDbEntity
  8
LAYER_FEATURE
100
AcDbLine
 62
7
  6
CONTINUOUS
 10
14.4553036136
 20
12.9490793162
 11
15.2195431254
 21
12.9490793162
  0
LINE
  5
277
100
AcDbEntity
  8
LAYER_FEATURE
100
AcDbLine
 62
7
  6
CONTINUOUS
 10
14.4620400375
 20
12.961863068
 11
14.4838687835
 21
12.9642274963
  0
LINE
  5
278
100
AcDbEntity
  8
LAYER_FEATURE
100
AcDbLine
 62
7
  6
CONTINUOUS
 10
15.2238045246
 20
12.9904711155
 11
14.5075194083
 21
12.9904711155
  0
LINE
  5
279
100
AcDbEntity
  8
LAYER_FEATURE
100
AcDbLine
 62
7
  6
CONTINUOUS
 10
15.230358017
 20
13.047034347
 11
14.5153136225
 21
13.047034347
  0
LINE
  5
27A
100
AcDbEntity
  8
LAYER_FEATURE
100
AcDbLine
 62
7
  6
CONTINUOUS
 10
14.4848566758
 20
13.1635482353
 11
15.2463320352
 21
13.1635482353
  0
LINE
  5
27B
100
AcDbEntity
  8
LAYER_FEATURE
100
AcDbLine
 62
7
  6
CONTINUOUS
 10
14.4917846832
 20
13.2030912735
 11
15.2524343187
 21
13.2030912735
  0
LINE
  5
27C
100
AcDbEntity
  8
0
100
AcDbLine
 62
7
  6
CONTINUOUS
 10
14.4983294641
 20
13.2129989724
 11
15.2541367129
 21
13.2129989724
  0
LINE
  5
27D
100
AcDbEntity
  8
LAYER_FEATURE
100
AcDbLine
 62
7
  6
CONTINUOUS
 10
15.255657305
 20
13.221848608
 11
14.5459413776
 21
13.221848608
  0
LINE
  5
27E
100
AcDbEntity
  8
LAYER_FEATURE
100
AcDbLine
 62
7
  6
CONTINUOUS
 10
15.264824189
 20
13.2743460274
 11
14.5572547744
 21
13.2743460274
  0
LINE
  5
27F
100
AcDbEntity
  8
02___PRT_ALL_AXES
100
AcDbLine
 62
7
  6
CONTINUOUS
 10
15.8904356475
 20
13.5712087428
 11
15.9041809393
 21
13.5728405113
  0
LINE
  5
280
100
AcDbEntity
  8
LAYER_FEATURE
100
AcDbLine
 62
7
  6
CONTINUOUS
 10
14.5346813127
 20
13.4021439886
 11
15.2907718925
 21
13.4021439886
  0
LINE
  5
281
100
AcDbEntity
  8
LAYER_FEATURE
100
AcDbLine
 62
7
  6
CONTINUOUS
 10
14.5440493876
 20
13.4382194657
 11
15.2990664944
 21
13.4382194657
  0
LINE
  5
282
100
AcDbEntity
  8
0
100
AcDbLine
 62
7
  6
CONTINUOUS
 10
14.5499087649
 20
13.4454877465
 11
15.3007376433
 21
13.4454877465
  0
LINE
  5
283
100
AcDbEntity
  8
LAYER_FEATURE
100
AcDbLine
 62
7
  6
CONTINUOUS
 10
15.3094667929
 20
13.4808302989
 11
14.6131937077
 21
13.4808302989
  0
LINE
  5
284
100
AcDbEntity
  8
LAYER_FEATURE
100
AcDbLine
 62
7
  6
CONTINUOUS
 10
14.5991194762
 20
13.6164263376
 11
15.3469531967
 21
13.6164263376
  0
LINE
  5
285
100
AcDbEntity
  8
LAYER_CUT_FEAT
100
AcDbLine
 62
7
  6
CONTINUOUS
 10
15.9454269126
 20
13.8283049926
 11
15.9440491959
 21
13.8282319285
  0
LINE
  5
286
100
AcDbEntity
  8
LAYER_CUT_FEAT
100
AcDbLine
 62
7
  6
CONTINUOUS
 10
15.9454269126
 20
13.8283049929
 11
15.9440491245
 21
13.8283002414
  0
LINE
  5
287
100
AcDbEntity
  8
02___PRT_ALL_AXES
100
AcDbLine
 62
7
  6
CONTINUOUS
 10
15.0704189683
 20
14.1500549929
 11
15.6141811124
 21
14.1500549929
  0
LINE
  5
288
100
AcDbEntity
  8
LAYER_FEATURE
100
AcDbLine
 62
7
  6
CONTINUOUS
 10
14.9893656008
 20
14.3033049929
 11
15.0458638835
 21
14.3033049929
  0
LINE
  5
289
100
AcDbEntity
  8
LAYER_FEATURE
100
AcDbLine
 62
7
  6
CONTINUOUS
 10
15.8962971179
 20
14.3033049929
 11
15.9527954006
 21
14.3033049929
  0
CIRCLE
  5
28A
100
AcDbEntity
  8
LAYER_FEATURE
100
AcDbCircle
 62
7
  6
CONTINUOUS
 10
15.5603552569
 20
5.4606247044
 40
1.7925
  0
CIRCLE
  5
28B
100
AcDbEntity
  8
LAYER_FEATURE
100
AcDbCircle
 62
7
  6
CONTINUOUS
 10
15.5603552569
 20
5.4606247044
 40
1.6670766111
  0
CIRCLE
  5
28C
100
AcDbEntity
  8
02___PRT_ALL_AXES
100
AcDbCircle
 62
7
  6
CONTINUOUS
 10
15.5603552569
 20
5.4606247044
 40
1.418
  0
CIRCLE
  5
28D
100
AcDbEntity
  8
LAYER_CUT_FEAT
100
AcDbCircle
 62
7
  6
CONTINUOUS
 10
15.5603552569
 20
5.4606247044
 40
1.3175
  0
ARC
  5
28E
100
AcDbEntity
  8
02___PRT_ALL_AXES
100
AcDbCircle
 62
7
  6
CONTINUOUS
 10
15.5603552569
 20
5.4606247044
 40
1.0625
100
AcDbArc
 50
152.9665029899
 51
232.0334970101
  0
ARC
  5
28F
100
AcDbEntity
  8
02___PRT_ALL_AXES
100
AcDbCircle
 62
7
  6
CONTINUOUS
 10
15.5603552569
 20
5.4606247044
 40
1.0625
100
AcDbArc
 50
57.9665029899
 51
137.0334970101
  0
ARC
  5
290
100
AcDbEntity
  8
02___PRT_ALL_AXES
100
AcDbCircle
 62
7
  6
CONTINUOUS
 10
15.5603552569
 20
5.4606247044
 40
1.0625
100
AcDbArc
 50
247.9665029899
 51
42.0334970101
  0
ARC
  5
291
100
AcDbEntity
  8
02___PRT_ALL_AXES
100
AcDbCircle
 62
7
  6
CONTINUOUS
 10
15.5603552569
 20
5.4606247044
 40
1.0275890391
100
AcDbArc
 50
136.2989318424
 51
153.7010681576
  0
ARC
  5
292
100
AcDbEntity
  8
02___PRT_ALL_AXES
100
AcDbCircle
 62
7
  6
CONTINUOUS
 10
15.5603552569
 20
5.4606247044
 40
0.9926780783
100
AcDbArc
 50
58.9847533305
 51
231.0152466695
  0
ARC
  5
293
100
AcDbEntity
  8
02___PRT_ALL_AXES
100
AcDbCircle
 62
7
  6
CONTINUOUS
 10
15.5603552569
 20
5.4606247044
 40
0.9926780783
100
AcDbArc
 50
248.9847533305
 51
41.0152466695
  0
ARC
  5
294
100
AcDbEntity
  8
02___PRT_ALL_AXES
100
AcDbCircle
 62
7
  6
CONTINUOUS
 10
16.2031428666
 20
6.2266691476
 40
0.15625
100
AcDbArc
 50
312.8300000602
 51
147.1699999398
  0
ARC
  5
295
100
AcDbEntity
  8
02___PRT_ALL_AXES
100
AcDbCircle
 62
7
  6
CONTINUOUS
 10
15.0603552569
 20
4.5945993007
 40
0.15625
100
AcDbArc
 50
142.8300000602
 51
337.1699999398
  0
ARC
  5
296
100
AcDbEntity
  8
02___PRT_ALL_AXES
100
AcDbCircle
 62
7
  6
CONTINUOUS
 10
14.7412032126
 20
6.0342011408
 40
0.15625
100
AcDbArc
 50
60.7898785166
 51
229.2101214834
  0
ARC
  5
297
100
AcDbEntity
  8
02___PRT_ALL_AXES
100
AcDbCircle
 62
7
  6
CONTINUOUS
 10
20.8148445719
 20
87.5226290068
 40
76.1959453941
100
AcDbArc
 50
266.2258171053
 51
266.3873733855
  0
ARC
  5
298
100
AcDbEntity
  8
02___PRT_ALL_AXES
100
AcDbCircle
 62
7
  6
CONTINUOUS
 10
12.3914619617
 20
-32.1551788425
 40
43.9001836155
100
AcDbArc
 50
85.1274002782
 51
85.6901392499
  0
ARC
  5
299
100
AcDbEntity
  8
LAYER_FEATURE
100
AcDbCircle
 62
7
  6
CONTINUOUS
 10
18.294223857
 20
12.5343180354
 40
3.8612608763
100
AcDbArc
 50
173.8336181669
 51
174.4590952128
  0
ARC
  5
29A
100
AcDbEntity
  8
LAYER_FEATURE
100
AcDbCircle
 62
7
  6
CONTINUOUS
 10
17.7706685412
 20
12.6082468418
 40
3.3324044251
100
AcDbArc
 50
169.7174198041
 51
170.4076640708
  0
ARC
  5
29B
100
AcDbEntity
  8
LAYER_FEATURE
100
AcDbCircle
 62
7
  6
CONTINUOUS
 10
17.1178120889
 20
12.7506110299
 40
2.6640307437
100
AcDbArc
 50
165.042155322
 51
165.8437770241
  0
ARC
  5
29C
100
AcDbEntity
  8
LAYER_CUT_FEAT
100
AcDbCircle
 62
7
  6
CONTINUOUS
 10
15.9454268838
 20
11.3930784278
 40
0.1997734349
100
AcDbArc
 50
269.6049138703
 51
270.0000082564
  0
SPLINE
  5
29D
100
AcDbEntity
  8
LAYER_CUT_FEAT
100
AcDbSpline
 62
7
  6
CONTINUOUS
 70
0
 71
3
 72
27
 73
23
 74
0
 42
0.0000001
 43
0.0000001
 44
0.0000000001
 40
0.0
 40
0.0
 40
0.0
 40
0.0
 40
0.0834385646
 40
0.1637786448
 40
0.2409959639
 40
0.3150863686
 40
0.3860683641
 40
0.4539861529
 40
0.5189130457
 40
0.5809552854
 40
0.6402561565
 40
0.6970001567
 40
0.7514168132
 40
0.8037834958
 40
0.8293051823
 40
0.8544407736
 40
0.8792382863
 40
0.9037483739
 40
0.9280239559
 40
0.9521199454
 40
0.9760927792
 40
1.0
 40
1.0
 40
1.0
 40
1.0
 10
15.6265045315
 20
11.4787717895
 30
0.0
 10
15.6319970512
 20
11.4675792111
 30
0.0
 10
15.6431444411
 20
11.4457866502
 30
0.0
 10
15.660704851
 20
11.4143388013
 30
0.0
 10
15.6787619134
 20
11.384797141
 30
0.0
 10
15.6972846198
 20
11.3572130599
 30
0.0
 10
15.7162416794
 20
11.3316339482
 30
0.0
 10
15.7356012691
 20
11.308103929
 30
0.0
 10
15.7553312198
 20
11.2866636973
 30
0.0
 10
15.7753991378
 20
11.2673506276
 30
0.0
 10
15.7957722447
 20
11.2501989753
 30
0.0
 10
15.8164180276
 20
11.2352398255
 30
0.0
 10
15.8373015411
 20
11.2225021797
 30
0.0
 10
15.8550279689
 20
11.2136842873
 30
0.0
 10
15.8692612771
 20
11.2078069512
 30
0.0
 10
15.8798802548
 20
11.2040045442
 30
0.0
 10
15.8905286634
 20
11.2007726242
 30
0.0
 10
15.901201957
 20
11.1981125412
 30
0.0
 10
15.9118953103
 20
11.196025764
 30
0.0
 10
15.922604006
 20
11.1945132199
 30
0.0
 10
15.9333227983
 20
11.1935758001
 30
0.0
 10
15.9404771481
 20
11.1933343749
 30
0.0
 10
15.9440493463
 20
11.1933097424
 30
0.0
  0
SPLINE
  5
29E
100
AcDbEntity
  8
02___PRT_ALL_AXES
100
AcDbSpline
 62
7
  6
CONTINUOUS
 70
0
 71
3
 72
39
 73
35
 74
0
 42
0.0000001
 43
0.0000001
 44
0.0000000001
 40
0.0
 40
0.0
 40
0.0
 40
0.0
 40
0.0461783307
 40
0.0913991069
 40
0.135631557
 40
0.1788496002
 40
0.2210282928
 40
0.2621457526
 40
0.3021829177
 40
0.341123823
 40
0.3789559125
 40
0.4156703282
 40
0.4512622889
 40
0.4857314714
 40
0.5190824442
 40
0.5513251624
 40
0.5824755269
 40
0.612555998
 40
0.6415962312
 40
0.6696337631
 40
0.6967147154
 40
0.7228944887
 40
0.7482383589
 40
0.7728219197
 40
0.7967312939
 40
0.8200630028
 40
0.8429233909
 40
0.865427506
 40
0.8876974334
 40
0.9098601183
 40
0.932044798
 40
0.9543802356
 40
0.9769919976
 40
1.0
 40
1.0
 40
1.0
 40
1.0
 10
16.3779762795
 20
11.6293620579
 30
0.0
 10
16.374313424
 20
11.6175090531
 30
0.0
 10
16.3668460341
 20
11.5941153452
 30
0.0
 10
16.3550901621
 20
11.5596232324
 30
0.0
 10
16.3429063381
 20
11.5261246888
 30
0.0
 10
16.3303074809
 20
11.4936549925
 30
0.0
 10
16.3173066074
 20
11.4622477958
 30
0.0
 10
16.303917312
 20
11.4319358951
 30
0.0
 10
16.2901535348
 20
11.4027508334
 30
0.0
 10
16.2760295884
 20
11.3747229854
 30
0.0
 10
16.2615601398
 20
11.3478815089
 30
0.0
 10
16.2467601748
 20
11.3222543132
 30
0.0
 10
16.2316450026
 20
11.2978680196
 30
0.0
 10
16.2162302137
 20
11.2747479452
 30
0.0
 10
16.2005316514
 20
11.2529180919
 30
0.0
 10
16.1845653854
 20
11.2324011342
 30
0.0
 10
16.1683476875
 20
11.2132184031
 30
0.0
 10
16.1518950219
 20
11.1953898712
 30
0.0
 10
16.1352240013
 20
11.1789341808
 30
0.0
 10
16.1183513799
 20
11.1638686643
 30
0.0
 10
16.1012940454
 20
11.1502093747
 30
0.0
 10
16.0840690541
 20
11.1379710929
 30
0.0
 10
16.0666936643
 20
11.1271673624
 30
0.0
 10
16.0491853977
 20
11.1178105249
 30
0.0
 10
16.0315621396
 20
11.1099117051
 30
0.0
 10
16.0138422492
 20
11.1034807488
 30
0.0
 10
15.9960446722
 20
11.0985260585
 30
0.0
 10
15.978188975
 20
11.0950544436
 30
0.0
 10
15.9602953303
 20
11.0930708915
 30
0.0
 10
15.9423843463
 20
11.0925783679
 30
0.0
 10
15.9244769828
 20
11.093577588
 30
0.0
 10
15.9065937225
 20
11.0960671455
 30
0.0
 10
15.8887563329
 20
11.100042956
 30
0.0
 10
15.8770265185
 20
11.103644467
 30
0.0
 10
15.8711894094
 20
11.1056781039
 30
0.0
  0
SPLINE
  5
29F
100
AcDbEntity
  8
02___PRT_ALL_AXES
100
AcDbSpline
 62
7
  6
CONTINUOUS
 70
0
 71
3
 72
41
 73
37
 74
0
 42
0.0000001
 43
0.0000001
 44
0.0000000001
 40
0.0
 40
0.0
 40
0.0
 40
0.0
 40
0.0271627553
 40
0.0560974079
 40
0.0867220735
 40
0.1189303619
 40
0.152596342
 40
0.1875773463
 40
0.2237168606
 40
0.2608468421
 40
0.2987898556
 40
0.3373610235
 40
0.3763698695
 40
0.4156220871
 40
0.4549212638
 40
0.4940705824
 40
0.5328745183
 40
0.5711405502
 40
0.6086809046
 40
0.6453143602
 40
0.680868143
 40
0.7151799595
 40
0.7481002356
 40
0.7794946562
 40
0.8092471464
 40
0.8372634941
 40
0.863475905
 40
0.8878488884
 40
0.9103869872
 40
0.9311449182
 40
0.9502403871
 40
0.9678689626
 40
0.9762259667
 40
0.9843322435
 40
0.992238765
 40
1.0
 40
1.0
 40
1.0
 40
1.0
 10
15.507308303
 20
12.3519292174
 30
0.0
 10
15.5060054003
 20
12.3494893767
 30
0.0
 10
15.5034879908
 20
12.3443567166
 30
0.0
 10
15.5000671144
 20
12.336211059
 30
0.0
 10
15.4968987164
 20
12.327415998
 30
0.0
 10
15.4940015921
 20
12.318023148
 30
0.0
 10
15.4913927098
 20
12.3080872149
 30
0.0
 10
15.4890875081
 20
12.2976664102
 30
0.0
 10
15.4870996281
 20
12.2868218697
 30
0.0
 10
15.4854408594
 20
12.2756173198
 30
0.0
 10
15.4841210446
 20
12.2641186669
 30
0.0
 10
15.4831480196
 20
12.2523935955
 30
0.0
 10
15.4825275628
 20
12.2405111556
 30
0.0
 10
15.4822633596
 20
12.2285413449
 30
0.0
 10
15.4823569793
 20
12.2165546866
 30
0.0
 10
15.482807866
 20
12.2046218054
 30
0.0
 10
15.4836133417
 20
12.1928130026
 30
0.0
 10
15.4847686226
 20
12.181197833
 30
0.0
 10
15.4862668491
 20
12.1698446843
 30
0.0
 10
15.4880991278
 20
12.1588203626
 30
0.0
 10
15.4902545896
 20
12.1481896828
 30
0.0
 10
15.4927204618
 20
12.1380150688
 30
0.0
 10
15.4954821585
 20
12.1283561606
 30
0.0
 10
15.4985233933
 20
12.1192694328
 30
0.0
 10
15.5018263193
 20
12.1108078243
 30
0.0
 10
15.5053717181
 20
12.1030203836
 30
0.0
 10
15.5091392284
 20
12.095951952
 30
0.0
 10
15.5131077432
 20
12.089642883
 30
0.0
 10
15.5172556704
 20
12.0841289995
 30
0.0
 10
15.5215621599
 20
12.0794415368
 30
0.0
 10
15.5260054416
 20
12.0756087326
 30
0.0
 10
15.5298752527
 20
12.0731041994
 30
0.0
 10
15.5330010898
 20
12.0715858105
 30
0.0
 10
15.5353208056
 20
12.0706950542
 30
0.0
 10
15.5376531563
 20
12.0700343303
 30
0.0
 10
15.5392252596
 20
12.0697459381
 30
0.0
 10
15.5400086569
 20
12.0696416236
 30
0.0
  0
SPLINE
  5
2A0
100
AcDbEntity
  8
02___PRT_ALL_AXES
100
AcDbSpline
 62
7
  6
CONTINUOUS
 70
0
 71
3
 72
24
 73
20
 74
0
 42
0.0000001
 43
0.0000001
 44
0.0000000001
 40
0.0
 40
0.0
 40
0.0
 40
0.0
 40
0.0873283083
 40
0.1713687588
 40
0.2519851711
 40
0.3290832692
 40
0.4025889034
 40
0.4724628453
 40
0.53870425
 40
0.6013564032
 40
0.6605152386
 40
0.7163382206
 40
0.7690539516
 40
0.794348
 40
0.8189889815
 40
0.8665084667
 40
0.9121204491
 40
0.9564023302
 40
1.0
 40
1.0
 40
1.0
 40
1.0
 10
16.0137030682
 20
11.4780951154
 30
0.0
 10
16.0144014314
 20
11.4760394138
 30
0.0
 10
16.0158368431
 20
11.4720270502
 30
0.0
 10
16.0181538878
 20
11.4662051899
 30
0.0
 10
16.0205884069
 20
11.460708257
 30
0.0
 10
16.0231333985
 20
11.4555518997
 30
0.0
 10
16.0257818563
 20
11.4507504761
 30
0.0
 10
16.0285264062
 20
11.4463174466
 30
0.0
 10
16.0313595379
 20
11.4422651649
 30
0.0
 10
16.0342736161
 20
11.4386049608
 30
0.0
 10
16.0372610242
 20
11.435347042
 30
0.0
 10
16.0403137853
 20
11.4325008491
 30
0.0
 10
16.0429415726
 20
11.4304512322
 30
0.0
 10
16.045066615
 20
11.4290361877
 30
0.0
 10
16.0471510978
 20
11.4277995108
 30
0.0
 10
16.0497882568
 20
11.4265116669
 30
0.0
 10
16.0530241472
 20
11.4253888345
 30
0.0
 10
16.0562827862
 20
11.4247124934
 30
0.0
 10
16.0584704445
 20
11.4245615274
 30
0.0
 10
16.0595543353
 20
11.424561519
 30
0.0
  0
SPLINE
  5
2A1
100
AcDbEntity
  8
02___PRT_ALL_AXES
100
AcDbSpline
 62
7
  6
CONTINUOUS
 70
0
 71
3
 72
64
 73
60
 74
0
 42
0.0000001
 43
0.0000001
 44
0.0000000001
 40
0.0
 40
0.0
 40
0.0
 40
0.0
 40
0.008204725
 40
0.0162541195
 40
0.0242052971
 40
0.0321180463
 40
0.0400532359
 40
0.0480711018
 40
0.056229603
 40
0.0645830213
 40
0.0731809164
 40
0.0820674736
 40
0.0866319921
 40
0.0912826413
 40
0.1008564433
 40
0.1108177403
 40
0.1211888835
 40
0.1319875531
 40
0.1432271932
 40
0.1549174352
 40
0.1670644946
 40
0.1796715309
 40
0.1927389689
 40
0.2062647811
 40
0.2202447369
 40
0.2346726186
 40
0.249540412
 40
0.2648384724
 40
0.2805556707
 40
0.2966795234
 40
0.3131963079
 40
0.3300911674
 40
0.3473482035
 40
0.364950563
 40
0.3828805157
 40
0.4011195278
 40
0.4196483303
 40
0.4384469828
 40
0.4574949349
 40
0.4767710839
 40
0.4962538317
 40
0.5357494202
 40
0.5758022276
 40
0.6162269578
 40
0.6568352905
 40
0.6974374251
 40
0.7378436116
 40
0.77786568
 40
0.8173185851
 40
0.836775621
 40
0.8560232138
 40
0.8750398273
 40
0.8938044276
 40
0.9122965429
 40
0.930496309
 40
0.9483845728
 40
0.9659428363
 40
0.983153625
 40
1.0
 40
1.0
 40
1.0
 40
1.0
 10
15.8711894099
 20
13.9159318714
 30
0.0
 10
15.8778818222
 20
13.9182634915
 30
0.0
 10
15.8913463031
 20
13.9223169851
 30
0.0
 10
15.9118581861
 20
13.9265104014
 30
0.0
 10
15.9324244158
 20
13.9287394875
 30
0.0
 10
15.953010871
 20
13.9289988394
 30
0.0
 10
15.9735853899
 20
13.9272880593
 30
0.0
 10
15.9941154536
 20
13.9236107824
 30
0.0
 10
16.0145695965
 20
13.9179746738
 30
0.0
 10
16.0349178015
 20
13.9103906643
 30
0.0
 10
16.0551307706
 20
13.9008729137
 30
0.0
 10
16.0716911982
 20
13.8914278293
 30
0.0
 10
16.084835559
 20
13.8829554399
 30
0.0
 10
16.0981616276
 20
13.8736871318
 30
0.0
 10
16.1146916315
 20
13.8608861877
 30
0.0
 10
16.1340980234
 20
13.8438140893
 30
0.0
 10
16.153239329
 20
13.824908359
 30
0.0
 10
16.1720898113
 20
13.8041958096
 30
0.0
 10
16.1906248376
 20
13.7817048299
 30
0.0
 10
16.2088197525
 20
13.7574662771
 30
0.0
 10
16.226650254
 20
13.7315132655
 30
0.0
 10
16.2440923588
 20
13.7038812392
 30
0.0
 10
16.2611224882
 20
13.6746079369
 30
0.0
 10
16.2777175194
 20
13.6437333668
 30
0.0
 10
16.2938548414
 20
13.6112997621
 30
0.0
 10
16.3095124049
 20
13.5773515298
 30
0.0
 10
16.3246687683
 20
13.541935192
 30
0.0
 10
16.3393031392
 20
13.5050993222
 30
0.0
 10
16.3533954138
 20
13.4668944782
 30
0.0
 10
16.3669262131
 20
13.4273731305
 30
0.0
 10
16.3798769139
 20
13.3865895868
 30
0.0
 10
16.3922296792
 20
13.3445999145
 30
0.0
 10
16.4039674868
 20
13.3014618608
 30
0.0
 10
16.415074155
 20
13.2572347717
 30
0.0
 10
16.4255343673
 20
13.2119795078
 30
0.0
 10
16.435333695
 20
13.1657583582
 30
0.0
 10
16.4444586168
 20
13.118634957
 30
0.0
 10
16.4528965452
 20
13.0706741794
 30
0.0
 10
16.4606358191
 20
13.0219421077
 30
0.0
 10
16.4676658208
 20
12.972505727
 30
0.0
 10
16.4761183209
 20
12.9054405131
 30
0.0
 10
16.4848248197
 20
12.8203304589
 30
0.0
 10
16.4922671278
 20
12.7169547225
 30
0.0
 10
16.4967092961
 20
12.6124444973
 30
0.0
 10
16.49812673
 20
12.5073753216
 30
0.0
 10
16.4965115665
 20
12.4023250124
 30
0.0
 10
16.491872772
 20
12.2978712788
 30
0.0
 10
16.4842360255
 20
12.1945893456
 30
0.0
 10
16.4753687999
 20
12.1095819285
 30
0.0
 10
16.466789281
 20
12.0426172616
 30
0.0
 10
16.4596661669
 20
11.9932689106
 30
0.0
 10
16.4518351196
 20
11.9446336829
 30
0.0
 10
16.4433068844
 20
11.8967784259
 30
0.0
 10
16.4340932456
 20
11.8497690821
 30
0.0
 10
16.4242069149
 20
11.803670346
 30
0.0
 10
16.4136615319
 20
11.7585457469
 30
0.0
 10
16.4024716273
 20
11.7144572248
 30
0.0
 10
16.3906526967
 20
11.6714658294
 30
0.0
 10
16.3822725116
 20
11.6432646699
 30
0.0
 10
16.3779762795
 20
11.6293620579
 30
0.0
  0
SPLINE
  5
2A2
100
AcDbEntity
  8
02___PRT_ALL_AXES
100
AcDbSpline
 62
7
  6
CONTINUOUS
 70
0
 71
3
 72
32
 73
28
 74
0
 42
0.0000001
 43
0.0000001
 44
0.0000000001
 40
0.0
 40
0.0
 40
0.0
 40
0.0
 40
0.0173457573
 40
0.0348838354
 40
0.0527988346
 40
0.0712612345
 40
0.0904226578
 40
0.1104136172
 40
0.1313429722
 40
0.1532984711
 40
0.1763487036
 40
0.2005446939
 40
0.2259219924
 40
0.2525027813
 40
0.2802971194
 40
0.3093048731
 40
0.3395167927
 40
0.3709154543
 40
0.4034765865
 40
0.4371694088
 40
0.507793074
 40
0.5824460862
 40
0.66071435
 40
0.7421304533
 40
0.8261842436
 40
0.9123300469
 40
1.0
 40
1.0
 40
1.0
 40
1.0
 10
15.8383350979
 20
13.6467486818
 30
0.0
 10
15.8374264516
 20
13.6467486747
 30
0.0
 10
15.8355973775
 20
13.6466430468
 30
0.0
 10
15.8328668272
 20
13.646169078
 30
0.0
 10
15.8301489004
 20
13.6453810315
 30
0.0
 10
15.8274500319
 20
13.6442813193
 30
0.0
 10
15.8247755585
 20
13.642873123
 30
0.0
 10
15.8221306518
 20
13.6411600091
 30
0.0
 10
15.8195202408
 20
13.6391459114
 30
0.0
 10
15.8169490728
 20
13.636835238
 30
0.0
 10
15.8144219149
 20
13.6342327264
 30
0.0
 10
15.8119434559
 20
13.6313436384
 30
0.0
 10
15.8095183434
 20
13.6281737329
 30
0.0
 10
15.807151252
 20
13.6247292477
 30
0.0
 10
15.8048467058
 20
13.6210170102
 30
0.0
 10
15.8026092134
 20
13.6170443387
 30
0.0
 10
15.8004431752
 20
13.6128190823
 30
0.0
 10
15.7983528367
 20
13.6083496296
 30
0.0
 10
15.7963423376
 20
13.6036448097
 30
0.0
 10
15.7937325594
 20
13.5969653251
 30
0.0
 10
15.7907114651
 20
13.5880846044
 30
0.0
 10
15.7875182872
 20
13.5768134468
 30
0.0
 10
15.7847279846
 20
13.5648548896
 30
0.0
 10
15.7823629637
 20
13.5523040878
 30
0.0
 10
15.7804422533
 20
13.5392606612
 30
0.0
 10
15.7789812887
 20
13.5258286051
 30
0.0
 10
15.7783259328
 20
13.5167446939
 30
0.0
 10
15.7780759661
 20
13.5121589678
 30
0.0
  0
SPLINE
  5
2A3
100
AcDbEntity
  8
LAYER_FEATURE
100
AcDbSpline
 62
7
  6
CONTINUOUS
 70
0
 71
3
 72
68
 73
64
 74
0
 42
0.0000001
 43
0.0000001
 44
0.0000000001
 40
0.0
 40
0.0
 40
0.0
 40
0.0
 40
0.0163580858
 40
0.0330510049
 40
0.0500641651
 40
0.0673825756
 40
0.0849903746
 40
0.1028711641
 40
0.1210079486
 40
0.1393832211
 40
0.1579789974
 40
0.176776863
 40
0.1957580148
 40
0.2149033029
 40
0.2536072195
 40
0.2927309867
 40
0.3321129044
 40
0.3715894139
 40
0.4109962794
 40
0.450169764
 40
0.4889478082
 40
0.5081391481
 40
0.5271722354
 40
0.5460278227
 40
0.5646869974
 40
0.5831312226
 40
0.6013423791
 40
0.6193028086
 40
0.6369953594
 40
0.6544034334
 40
0.6715110358
 40
0.6883028277
 40
0.7047641825
 40
0.7208812464
 40
0.7366410033
 40
0.7520313453
 40
0.767041151
 40
0.7816603709
 40
0.7958801233
 40
0.8096928013
 40
0.8230921932
 40
0.836073619
 40
0.8486340848
 40
0.8607724581
 40
0.8724896662
 40
0.8837889208
 40
0.8946759706
 40
0.9051593824
 40
0.9152508473
 40
0.9249655082
 40
0.9343222939
 40
0.9433442428
 40
0.9520587819
 40
0.9604979211
 40
0.9686983093
 40
0.9727225116
 40
0.9767028171
 40
0.9806450085
 40
0.9845550798
 40
0.9884392169
 40
0.9923037608
 40
0.9961551735
 40
1.0
 40
1.0
 40
1.0
 40
1.0
 10
15.349509572
 20
13.625040861
 30
0.0
 10
15.3443900385
 20
13.6084740448
 30
0.0
 10
15.3343888763
 20
13.5748944624
 30
0.0
 10
15.3202316512
 20
13.5237457894
 30
0.0
 10
15.3067799683
 20
13.4713553545
 30
0.0
 10
15.2940504013
 20
13.4177877265
 30
0.0
 10
15.282058554
 20
13.363108328
 30
0.0
 10
15.2708191445
 20
13.3073842146
 30
0.0
 10
15.2603459721
 20
13.2506836327
 30
0.0
 10
15.250651894
 20
13.1930760702
 30
0.0
 10
15.2417488097
 20
13.1346321112
 30
0.0
 10
15.2336476671
 20
13.0754234218
 30
0.0
 10
15.2263583555
 20
13.0155224308
 30
0.0
 10
15.2177029431
 20
12.9345399768
 30
0.0
 10
15.208990951
 20
12.8321018746
 30
0.0
 10
15.2019304241
 20
12.7080432691
 30
0.0
 10
15.1982614405
 20
12.5830184969
 30
0.0
 10
15.1980020616
 20
12.4576403887
 30
0.0
 10
15.2011535617
 20
12.3325223616
 30
0.0
 10
15.2077004337
 20
12.2082777029
 30
0.0
 10
15.2159868325
 20
12.1056237092
 30
0.0
 10
15.2243048281
 20
12.0244225216
 30
0.0
 10
15.2313455222
 20
11.9643256322
 30
0.0
 10
15.2392008757
 20
11.9048988111
 30
0.0
 10
15.2478612982
 20
11.8462147553
 30
0.0
 10
15.2573161403
 20
11.7883454263
 30
0.0
 10
15.2675537966
 20
11.7313617332
 30
0.0
 10
15.2785616974
 20
11.6753335054
 30
0.0
 10
15.2903263298
 20
11.6203293903
 30
0.0
 10
15.3028332539
 20
11.5664167721
 30
0.0
 10
15.3160671216
 20
11.513661687
 30
0.0
 10
15.3300116961
 20
11.4621287413
 30
0.0
 10
15.3446498735
 20
11.41188103
 30
0.0
 10
15.3599637034
 20
11.3629800567
 30
0.0
 10
15.3759344149
 20
11.315485657
 30
0.0
 10
15.3925424429
 20
11.2694559243
 30
0.0
 10
15.4097674552
 20
11.2249471361
 30
0.0
 10
15.4275883824
 20
11.1820136837
 30
0.0
 10
15.4459834495
 20
11.1407080034
 30
0.0
 10
15.4649302098
 20
11.1010805114
 30
0.0
 10
15.484405582
 20
11.0631795413
 30
0.0
 10
15.5043858907
 20
11.0270512853
 30
0.0
 10
15.5248469071
 20
10.9927397394
 30
0.0
 10
15.5457638974
 20
10.960286657
 30
0.0
 10
15.5671116738
 20
10.9297315107
 30
0.0
 10
15.5888646467
 20
10.9011114647
 30
0.0
 10
15.610996879
 20
10.8744613591
 30
0.0
 10
15.6334821369
 20
10.8498137126
 30
0.0
 10
15.6562939376
 20
10.8271987424
 30
0.0
 10
15.6794055638
 20
10.8066444119
 30
0.0
 10
15.7027901092
 20
10.7881764822
 30
0.0
 10
15.7264202669
 20
10.7718186292
 30
0.0
 10
15.7502688051
 20
10.7575923579
 30
0.0
 10
15.7743063355
 20
10.7455175799
 30
0.0
 10
15.7946009131
 20
10.7372101298
 30
0.0
 10
15.8108704383
 20
10.7316867311
 30
0.0
 10
15.823024226
 20
10.7281157682
 30
0.0
 10
15.8352009281
 20
10.7250921635
 30
0.0
 10
15.8473969693
 20
10.7226169044
 30
0.0
 10
15.8596084348
 20
10.7206908122
 30
0.0
 10
15.871831586
 20
10.7193145519
 30
0.0
 10
15.8840622325
 20
10.7184886265
 30
0.0
 10
15.8922215455
 20
10.7183049906
 30
0.0
 10
15.8962971179
 20
10.7183049939
 30
0.0
  0
SPLINE
  5
2A4
100
AcDbEntity
  8
02___PRT_ALL_AXES
100
AcDbSpline
 62
7
  6
CONTINUOUS
 70
0
 71
3
 72
38
 73
34
 74
0
 42
0.0000001
 43
0.0000001
 44
0.0000000001
 40
0.0
 40
0.0
 40
0.0
 40
0.0
 40
0.0190383799
 40
0.038310126
 40
0.0579346135
 40
0.0780232807
 40
0.0986779009
 40
0.1199895223
 40
0.1420380247
 40
0.1648921857
 40
0.1886100934
 40
0.2132397803
 40
0.2388199638
 40
0.2653808587
 40
0.2929449752
 40
0.3215278667
 40
0.3511388058
 40
0.3817813972
 40
0.4134541523
 40
0.4461509821
 40
0.479861628
 40
0.5145720267
 40
0.5502646577
 40
0.5869188532
 40
0.6245110624
 40
0.6630150792
 40
0.7024022421
 40
0.7426416546
 40
0.7837003329
 40
0.8255434053
 40
0.8681342922
 40
0.9114343273
 40
1.0
 40
1.0
 40
1.0
 40
1.0
 10
15.9041809389
 20
11.4487694412
 30
0.0
 10
15.8993683499
 20
11.4491349718
 30
0.0
 10
15.889711833
 20
11.450304135
 30
0.0
 10
15.8753244581
 20
11.4533410303
 30
0.0
 10
15.8609910722
 20
11.4576631238
 30
0.0
 10
15.846731406
 20
11.463263277
 30
0.0
 10
15.8325625435
 20
11.4701329624
 30
0.0
 10
15.8185014946
 20
11.478262265
 30
0.0
 10
15.804564638
 20
11.4876400521
 30
0.0
 10
15.7907680615
 20
11.4982540313
 30
0.0
 10
15.7771276088
 20
11.5100907384
 30
0.0
 10
15.7636589684
 20
11.5231354992
 30
0.0
 10
15.7503776782
 20
11.5373723601
 30
0.0
 10
15.7372991508
 20
11.552784075
 30
0.0
 10
15.7244386596
 20
11.5693520821
 30
0.0
 10
15.7118113185
 20
11.5870564884
 30
0.0
 10
15.6994320455
 20
11.605876054
 30
0.0
 10
15.6873155214
 20
11.6257881928
 30
0.0
 10
15.6754761798
 20
11.646769006
 30
0.0
 10
15.6639281714
 20
11.6687933014
 30
0.0
 10
15.6526853433
 20
11.6918346171
 30
0.0
 10
15.6417611929
 20
11.7158652376
 30
0.0
 10
15.6311688571
 20
11.7408562348
 30
0.0
 10
15.6209210966
 20
11.7667775105
 30
0.0
 10
15.6110302744
 20
11.7935978326
 30
0.0
 10
15.6015083361
 20
11.8212848664
 30
0.0
 10
15.5923667739
 20
11.8498052121
 30
0.0
 10
15.5836166389
 20
11.8791244471
 30
0.0
 10
15.5752685053
 20
11.9092071943
 30
0.0
 10
15.567332492
 20
11.9400171068
 30
0.0
 10
15.5598181555
 20
11.9715170768
 30
0.0
 10
15.5503023245
 20
12.0147095887
 30
0.0
 10
15.5439376995
 20
12.0475356484
 30
0.0
 10
15.5400086569
 20
12.0696416236
 30
0.0
  0
SPLINE
  5
2A5
100
AcDbEntity
  8
LAYER_FEATURE
100
AcDbSpline
 62
7
  6
CONTINUOUS
 70
0
 71
3
 72
23
 73
19
 74
0
 42
0.0000001
 43
0.0000001
 44
0.0000000001
 40
0.0
 40
0.0
 40
0.0
 40
0.0
 40
0.0548875093
 40
0.1099820007
 40
0.1654875752
 40
0.221602762
 40
0.2785181072
 40
0.3364141056
 40
0.3954597217
 40
0.4558112482
 40
0.5176116135
 40
0.5809902381
 40
0.6460629811
 40
0.7129324688
 40
0.7816887025
 40
0.85240951
 40
0.9251613291
 40
1.0
 40
1.0
 40
1.0
 40
1.0
 10
15.0458638835
 20
14.3033049829
 30
0.0
 10
15.0519178243
 20
14.3033049769
 30
0.0
 10
15.0640524152
 20
14.3028990669
 30
0.0
 10
15.0822265533
 20
14.3010739956
 30
0.0
 10
15.100375198
 20
14.2980340124
 30
0.0
 10
15.118484307
 20
14.2937816653
 30
0.0
 10
15.1365413786
 20
14.2883204356
 30
0.0
 10
15.1545338043
 20
14.281654798
 30
0.0
 10
15.1724492722
 20
14.2737899368
 30
0.0
 10
15.190275658
 20
14.264731834
 30
0.0
 10
15.2080010769
 20
14.2544872694
 30
0.0
 10
15.2256137474
 20
14.243063628
 30
0.0
 10
15.2431020555
 20
14.2304690553
 30
0.0
 10
15.2604545303
 20
14.2167124037
 30
0.0
 10
15.277659715
 20
14.2018031695
 30
0.0
 10
15.2947063818
 20
14.1857515347
 30
0.0
 10
15.311583076
 20
14.1685687358
 30
0.0
 10
15.3225566437
 20
14.1565390084
 30
0.0
 10
15.328013989
 20
14.1503459371
 30
0.0
  0
SPLINE
  5
2A6
100
AcDbEntity
  8
LAYER_FEATURE
100
AcDbSpline
 62
7
  6
CONTINUOUS
 70
0
 71
3
 72
23
 73
19
 74
0
 42
0.0000001
 43
0.0000001
 44
0.0000000001
 40
0.0
 40
0.0
 40
0.0
 40
0.0
 40
0.0548764387
 40
0.1099602033
 40
0.1654557487
 40
0.2215619067
 40
0.2784695088
 40
0.3363593453
 40
0.3954005569
 40
0.4557496349
 40
0.5175496899
 40
0.5809301823
 40
0.646007097
 40
0.7128831184
 40
0.7816481872
 40
0.8523802095
 40
0.9251455717
 40
1.0
 40
1.0
 40
1.0
 40
1.0
 10
15.0458638835
 20
10.718305003
 30
0.0
 10
15.0519235556
 20
10.718304997
 30
0.0
 10
15.0640696832
 20
10.7187117172
 30
0.0
 10
15.0822610529
 20
10.7205402047
 30
0.0
 10
15.1004268456
 20
10.7235859892
 30
0.0
 10
15.1185529872
 20
10.7278464013
 30
0.0
 10
15.1366269518
 20
10.7333179425
 30
0.0
 10
15.1546360611
 20
10.7399962139
 30
0.0
 10
15.1725680055
 20
10.7478759074
 30
0.0
 10
15.1904106191
 20
10.7569510551
 30
0.0
 10
15.2081519518
 20
10.7672149006
 30
0.0
 10
15.2257802459
 20
10.7786599403
 30
0.0
 10
15.2432838187
 20
10.7912780624
 30
0.0
 10
15.2606511554
 20
10.8050603885
 30
0.0
 10
15.2778708268
 20
10.8199973213
 30
0.0
 10
15.2949315144
 20
10.8360787115
 30
0.0
 10
15.3118217432
 20
10.8532932634
 30
0.0
 10
15.3228037765
 20
10.8653449632
 30
0.0
 10
15.3282652633
 20
10.8715493402
 30
0.0
  0
SPLINE
  5
2A7
100
AcDbEntity
  8
LAYER_FEATURE
100
AcDbSpline
 62
7
  6
CONTINUOUS
 70
0
 71
3
 72
68
 73
64
 74
0
 42
0.0000001
 43
0.0000001
 44
0.0000000001
 40
0.0
 40
0.0
 40
0.0
 40
0.0
 40
0.0038448265
 40
0.0076962392
 40
0.0115607831
 40
0.0154449202
 40
0.0193549915
 40
0.0232971829
 40
0.0272774884
 40
0.0313016907
 40
0.0395020789
 40
0.0479412181
 40
0.0566557572
 40
0.0656777061
 40
0.0750344918
 40
0.0847491527
 40
0.0948406176
 40
0.1053240294
 40
0.1162110792
 40
0.1275103338
 40
0.1392275419
 40
0.1513659152
 40
0.163926381
 40
0.1769078068
 40
0.1903071987
 40
0.2041198767
 40
0.2183396291
 40
0.232958849
 40
0.2479686547
 40
0.2633589967
 40
0.2791187536
 40
0.2952358175
 40
0.3116971723
 40
0.3284889642
 40
0.3455965666
 40
0.3630046406
 40
0.3806971914
 40
0.3986576209
 40
0.4168687774
 40
0.4353130026
 40
0.4539721773
 40
0.4728277646
 40
0.4918608519
 40
0.5110521918
 40
0.549830236
 40
0.5890037206
 40
0.6284105861
 40
0.6678870956
 40
0.7072690133
 40
0.7463927805
 40
0.7850966971
 40
0.8042419852
 40
0.823223137
 40
0.8420210026
 40
0.8606167789
 40
0.8789920514
 40
0.8971288359
 40
0.9150096254
 40
0.9326174244
 40
0.9499358349
 40
0.9669489951
 40
0.9836419142
 40
1.0
 40
1.0
 40
1.0
 40
1.0
 10
15.9527954006
 20
14.3033049919
 30
0.0
 10
15.9568709729
 20
14.3033049952
 30
0.0
 10
15.9650302859
 20
14.3031213593
 30
0.0
 10
15.9772609325
 20
14.302295434
 30
0.0
 10
15.9894840837
 20
14.3009191736
 30
0.0
 10
16.0016955492
 20
14.2989930814
 30
0.0
 10
16.0138915903
 20
14.2965178223
 30
0.0
 10
16.0260682924
 20
14.2934942176
 30
0.0
 10
16.0382220802
 20
14.2899232547
 30
0.0
 10
16.0544916054
 20
14.2843998561
 30
0.0
 10
16.074786183
 20
14.2760924059
 30
0.0
 10
16.0988237133
 20
14.264017628
 30
0.0
 10
16.1226722515
 20
14.2497913567
 30
0.0
 10
16.1463024093
 20
14.2334335036
 30
0.0
 10
16.1696869547
 20
14.2149655739
 30
0.0
 10
16.1927985808
 20
14.1944112434
 30
0.0
 10
16.2156103816
 20
14.1717962732
 30
0.0
 10
16.2380956395
 20
14.1471486267
 30
0.0
 10
16.2602278717
 20
14.1204985211
 30
0.0
 10
16.2819808446
 20
14.0918784751
 30
0.0
 10
16.303328621
 20
14.0613233288
 30
0.0
 10
16.3242456114
 20
14.0288702464
 30
0.0
 10
16.3447066278
 20
13.9945587005
 30
0.0
 10
16.3646869364
 20
13.9584304445
 30
0.0
 10
16.3841623086
 20
13.9205294744
 30
0.0
 10
16.4031090689
 20
13.8809019824
 30
0.0
 10
16.421504136
 20
13.8395963021
 30
0.0
 10
16.4393250633
 20
13.7966628497
 30
0.0
 10
16.4565500756
 20
13.7521540615
 30
0.0
 10
16.4731581035
 20
13.7061243288
 30
0.0
 10
16.4891288151
 20
13.6586299292
 30
0.0
 10
16.5044426449
 20
13.6097289558
 30
0.0
 10
16.5190808224
 20
13.5594812445
 30
0.0
 10
16.5330253969
 20
13.5079482988
 30
0.0
 10
16.5462592646
 20
13.4551932137
 30
0.0
 10
16.5587661887
 20
13.4012805955
 30
0.0
 10
16.5705308211
 20
13.3462764804
 30
0.0
 10
16.5815387218
 20
13.2902482527
 30
0.0
 10
16.5917763782
 20
13.2332645596
 30
0.0
 10
16.6012312202
 20
13.1753952305
 30
0.0
 10
16.6098916427
 20
13.1167111747
 30
0.0
 10
16.6177469963
 20
13.0572843536
 30
0.0
 10
16.6247876903
 20
12.9971874642
 30
0.0
 10
16.633105686
 20
12.9159862766
 30
0.0
 10
16.6413920847
 20
12.813332283
 30
0.0
 10
16.6479389568
 20
12.6890876242
 30
0.0
 10
16.6510904568
 20
12.5639695971
 30
0.0
 10
16.650831078
 20
12.4385914889
 30
0.0
 10
16.6471620944
 20
12.3135667167
 30
0.0
 10
16.6401015675
 20
12.1895081112
 30
0.0
 10
16.6313895754
 20
12.087070009
 30
0.0
 10
16.622734163
 20
12.006087555
 30
0.0
 10
16.6154448513
 20
11.946186564
 30
0.0
 10
16.6073437087
 20
11.8869778746
 30
0.0
 10
16.5984406245
 20
11.8285339156
 30
0.0
 10
16.5887465464
 20
11.7709263531
 30
0.0
 10
16.5782733739
 20
11.7142257712
 30
0.0
 10
16.5670339644
 20
11.6585016578
 30
0.0
 10
16.5550421171
 20
11.6038222593
 30
0.0
 10
16.5423125502
 20
11.5502546313
 30
0.0
 10
16.5288608673
 20
11.4978641964
 30
0.0
 10
16.5147036422
 20
11.4467155234
 30
0.0
 10
16.5047024799
 20
11.413135941
 30
0.0
 10
16.4995829465
 20
11.3965691248
 30
0.0
  0
SPLINE
  5
2A8
100
AcDbEntity
  8
LAYER_FEATURE
100
AcDbSpline
 62
7
  6
CONTINUOUS
 70
0
 71
3
 72
39
 73
35
 74
0
 42
0.0000001
 43
0.0000001
 44
0.0000000001
 40
0.0
 40
0.0
 40
0.0
 40
0.0
 40
0.0212769805
 40
0.0426477427
 40
0.0642045486
 40
0.0860367268
 40
0.1082294314
 40
0.1308626295
 40
0.1540103791
 40
0.1777403604
 40
0.2021136227
 40
0.2271845602
 40
0.2530010567
 40
0.2796047186
 40
0.307031172
 40
0.3353104562
 40
0.3644674123
 40
0.3945220379
 40
0.4254898696
 40
0.4573823626
 40
0.4902072078
 40
0.5239686095
 40
0.5586675988
 40
0.5943022926
 40
0.630868091
 40
0.6683578902
 40
0.7067623015
 40
0.7460698034
 40
0.7862668444
 40
0.8273381134
 40
0.8692665
 40
0.9120330868
 40
0.9556186933
 40
1.0
 40
1.0
 40
1.0
 40
1.0
 10
15.9527954006
 20
10.7183049939
 30
0.0
 10
15.9593428569
 20
10.7183049992
 30
0.0
 10
15.9724715311
 20
10.7187801003
 30
0.0
 10
15.9921292629
 20
10.7209157755
 30
0.0
 10
16.0117543944
 20
10.7244727247
 30
0.0
 10
16.0313290604
 20
10.7294473449
 30
0.0
 10
16.0508374349
 20
10.7358347278
 30
0.0
 10
16.0702635984
 20
10.743628721
 30
0.0
 10
16.0895921029
 20
10.7528221186
 30
0.0
 10
16.108807762
 20
10.7634067327
 30
0.0
 10
16.1278956821
 20
10.775373372
 30
0.0
 10
16.1468411893
 20
10.7887119074
 30
0.0
 10
16.1656297681
 20
10.8034113146
 30
0.0
 10
16.1842470375
 20
10.819459639
 30
0.0
 10
16.2026787713
 20
10.8368439419
 30
0.0
 10
16.220910842
 20
10.8555503521
 30
0.0
 10
16.2389292173
 20
10.8755640497
 30
0.0
 10
16.256720008
 20
10.896869212
 30
0.0
 10
16.2742694636
 20
10.9194490293
 30
0.0
 10
16.2915639588
 20
10.9432857333
 30
0.0
 10
16.3085900198
 20
10.9683605803
 30
0.0
 10
16.3253343814
 20
10.99465383
 30
0.0
 10
16.3417839523
 20
11.0221447958
 30
0.0
 10
16.3579258285
 20
11.050811857
 30
0.0
 10
16.3737473453
 20
11.0806324436
 30
0.0
 10
16.3892360821
 20
11.1115830623
 30
0.0
 10
16.4043798458
 20
11.1436393355
 30
0.0
 10
16.4191666902
 20
11.1767760026
 30
0.0
 10
16.4335849849
 20
11.2109669354
 30
0.0
 10
16.4476233506
 20
11.2461851699
 30
0.0
 10
16.4612706666
 20
11.2824028573
 30
0.0
 10
16.4745162737
 20
11.3195916549
 30
0.0
 10
16.4873495105
 20
11.3577218166
 30
0.0
 10
16.4955506845
 20
11.3835207202
 30
0.0
 10
16.4995829465
 20
11.3965691248
 30
0.0
  0
SPLINE
  5
2A9
100
AcDbEntity
  8
LAYER_CUT_FEAT
100
AcDbSpline
 62
7
  6
CONTINUOUS
 70
0
 71
3
 72
68
 73
64
 74
0
 42
0.0000001
 43
0.0000001
 44
0.0000000001
 40
0.0
 40
0.0
 40
0.0
 40
0.0
 40
0.0038587019
 40
0.007726525
 40
0.0116114054
 40
0.0155211472
 40
0.019463374
 40
0.0234454712
 40
0.0315553727
 40
0.0399060017
 40
0.0485445361
 40
0.0575119904
 40
0.0668431989
 40
0.0765670537
 40
0.086706898
 40
0.0972809983
 40
0.108303037
 40
0.1197825901
 40
0.1317255711
 40
0.1441346308
 40
0.1570095114
 40
0.1703473571
 40
0.1841429846
 40
0.1983891186
 40
0.2130765961
 40
0.2281945457
 40
0.2437305448
 40
0.2596707578
 40
0.2760000606
 40
0.2927021513
 40
0.3097596504
 40
0.3271541933
 40
0.3448665146
 40
0.362876527
 40
0.3811633954
 40
0.399705607
 40
0.4184810376
 40
0.4374670156
 40
0.4566403835
 40
0.4954533998
 40
0.5347285738
 40
0.5742690647
 40
0.6138757181
 40
0.6533488063
 40
0.6924897612
 40
0.7118749779
 40
0.7311041261
 40
0.7501534964
 40
0.7689997864
 40
0.78762016
 40
0.8059923083
 40
0.8240945128
 40
0.8419057111
 40
0.8594055656
 40
0.8765745357
 40
0.8933939557
 40
0.9098461161
 40
0.9259143563
 40
0.9415831526
 40
0.9568382538
 40
0.9716667228
 40
0.9860572599
 40
1.0
 40
1.0
 40
1.0
 40
1.0
 10
15.9440491245
 20
13.8283002414
 30
0.0
 10
15.9407502339
 20
13.8282774889
 30
0.0
 10
15.934144622
 20
13.8280681661
 30
0.0
 10
15.9242463584
 20
13.82726365
 30
0.0
 10
15.9143560262
 20
13.8259686692
 30
0.0
 10
15.9044777894
 20
13.8241839204
 30
0.0
 10
15.8946151582
 20
13.8219099413
 30
0.0
 10
15.8814125056
 20
13.8182053441
 30
0.0
 10
15.8649287487
 20
13.8123193486
 30
0.0
 10
15.8454036063
 20
13.8033588694
 30
0.0
 10
15.8260382542
 20
13.7924742244
 30
0.0
 10
15.8068616593
 20
13.7796846505
 30
0.0
 10
15.7879003682
 20
13.7650111051
 30
0.0
 10
15.769180927
 20
13.7484767121
 30
0.0
 10
15.7507294535
 20
13.7301067416
 30
0.0
 10
15.7325718893
 20
13.7099287611
 30
0.0
 10
15.71473396
 20
13.687972725
 30
0.0
 10
15.6972411543
 20
13.6642710457
 30
0.0
 10
15.6801186612
 20
13.6388586272
 30
0.0
 10
15.6633913032
 20
13.6117728704
 30
0.0
 10
15.6470834658
 20
13.5830536549
 30
0.0
 10
15.6312190322
 20
13.5527433005
 30
0.0
 10
15.6158213215
 20
13.5208865175
 30
0.0
 10
15.6009130325
 20
13.4875303454
 30
0.0
 10
15.5865161924
 20
13.4527240858
 30
0.0
 10
15.5726521111
 20
13.4165192276
 30
0.0
 10
15.5593413382
 20
13.3789693694
 30
0.0
 10
15.5466036243
 20
13.3401301368
 30
0.0
 10
15.5344578861
 20
13.3000590972
 30
0.0
 10
15.5229221725
 20
13.2588156712
 30
0.0
 10
15.5120136347
 20
13.216461042
 30
0.0
 10
15.5017484981
 20
13.1730580618
 30
0.0
 10
15.492142035
 20
13.1286711566
 30
0.0
 10
15.4832085406
 20
13.0833662276
 30
0.0
 10
15.4749613125
 20
13.0372105547
 30
0.0
 10
15.4674126232
 20
12.9902726799
 30
0.0
 10
15.4605737273
 20
12.9426223619
 30
0.0
 10
15.4544547454
 20
12.8943302518
 30
0.0
 10
15.4472393562
 20
12.8289176793
 30
0.0
 10
15.4400981202
 20
12.7460569083
 30
0.0
 10
15.4345518186
 20
12.6456290211
 30
0.0
 10
15.4320276928
 20
12.5444008256
 30
0.0
 10
15.4325407849
 20
12.4429733419
 30
0.0
 10
15.436088081
 20
12.3419487481
 30
0.0
 10
15.4415721826
 20
12.2583301729
 30
0.0
 10
15.4474733118
 20
12.1921139923
 30
0.0
 10
15.45262476
 20
12.1430825013
 30
0.0
 10
15.4585079637
 20
12.0945975752
 30
0.0
 10
15.4651142181
 20
12.0467311124
 30
0.0
 10
15.4724336724
 20
11.9995542616
 30
0.0
 10
15.4804554337
 20
11.9531370937
 30
0.0
 10
15.489167559
 20
11.9075485543
 30
0.0
 10
15.4985570803
 20
11.8628563444
 30
0.0
 10
15.5086100234
 20
11.8191268232
 30
0.0
 10
15.5193114301
 20
11.7764249054
 30
0.0
 10
15.5306453822
 20
11.7348139652
 30
0.0
 10
15.5425950255
 20
11.6943557358
 30
0.0
 10
15.5551426004
 20
11.6551102274
 30
0.0
 10
15.5682694695
 20
11.6171355973
 30
0.0
 10
15.5819561378
 20
11.5804881764
 30
0.0
 10
15.5961823664
 20
11.5452220437
 30
0.0
 10
15.6109268843
 20
11.5113899049
 30
0.0
 10
15.6212531549
 20
11.4894729699
 30
0.0
 10
15.6265045315
 20
11.4787717895
 30
0.0
  0
SPLINE
  5
2AA
100
AcDbEntity
  8
LAYER_FEATURE
100
AcDbSpline
 62
7
  6
CONTINUOUS
 70
0
 71
3
 72
39
 73
35
 74
0
 42
0.0000001
 43
0.0000001
 44
0.0000000001
 40
0.0
 40
0.0
 40
0.0
 40
0.0
 40
0.0443813067
 40
0.0879669132
 40
0.1307335
 40
0.1726618866
 40
0.2137331556
 40
0.2539301966
 40
0.2932376985
 40
0.3316421098
 40
0.369131909
 40
0.4056977074
 40
0.4413324012
 40
0.4760313905
 40
0.5097927922
 40
0.5426176374
 40
0.5745101304
 40
0.6054779621
 40
0.6355325877
 40
0.6646895438
 40
0.692968828
 40
0.7203952814
 40
0.7469989433
 40
0.7728154398
 40
0.7978863773
 40
0.8222596396
 40
0.8459896209
 40
0.8691373705
 40
0.8917705686
 40
0.9139632732
 40
0.9357954514
 40
0.9573522573
 40
0.9787230195
 40
1.0
 40
1.0
 40
1.0
 40
1.0
 10
15.349509572
 20
13.625040861
 30
0.0
 10
15.353541834
 20
13.6380892656
 30
0.0
 10
15.361743008
 20
13.6638881692
 30
0.0
 10
15.3745762448
 20
13.7020183309
 30
0.0
 10
15.3878218519
 20
13.7392071285
 30
0.0
 10
15.4014691679
 20
13.775424816
 30
0.0
 10
15.4155075335
 20
13.8106430504
 30
0.0
 10
15.4299258283
 20
13.8448339832
 30
0.0
 10
15.4447126726
 20
13.8779706503
 30
0.0
 10
15.4598564364
 20
13.9100269235
 30
0.0
 10
15.4753451732
 20
13.9409775422
 30
0.0
 10
15.49116669
 20
13.9707981288
 30
0.0
 10
15.5073085662
 20
13.99946519
 30
0.0
 10
15.5237581371
 20
14.0269561558
 30
0.0
 10
15.5405024987
 20
14.0532494055
 30
0.0
 10
15.5575285596
 20
14.0783242526
 30
0.0
 10
15.5748230549
 20
14.1021609565
 30
0.0
 10
15.5923725105
 20
14.1247407738
 30
0.0
 10
15.6101633012
 20
14.1460459361
 30
0.0
 10
15.6281816765
 20
14.1660596337
 30
0.0
 10
15.6464137471
 20
14.1847660439
 30
0.0
 10
15.664845481
 20
14.2021503468
 30
0.0
 10
15.6834627504
 20
14.2181986712
 30
0.0
 10
15.7022513292
 20
14.2328980784
 30
0.0
 10
15.7211968364
 20
14.2462366138
 30
0.0
 10
15.7402847564
 20
14.2582032531
 30
0.0
 10
15.7595004155
 20
14.2687878672
 30
0.0
 10
15.7788289201
 20
14.2779812648
 30
0.0
 10
15.7982550836
 20
14.2857752581
 30
0.0
 10
15.8177634581
 20
14.2921626409
 30
0.0
 10
15.8373381241
 20
14.2971372611
 30
0.0
 10
15.8569632556
 20
14.3006942104
 30
0.0
 10
15.8766209873
 20
14.3028298855
 30
0.0
 10
15.8897496615
 20
14.3033049866
 30
0.0
 10
15.8962971179
 20
14.3033049919
 30
0.0
  0
SPLINE
  5
2AB
100
AcDbEntity
  8
LAYER_FEATURE
100
AcDbSpline
 62
7
  6
CONTINUOUS
 70
0
 71
3
 72
67
 73
63
 74
0
 42
0.0000001
 43
0.0000001
 44
0.0000000001
 40
0.0
 40
0.0
 40
0.0
 40
0.0
 40
0.0163581013
 40
0.0330510694
 40
0.0500642491
 40
0.0673826926
 40
0.0849905208
 40
0.1028713409
 40
0.1210081566
 40
0.1393834611
 40
0.15797927
 40
0.1767771682
 40
0.1957583526
 40
0.2149036734
 40
0.2536076561
 40
0.292731491
 40
0.3321134768
 40
0.371590054
 40
0.4109969877
 40
0.45017054
 40
0.4889486503
 40
0.5081400228
 40
0.5271731428
 40
0.546028763
 40
0.5646879707
 40
0.5831322282
 40
0.601343416
 40
0.6193038759
 40
0.6369964566
 40
0.65440456
 40
0.6715121917
 40
0.6883040129
 40
0.7047653969
 40
0.720882489
 40
0.7366422729
 40
0.7520326412
 40
0.7670424724
 40
0.7816617173
 40
0.7958814943
 40
0.8096941963
 40
0.8230936114
 40
0.8360750592
 40
0.8486355463
 40
0.8607739405
 40
0.872491169
 40
0.8837904436
 40
0.8946775128
 40
0.905160943
 40
0.9152524249
 40
0.9249671014
 40
0.9343239024
 40
0.9433458667
 40
0.9520604213
 40
0.9604995757
 40
0.9686999787
 40
0.9767027777
 40
0.9806449746
 40
0.9845550535
 40
0.9884391969
 40
0.9923037475
 40
0.9961551669
 40
1.0
 40
1.0
 40
1.0
 40
1.0
 10
14.4425780549
 20
13.625040861
 30
0.0
 10
14.4374585255
 20
13.6084740577
 30
0.0
 10
14.4274573629
 20
13.574894467
 30
0.0
 10
14.413300135
 20
13.5237457973
 30
0.0
 10
14.3998484524
 20
13.4713553475
 30
0.0
 10
14.3871188847
 20
13.4177877282
 30
0.0
 10
14.3751270368
 20
13.3631083278
 30
0.0
 10
14.3638876261
 20
13.3073842161
 30
0.0
 10
14.3534144529
 20
13.2506836343
 30
0.0
 10
14.3437203758
 20
13.1930760707
 30
0.0
 10
14.3348172944
 20
13.13463211
 30
0.0
 10
14.3267161533
 20
13.0754234197
 30
0.0
 10
14.3194268415
 20
13.015522429
 30
0.0
 10
14.3107714273
 20
12.9345399763
 30
0.0
 10
14.3020594302
 20
12.8321018752
 30
0.0
 10
14.2949989033
 20
12.7080432696
 30
0.0
 10
14.291329929
 20
12.583018497
 30
0.0
 10
14.2910705489
 20
12.4576403887
 30
0.0
 10
14.2942220404
 20
12.3325223611
 30
0.0
 10
14.3007689121
 20
12.2082777024
 30
0.0
 10
14.3090553177
 20
12.1056237103
 30
0.0
 10
14.3173733157
 20
12.0244225243
 30
0.0
 10
14.3244140093
 20
11.964325635
 30
0.0
 10
14.33226936
 20
11.9048988123
 30
0.0
 10
14.3409297791
 20
11.846214754
 30
0.0
 10
14.3503846194
 20
11.7883454234
 30
0.0
 10
14.3606222769
 20
11.7313617305
 30
0.0
 10
14.3716301796
 20
11.6753335046
 30
0.0
 10
14.383394814
 20
11.6203293918
 30
0.0
 10
14.3959017394
 20
11.5664167754
 30
0.0
 10
14.4091356072
 20
11.5136616907
 30
0.0
 10
14.4230801807
 20
11.4621287436
 30
0.0
 10
14.4377183556
 20
11.4118810297
 30
0.0
 10
14.4530321846
 20
11.3629800548
 30
0.0
 10
14.4690028968
 20
11.3154856554
 30
0.0
 10
14.4856109257
 20
11.2694559239
 30
0.0
 10
14.5028359387
 20
11.2249471369
 30
0.0
 10
14.5206568661
 20
11.182013685
 30
0.0
 10
14.5390519329
 20
11.1407080044
 30
0.0
 10
14.5579986926
 20
11.1010805118
 30
0.0
 10
14.5774740645
 20
11.0631795415
 30
0.0
 10
14.5974543739
 20
11.0270512866
 30
0.0
 10
14.6179153909
 20
10.992739742
 30
0.0
 10
14.6388323813
 20
10.9602866598
 30
0.0
 10
14.6601801574
 20
10.9297315124
 30
0.0
 10
14.6819331296
 20
10.901111464
 30
0.0
 10
14.7040653608
 20
10.8744613557
 30
0.0
 10
14.7265506184
 20
10.8498137075
 30
0.0
 10
14.7493624178
 20
10.8271987398
 30
0.0
 10
14.7724740525
 20
10.806644414
 30
0.0
 10
14.7958585767
 20
10.7881764945
 30
0.0
 10
14.8194888126
 20
10.7718186229
 30
0.0
 10
14.8433370717
 20
10.757592416
 30
0.0
 10
14.8673755914
 20
10.745517391
 30
0.0
 10
14.8915741314
 20
10.7356112853
 30
0.0
 10
14.9119538043
 20
10.7291433274
 30
0.0
 10
14.928269311
 20
10.7250922381
 30
0.0
 10
14.9404654764
 20
10.7226168732
 30
0.0
 10
14.9526769119
 20
10.7206908248
 30
0.0
 10
14.9649000707
 20
10.7193145543
 30
0.0
 10
14.9771307145
 20
10.7184886124
 30
0.0
 10
14.9852900285
 20
10.7183050069
 30
0.0
 10
14.9893656008
 20
10.718305003
 30
0.0
  0
SPLINE
  5
2AC
100
AcDbEntity
  8
LAYER_FEATURE
100
AcDbSpline
 62
7
  6
CONTINUOUS
 70
0
 71
3
 72
39
 73
35
 74
0
 42
0.0000001
 43
0.0000001
 44
0.0000000001
 40
0.0
 40
0.0
 40
0.0
 40
0.0
 40
0.0443812481
 40
0.0879669295
 40
0.1307335086
 40
0.172661876
 40
0.2137331571
 40
0.2539301992
 40
0.2932376968
 40
0.3316421073
 40
0.369131911
 40
0.4056977099
 40
0.4413323968
 40
0.4760313903
 40
0.5097927974
 40
0.5426176342
 40
0.5745101269
 40
0.6054779669
 40
0.6355325892
 40
0.664689538
 40
0.6929688298
 40
0.7203952869
 40
0.7469989387
 40
0.7728154376
 40
0.7978863828
 40
0.8222596394
 40
0.8459896168
 40
0.869137373
 40
0.8917705712
 40
0.9139632708
 40
0.935795451
 40
0.9573522592
 40
0.9787230199
 40
1.0
 40
1.0
 40
1.0
 40
1.0
 10
14.4425780549
 20
13.625040861
 30
0.0
 10
14.4466103116
 20
13.6380892484
 30
0.0
 10
14.4548114895
 20
13.663888156
 30
0.0
 10
14.4676447237
 20
13.7020183212
 30
0.0
 10
14.4808903342
 20
13.7392071334
 30
0.0
 10
14.4945376539
 20
13.7754248145
 30
0.0
 10
14.5085760166
 20
13.810643048
 30
0.0
 10
14.5229943086
 20
13.844833985
 30
0.0
 10
14.5377811566
 20
13.8779706491
 30
0.0
 10
14.5529249226
 20
13.9100269209
 30
0.0
 10
14.5684136543
 20
13.9409775435
 30
0.0
 10
14.5842351692
 20
13.9707981307
 30
0.0
 10
14.600377055
 20
13.9994651856
 30
0.0
 10
14.6168266208
 20
14.0269561551
 30
0.0
 10
14.6335709745
 20
14.0532494105
 30
0.0
 10
14.6505970472
 20
14.0783242484
 30
0.0
 10
14.6678915424
 20
14.1021609518
 30
0.0
 10
14.6854409874
 20
14.1247407793
 30
0.0
 10
14.703231782
 20
14.1460459377
 30
0.0
 10
14.7212501678
 20
14.1660596242
 30
0.0
 10
14.7394822281
 20
14.1847660458
 30
0.0
 10
14.7579139559
 20
14.2021503564
 30
0.0
 10
14.776531241
 20
14.2181986608
 30
0.0
 10
14.7953198153
 20
14.2328980726
 30
0.0
 10
14.8142653111
 20
14.2462366271
 30
0.0
 10
14.8333532409
 20
14.2582032509
 30
0.0
 10
14.8525689052
 20
14.2687878519
 30
0.0
 10
14.8718973986
 20
14.2779812742
 30
0.0
 10
14.8913235635
 20
14.2857752682
 30
0.0
 10
14.910831946
 20
14.2921626229
 30
0.0
 10
14.9304066067
 20
14.2971372584
 30
0.0
 10
14.9500317362
 20
14.3006942309
 30
0.0
 10
14.9696894716
 20
14.3028298689
 30
0.0
 10
14.9828181446
 20
14.3033049893
 30
0.0
 10
14.9893656008
 20
14.3033049829
 30
0.0
  0
SPLINE
  5
2AD
100
AcDbEntity
  8
02___PRT_ALL_AXES
100
AcDbSpline
 62
7
  6
CONTINUOUS
 70
0
 71
3
 72
36
 73
32
 74
0
 42
0.0000001
 43
0.0000001
 44
0.0000000001
 40
0.0
 40
0.0
 40
0.0
 40
0.0
 40
0.0747126253
 40
0.1497754327
 40
0.2247152476
 40
0.2619927258
 40
0.2990629068
 40
0.3358678669
 40
0.3723504158
 40
0.4084542641
 40
0.4441241938
 40
0.4793062344
 40
0.5139478443
 40
0.5479980996
 40
0.5814078917
 40
0.6141301366
 40
0.6461199978
 40
0.6773351266
 40
0.7077359241
 40
0.7372858293
 40
0.7659516406
 40
0.7937038769
 40
0.8205171895
 40
0.8463708342
 40
0.8712492182
 40
0.8951425386
 40
0.9180475212
 40
0.9399683046
 40
0.96091741
 40
0.9809170003
 40
1.0
 40
1.0
 40
1.0
 40
1.0
 10
15.507308303
 20
12.3519292174
 30
0.0
 10
15.5055217357
 20
12.3822656064
 30
0.0
 10
15.5029840243
 20
12.4431469996
 30
0.0
 10
15.5022487235
 20
12.5345615043
 30
0.0
 10
15.5041887889
 20
12.6107279224
 30
0.0
 10
15.5072788984
 20
12.6713735022
 30
0.0
 10
15.5103522029
 20
12.7164819892
 30
0.0
 10
15.5141792635
 20
12.7612081926
 30
0.0
 10
15.5187530067
 20
12.8054691898
 30
0.0
 10
15.5240648985
 20
12.8491827152
 30
0.0
 10
15.5301050491
 20
12.8922675846
 30
0.0
 10
15.5368622085
 20
12.9346437764
 30
0.0
 10
15.5443237938
 20
12.9762326013
 30
0.0
 10
15.5524759121
 20
13.016956845
 30
0.0
 10
15.5613033878
 20
13.0567409163
 30
0.0
 10
15.5707897928
 20
13.0955109892
 30
0.0
 10
15.5809174785
 20
13.133195144
 30
0.0
 10
15.5916676125
 20
13.1697235044
 30
0.0
 10
15.6030202176
 20
13.2050283715
 30
0.0
 10
15.6149542146
 20
13.2390443542
 30
0.0
 10
15.6274474697
 20
13.2717084958
 30
0.0
 10
15.6404768459
 20
13.3029603955
 30
0.0
 10
15.6540182613
 20
13.332742326
 30
0.0
 10
15.6680467515
 20
13.3609993426
 30
0.0
 10
15.6825365453
 20
13.3876793892
 30
0.0
 10
15.6974611336
 20
13.4127333758
 30
0.0
 10
15.7127934026
 20
13.4361153027
 30
0.0
 10
15.7285055811
 20
13.4577821517
 30
0.0
 10
15.7445698974
 20
13.4776944543
 30
0.0
 10
15.7609567528
 20
13.4958144501
 30
0.0
 10
15.7723380838
 20
13.5069317426
 30
0.0
 10
15.7780759661
 20
13.5121589678
 30
0.0
  0
LINE
  5
2AE
100
AcDbEntity
  8
02___PRT_ALL_AXES
100
AcDbLine
 62
7
  6
CONTINUOUS
 10
15.8904356475
 20
13.5712087428
 11
15.7846380101
 21
13.5633018719
  0
SPLINE
  5
2AF
100
AcDbEntity
  8
LAYER_FEATURE
100
AcDbSpline
 62
7
  6
CONTINUOUS
 70
0
 71
3
 72
32
 73
28
 74
0
 42
0.0000001
 43
0.0000001
 44
0.0000000001
 40
0.0
 40
0.0
 40
0.0
 40
0.0
 40
0.0836608617
 40
0.1647030251
 40
0.2430169821
 40
0.3185065024
 40
0.3910920446
 40
0.4607121783
 40
0.4943986523
 40
0.5273304612
 40
0.5595062246
 40
0.5909263113
 40
0.6215928783
 40
0.6515100297
 40
0.6806840018
 40
0.7091232239
 40
0.7368386133
 40
0.7638436232
 40
0.7901545257
 40
0.8157905558
 40
0.8407740895
 40
0.8651308981
 40
0.9120729728
 40
0.9347400086
 40
0.9569198886
 40
0.978657121
 40
1.0
 40
1.0
 40
1.0
 40
1.0
 10
15.4975008867
 20
13.3885596624
 30
0.0
 10
15.5028680351
 20
13.405927761
 30
0.0
 10
15.5139009287
 20
13.4399786009
 30
0.0
 10
15.5316494021
 20
13.489719339
 30
0.0
 10
15.5503022107
 20
13.5372268249
 30
0.0
 10
15.5698169326
 20
13.5823929752
 30
0.0
 10
15.5901490902
 20
13.6251148157
 30
0.0
 10
15.6079257538
 20
13.6589617726
 30
0.0
 10
15.6225380922
 20
13.6847093335
 30
0.0
 10
15.6335519826
 20
13.7031375405
 30
0.0
 10
15.6447343553
 20
13.7208846366
 30
0.0
 10
15.6560789156
 20
13.7379405909
 30
0.0
 10
15.6675792273
 20
13.7542956713
 30
0.0
 10
15.6792288093
 20
13.7699405561
 30
0.0
 10
15.6910210407
 20
13.7848663604
 30
0.0
 10
15.702949332
 20
13.7990645384
 30
0.0
 10
15.715006918
 20
13.8125270358
 30
0.0
 10
15.7271870611
 20
13.8252461189
 30
0.0
 10
15.7394829634
 20
13.8372145572
 30
0.0
 10
15.7518875632
 20
13.8484253602
 30
0.0
 10
15.7643946035
 20
13.858872475
 30
0.0
 10
15.7809907586
 20
13.8716168566
 30
0.0
 10
15.7979739479
 20
13.8830110172
 30
0.0
 10
15.8152994239
 20
13.8929041744
 30
0.0
 10
15.8282101514
 20
13.8994481819
 30
0.0
 10
15.8411792848
 20
13.9051975214
 30
0.0
 10
15.8499340785
 20
13.9085265672
 30
0.0
 10
15.8543134488
 20
13.9100523291
 30
0.0
  0
SPLINE
  5
2B0
100
AcDbEntity
  8
02___PRT_ALL_AXES
100
AcDbSpline
 62
7
  6
CONTINUOUS
 70
0
 71
3
 72
32
 73
28
 74
0
 42
0.0000001
 43
0.0000001
 44
0.0000000001
 40
0.0
 40
0.0
 40
0.0
 40
0.0
 40
0.0165942269
 40
0.0334194281
 40
0.0506950882
 40
0.0686198424
 40
0.0873655196
 40
0.1070748671
 40
0.127861853
 40
0.1498135591
 40
0.172993199
 40
0.1974431341
 40
0.2231875028
 40
0.2502349102
 40
0.2785806618
 40
0.3082083697
 40
0.3390915355
 40
0.3711949641
 40
0.4044756732
 40
0.4388837415
 40
0.5108462647
 40
0.586581393
 40
0.6655112141
 40
0.7470038948
 40
0.8303869414
 40
0.9149580509
 40
1.0
 40
1.0
 40
1.0
 40
1.0
 10
16.0595543353
 20
11.424561519
 30
0.0
 10
16.0605740953
 20
11.424561511
 30
0.0
 10
16.0626302077
 20
11.424694958
 30
0.0
 10
16.0656955521
 20
11.4252929389
 30
0.0
 10
16.0687424305
 20
11.4262864135
 30
0.0
 10
16.0717618372
 20
11.4276711977
 30
0.0
 10
16.0747464754
 20
11.429442234
 30
0.0
 10
16.0776893422
 20
11.4315939406
 30
0.0
 10
16.0805837824
 20
11.4341202209
 30
0.0
 10
16.0834232754
 20
11.4370143499
 30
0.0
 10
16.0862013156
 20
11.4402689621
 30
0.0
 10
16.0889113923
 20
11.443875946
 30
0.0
 10
16.0915470803
 20
11.4478263419
 30
0.0
 10
16.0941020232
 20
11.4521103674
 30
0.0
 10
16.0965699574
 20
11.4567174204
 30
0.0
 10
16.0989448038
 20
11.4616360539
 30
0.0
 10
16.101220686
 20
11.4668540182
 30
0.0
 10
16.1033919
 20
11.4723582988
 30
0.0
 10
16.1054530546
 20
11.4781351708
 30
0.0
 10
16.1080868662
 20
11.486304152
 30
0.0
 10
16.1110522205
 20
11.4971014317
 30
0.0
 10
16.1140467414
 20
11.5107079993
 30
0.0
 10
16.1164982684
 20
11.5250170408
 30
0.0
 10
16.1183819855
 20
11.5398851492
 30
0.0
 10
16.1196787145
 20
11.555163652
 30
0.0
 10
16.120375318
 20
11.5706991596
 30
0.0
 10
16.1204348896
 20
11.5811253021
 30
0.0
 10
16.1203627023
 20
11.5863508603
 30
0.0
  0
SPLINE
  5
2B1
100
AcDbEntity
  8
LAYER_FEATURE
100
AcDbSpline
 62
7
  6
CONTINUOUS
 70
0
 71
3
 72
99
 73
95
 74
0
 42
0.0000001
 43
0.0000001
 44
0.0000000001
 40
0.0
 40
0.0
 40
0.0
 40
0.0
 40
0.0178412071
 40
0.0361831519
 40
0.0549943238
 40
0.0742409385
 40
0.0938874902
 40
0.1138968377
 40
0.1342304219
 40
0.1548484491
 40
0.1757100653
 40
0.1967735239
 40
0.2179963484
 40
0.2393354938
 40
0.2607475032
 40
0.2821886636
 40
0.3036151592
 40
0.3249832258
 40
0.3462493049
 40
0.367370198
 40
0.388303223
 40
0.4090063738
 40
0.4294384831
 40
0.4495593875
 40
0.4693300999
 40
0.4887129906
 40
0.5076719791
 40
0.526172735
 40
0.5441828959
 40
0.5616723064
 40
0.5786132867
 40
0.5949809318
 40
0.6107534497
 40
0.6184110076
 40
0.6259132495
 40
0.6332585109
 40
0.6404454203
 40
0.6474728993
 40
0.6543401936
 40
0.6610469005
 40
0.6675929778
 40
0.673978793
 40
0.6802051366
 40
0.686273259
 40
0.6921849161
 40
0.6979423874
 40
0.7035485368
 40
0.7090068425
 40
0.7143214394
 40
0.7245373784
 40
0.7294529549
 40
0.7342488484
 40
0.738933111
 40
0.7435146696
 40
0.7480033129
 40
0.7524096819
 40
0.7567452282
 40
0.7610221427
 40
0.7652532713
 40
0.7694519891
 40
0.7736320618
 40
0.7778074851
 40
0.781992312
 40
0.7862004788
 40
0.7904456363
 40
0.7947409961
 40
0.799099192
 40
0.8035321769
 40
0.8080511314
 40
0.8126664113
 40
0.8173875178
 40
0.822223075
 40
0.8322653857
 40
0.837487551
 40
0.8428503033
 40
0.8483582374
 40
0.8540152668
 40
0.8598246554
 40
0.8657890608
 40
0.8719105884
 40
0.8781908109
 40
0.8846308237
 40
0.8912312714
 40
0.8979923736
 40
0.9049139714
 40
0.9119955335
 40
0.9192361955
 40
0.9266347807
 40
0.9341898098
 40
0.9418995372
 40
0.9497619477
 40
0.9659350457
 40
0.9826889852
 40
1.0
 40
1.0
 40
1.0
 40
1.0
 10
15.4197121545
 20
13.5470764322
 30
0.0
 10
15.4130116046
 20
13.5253934446
 30
0.0
 10
15.4000554421
 20
13.481221007
 30
0.0
 10
15.3821701461
 20
13.4135834053
 30
0.0
 10
15.3655965669
 20
13.3437737138
 30
0.0
 10
15.3503748947
 20
13.2719602373
 30
0.0
 10
15.336541793
 20
13.1983154312
 30
0.0
 10
15.3241306611
 20
13.1230163782
 30
0.0
 10
15.3131714417
 20
13.0462441473
 30
0.0
 10
15.3036905915
 20
12.9681834069
 30
0.0
 10
15.2957110019
 20
12.8890219518
 30
0.0
 10
15.2892519478
 20
12.8089502541
 30
0.0
 10
15.2843290197
 20
12.728160999
 30
0.0
 10
15.2809541014
 20
12.6468486144
 30
0.0
 10
15.279135343
 20
12.5652087969
 30
0.0
 10
15.2788771416
 20
12.4834380379
 30
0.0
 10
15.2801801243
 20
12.401733147
 30
0.0
 10
15.283041137
 20
12.3202907737
 30
0.0
 10
15.2874532694
 20
12.23930693
 30
0.0
 10
15.2934058685
 20
12.1589765157
 30
0.0
 10
15.3008845681
 20
12.0794928448
 30
0.0
 10
15.309871307
 20
12.0010471728
 30
0.0
 10
15.3203443823
 20
11.9238282313
 30
0.0
 10
15.3322785105
 20
11.8480217704
 30
0.0
 10
15.3456448893
 20
11.7738101055
 30
0.0
 10
15.3604112684
 20
11.7013716683
 30
0.0
 10
15.3765420162
 20
11.630880561
 30
0.0
 10
15.3939982307
 20
11.5625061377
 30
0.0
 10
15.4127378451
 20
11.4964125635
 30
0.0
 10
15.4327157275
 20
11.4327584886
 30
0.0
 10
15.4538838661
 20
11.3716963389
 30
0.0
 10
15.4761912604
 20
11.3133730043
 30
0.0
 10
15.4958748102
 20
11.2667194815
 30
0.0
 10
15.512171759
 20
11.2309038417
 30
0.0
 10
15.5245247886
 20
11.2050768747
 30
0.0
 10
15.5371208447
 20
11.1800359035
 30
0.0
 10
15.5499524029
 20
11.1557958807
 30
0.0
 10
15.5630117747
 20
11.1323713856
 30
0.0
 10
15.5762911529
 20
11.1097764787
 30
0.0
 10
15.5897825537
 20
11.0880247001
 30
0.0
 10
15.6034779669
 20
11.0671291264
 30
0.0
 10
15.6173691797
 20
11.0471022698
 30
0.0
 10
15.6314479263
 20
11.0279561494
 30
0.0
 10
15.645705861
 20
11.0097022662
 30
0.0
 10
15.6601344593
 20
10.9923515573
 30
0.0
 10
15.674725274
 20
10.9759144369
 30
0.0
 10
15.6894694701
 20
10.9604009398
 30
0.0
 10
15.7043589897
 20
10.9458198177
 30
0.0
 10
15.7241307272
 20
10.9278721757
 30
0.0
 10
15.7444150848
 20
10.9115351593
 30
0.0
 10
15.765187069
 20
10.8969942855
 30
0.0
 10
15.7806677662
 20
10.8871994111
 30
0.0
 10
15.7962393957
 20
10.878382644
 30
0.0
 10
15.8118930588
 20
10.8705493599
 30
0.0
 10
15.8276193479
 20
10.8637048071
 30
0.0
 10
15.8434088111
 20
10.8578535665
 30
0.0
 10
15.8592518088
 20
10.8529996158
 30
0.0
 10
15.8751385973
 20
10.8491464581
 30
0.0
 10
15.8910592309
 20
10.8462967943
 30
0.0
 10
15.9070036618
 20
10.8444527568
 30
0.0
 10
15.9229617192
 20
10.8436157473
 30
0.0
 10
15.9389231675
 20
10.8437863243
 30
0.0
 10
15.9548777535
 20
10.8449644506
 30
0.0
 10
15.9708152609
 20
10.8471491702
 30
0.0
 10
15.9867255581
 20
10.8503388729
 30
0.0
 10
16.0025986144
 20
10.8545312698
 30
0.0
 10
16.0184245834
 20
10.8597232823
 30
0.0
 10
16.0341937138
 20
10.8659113555
 30
0.0
 10
16.0498964796
 20
10.8730912395
 30
0.0
 10
16.0655233621
 20
10.8812580814
 30
0.0
 10
16.0810654211
 20
10.8904068506
 30
0.0
 10
16.1019230658
 20
10.9040771536
 30
0.0
 10
16.122312405
 20
10.9195687686
 30
0.0
 10
16.1421986021
 20
10.9366929365
 30
0.0
 10
16.157179133
 20
10.9506521902
 30
0.0
 10
16.1720200975
 20
10.9655497038
 30
0.0
 10
16.1867134217
 20
10.9813771014
 30
0.0
 10
16.2012502352
 20
10.9981246786
 30
0.0
 10
16.2156220272
 20
11.0157823867
 30
0.0
 10
16.2298202109
 20
11.0343396447
 30
0.0
 10
16.243836403
 20
11.0537852866
 30
0.0
 10
16.2576622427
 20
11.0741076588
 30
0.0
 10
16.2712894727
 20
11.095294579
 30
0.0
 10
16.2847100002
 20
11.1173333152
 30
0.0
 10
16.2979157523
 20
11.1402106703
 30
0.0
 10
16.3108988609
 20
11.1639128978
 30
0.0
 10
16.3236515426
 20
11.1884257715
 30
0.0
 10
16.3361661277
 20
11.2137345899
 30
0.0
 10
16.3484351336
 20
11.2398241175
 30
0.0
 10
16.360451219
 20
11.2666787629
 30
0.0
 10
16.376274312
 20
11.3038326967
 30
0.0
 10
16.3953432629
 20
11.3520990098
 30
0.0
 10
16.416893744
 20
11.4122705625
 30
0.0
 10
16.4302670492
 20
11.4534949256
 30
0.0
 10
16.436768477
 20
11.4745335536
 30
0.0
  0
SPLINE
  5
2B2
100
AcDbEntity
  8
LAYER_FEATURE
100
AcDbSpline
 62
7
  6
CONTINUOUS
 70
0
 71
3
 72
68
 73
64
 74
0
 42
0.0000001
 43
0.0000001
 44
0.0000000001
 40
0.0
 40
0.0
 40
0.0
 40
0.0
 40
0.0163580858
 40
0.0330510049
 40
0.0500641651
 40
0.0673825756
 40
0.0849903746
 40
0.1028711641
 40
0.1210079486
 40
0.1393832211
 40
0.1579789974
 40
0.176776863
 40
0.1957580148
 40
0.2149033029
 40
0.2536072195
 40
0.2927309867
 40
0.3321129044
 40
0.3715894139
 40
0.4109962794
 40
0.450169764
 40
0.4889478082
 40
0.5081391481
 40
0.5271722354
 40
0.5460278227
 40
0.5646869974
 40
0.5831312226
 40
0.6013423791
 40
0.6193028086
 40
0.6369953594
 40
0.6544034334
 40
0.6715110358
 40
0.6883028277
 40
0.7047641825
 40
0.7208812464
 40
0.7366410033
 40
0.7520313453
 40
0.767041151
 40
0.7816603709
 40
0.7958801233
 40
0.8096928013
 40
0.8230921932
 40
0.836073619
 40
0.8486340848
 40
0.8607724581
 40
0.8724896662
 40
0.8837889208
 40
0.8946759706
 40
0.9051593824
 40
0.9152508473
 40
0.9249655082
 40
0.9343222939
 40
0.9433442428
 40
0.9520587819
 40
0.9604979211
 40
0.9686983093
 40
0.9727225116
 40
0.9767028171
 40
0.9806450085
 40
0.9845550798
 40
0.9884392169
 40
0.9923037608
 40
0.9961551735
 40
1.0
 40
1.0
 40
1.0
 40
1.0
 10
15.4060078546
 20
13.625040861
 30
0.0
 10
15.4008883212
 20
13.6084740448
 30
0.0
 10
15.390887159
 20
13.5748944624
 30
0.0
 10
15.3767299339
 20
13.5237457894
 30
0.0
 10
15.363278251
 20
13.4713553545
 30
0.0
 10
15.350548684
 20
13.4177877265
 30
0.0
 10
15.3385568367
 20
13.363108328
 30
0.0
 10
15.3273174272
 20
13.3073842146
 30
0.0
 10
15.3168442548
 20
13.2506836327
 30
0.0
 10
15.3071501767
 20
13.1930760702
 30
0.0
 10
15.2982470924
 20
13.1346321112
 30
0.0
 10
15.2901459498
 20
13.0754234218
 30
0.0
 10
15.2828566381
 20
13.0155224308
 30
0.0
 10
15.2742012258
 20
12.9345399768
 30
0.0
 10
15.2654892337
 20
12.8321018746
 30
0.0
 10
15.2584287068
 20
12.7080432691
 30
0.0
 10
15.2547597232
 20
12.5830184969
 30
0.0
 10
15.2545003443
 20
12.4576403887
 30
0.0
 10
15.2576518443
 20
12.3325223616
 30
0.0
 10
15.2641987164
 20
12.2082777029
 30
0.0
 10
15.2724851152
 20
12.1056237092
 30
0.0
 10
15.2808031108
 20
12.0244225216
 30
0.0
 10
15.2878438048
 20
11.9643256322
 30
0.0
 10
15.2956991584
 20
11.9048988111
 30
0.0
 10
15.3043595809
 20
11.8462147553
 30
0.0
 10
15.3138144229
 20
11.7883454263
 30
0.0
 10
15.3240520793
 20
11.7313617332
 30
0.0
 10
15.3350599801
 20
11.6753335054
 30
0.0
 10
15.3468246125
 20
11.6203293903
 30
0.0
 10
15.3593315366
 20
11.5664167721
 30
0.0
 10
15.3725654043
 20
11.513661687
 30
0.0
 10
15.3865099787
 20
11.4621287413
 30
0.0
 10
15.4011481562
 20
11.41188103
 30
0.0
 10
15.4164619861
 20
11.3629800567
 30
0.0
 10
15.4324326976
 20
11.315485657
 30
0.0
 10
15.4490407256
 20
11.2694559243
 30
0.0
 10
15.4662657379
 20
11.2249471361
 30
0.0
 10
15.4840866651
 20
11.1820136837
 30
0.0
 10
15.5024817322
 20
11.1407080034
 30
0.0
 10
15.5214284925
 20
11.1010805114
 30
0.0
 10
15.5409038647
 20
11.0631795413
 30
0.0
 10
15.5608841734
 20
11.0270512853
 30
0.0
 10
15.5813451898
 20
10.9927397394
 30
0.0
 10
15.6022621801
 20
10.960286657
 30
0.0
 10
15.6236099565
 20
10.9297315107
 30
0.0
 10
15.6453629294
 20
10.9011114647
 30
0.0
 10
15.6674951617
 20
10.8744613591
 30
0.0
 10
15.6899804196
 20
10.8498137126
 30
0.0
 10
15.7127922203
 20
10.8271987424
 30
0.0
 10
15.7359038465
 20
10.8066444119
 30
0.0
 10
15.7592883918
 20
10.7881764822
 30
0.0
 10
15.7829185496
 20
10.7718186292
 30
0.0
 10
15.8067670878
 20
10.7575923579
 30
0.0
 10
15.8308046181
 20
10.7455175799
 30
0.0
 10
15.8510991958
 20
10.7372101298
 30
0.0
 10
15.867368721
 20
10.7316867311
 30
0.0
 10
15.8795225087
 20
10.7281157682
 30
0.0
 10
15.8916992108
 20
10.7250921635
 30
0.0
 10
15.903895252
 20
10.7226169044
 30
0.0
 10
15.9161067174
 20
10.7206908122
 30
0.0
 10
15.9283298687
 20
10.7193145519
 30
0.0
 10
15.9405605152
 20
10.7184886265
 30
0.0
 10
15.9487198282
 20
10.7183049906
 30
0.0
 10
15.9527954006
 20
10.7183049939
 30
0.0
  0
SPLINE
  5
2B3
100
AcDbEntity
  8
02___PRT_ALL_AXES
100
AcDbSpline
 62
7
  6
CONTINUOUS
 70
0
 71
3
 72
71
 73
67
 74
0
 42
0.0000001
 43
0.0000001
 44
0.0000000001
 40
0.0
 40
0.0
 40
0.0
 40
0.0
 40
0.0039270097
 40
0.0078499123
 40
0.0117782189
 40
0.0157213683
 40
0.019688604
 40
0.0236889663
 40
0.0277312282
 40
0.0318238324
 40
0.0401894941
 40
0.0488474482
 40
0.0578490501
 40
0.0672377936
 40
0.0770495301
 40
0.0873129569
 40
0.0980502455
 40
0.1092777102
 40
0.1210064619
 40
0.1332430098
 40
0.1459898001
 40
0.1592456871
 40
0.1730063419
 40
0.1872646034
 40
0.2020107819
 40
0.2172329196
 40
0.2329170177
 40
0.2490472335
 40
0.2656060552
 40
0.2825744557
 40
0.2999320324
 40
0.317657132
 40
0.335726967
 40
0.3541177218
 40
0.3728046529
 40
0.3917621828
 40
0.4109639895
 40
0.4303830924
 40
0.4499919347
 40
0.4697624639
 40
0.5096730105
 40
0.5498847229
 40
0.5901631408
 40
0.6302731343
 40
0.6501925721
 40
0.6699826413
 40
0.6896148219
 40
0.7090610008
 40
0.7282935501
 40
0.7472854069
 40
0.7660101559
 40
0.7844421144
 40
0.8025564215
 40
0.8203291315
 40
0.837737313
 40
0.8547591544
 40
0.8713740782
 40
0.8875628651
 40
0.9033077914
 40
0.9185927803
 40
0.933403576
 40
0.9477279293
 40
0.961555846
 40
0.974879771
 40
0.9876950605
 40
1.0
 40
1.0
 40
1.0
 40
1.0
 10
15.9041809391
 20
13.5728405265
 30
0.0
 10
15.9070371876
 20
13.5730574774
 30
0.0
 10
15.9127593698
 20
13.5733399329
 30
0.0
 10
15.9213545562
 20
13.5733055816
 30
0.0
 10
15.9299476986
 20
13.5728128076
 30
0.0
 10
15.9385346793
 20
13.5718618027
 30
0.0
 10
15.9471117676
 20
13.5704531228
 30
0.0
 10
15.9556750201
 20
13.5685873807
 30
0.0
 10
15.9642208557
 20
13.566265509
 30
0.0
 10
15.9756689216
 20
13.5625364491
 30
0.0
 10
15.9899502634
 20
13.5567004485
 30
0.0
 10
16.0068203082
 20
13.5479444281
 30
0.0
 10
16.0235233393
 20
13.5374024976
 30
0.0
 10
16.0400310325
 20
13.5250957564
 30
0.0
 10
16.056317355
 20
13.5110470128
 30
0.0
 10
16.0723561539
 20
13.4952813969
 30
0.0
 10
16.0881216233
 20
13.4778263842
 30
0.0
 10
16.103588103
 20
13.4587119819
 30
0.0
 10
16.1187301643
 20
13.4379708176
 30
0.0
 10
16.1335226687
 20
13.4156381958
 30
0.0
 10
16.1479408563
 20
13.3917521097
 30
0.0
 10
16.1619604311
 20
13.3663532213
 30
0.0
 10
16.1755576422
 20
13.3394848171
 30
0.0
 10
16.1887093573
 20
13.3111927477
 30
0.0
 10
16.2013931296
 20
13.2815253536
 30
0.0
 10
16.2135872567
 20
13.2505333835
 30
0.0
 10
16.2252708339
 20
13.2182699046
 30
0.0
 10
16.2364238028
 20
13.1847902083
 30
0.0
 10
16.2470269944
 20
13.1501517114
 30
0.0
 10
16.2570621692
 20
13.1144138533
 30
0.0
 10
16.266512054
 20
13.0776379907
 30
0.0
 10
16.2753603754
 20
13.0398872886
 30
0.0
 10
16.2835918903
 20
13.0012266077
 30
0.0
 10
16.291192414
 20
12.961722391
 30
0.0
 10
16.2981488469
 20
12.9214425458
 30
0.0
 10
16.3044491959
 20
12.8804563287
 30
0.0
 10
16.310082603
 20
12.8388342096
 30
0.0
 10
16.31503934
 20
12.7966478071
 30
0.0
 10
16.3193109158
 20
12.7539695432
 30
0.0
 10
16.3240975343
 20
12.696329297
 30
0.0
 10
16.3283095447
 20
12.6235720004
 30
0.0
 10
16.3305298624
 20
12.5357612664
 30
0.0
 10
16.3299160764
 20
12.4477791791
 30
0.0
 10
16.3270400992
 20
12.3746540887
 30
0.0
 10
16.3233171223
 20
12.3165483552
 30
0.0
 10
16.3198315613
 20
12.273401236
 30
0.0
 10
16.3156525715
 20
12.2306626577
 30
0.0
 10
16.3107873081
 20
12.1884059967
 30
0.0
 10
16.3052441739
 20
12.1467039722
 30
0.0
 10
16.2990327228
 20
12.105628295
 30
0.0
 10
16.2921636649
 20
12.0652496027
 30
0.0
 10
16.2846488411
 20
12.0256373205
 30
0.0
 10
16.2765012039
 20
11.9868595445
 30
0.0
 10
16.267734794
 20
11.9489829207
 30
0.0
 10
16.2583647146
 20
11.9120725285
 30
0.0
 10
16.2484071031
 20
11.8761917663
 30
0.0
 10
16.2378791005
 20
11.8414022394
 30
0.0
 10
16.2267988186
 20
11.8077636505
 30
0.0
 10
16.2151853035
 20
11.7753336946
 30
0.0
 10
16.2030584968
 20
11.7441679519
 30
0.0
 10
16.1904391927
 20
11.7143198021
 30
0.0
 10
16.1773489836
 20
11.6858402849
 30
0.0
 10
16.1638102492
 20
11.6587781483
 30
0.0
 10
16.1498459132
 20
11.6331793424
 30
0.0
 10
16.1354800802
 20
11.6090882247
 30
0.0
 10
16.1254470205
 20
11.5937475359
 30
0.0
 10
16.1203627023
 20
11.5863508603
 30
0.0
  0
SPLINE
  5
2B4
100
AcDbEntity
  8
LAYER_CUT_FEAT
100
AcDbSpline
 62
7
  6
CONTINUOUS
 70
0
 71
3
 72
27
 73
23
 74
0
 42
0.0000001
 43
0.0000001
 44
0.0000000001
 40
0.0
 40
0.0
 40
0.0
 40
0.0
 40
0.0835111702
 40
0.1639083199
 40
0.2411671025
 40
0.3152835232
 40
0.3862766078
 40
0.4541914553
 40
0.5191027314
 40
0.5811185612
 40
0.6403847149
 40
0.6970888465
 40
0.751464352
 40
0.8037931746
 40
0.8292988641
 40
0.8544212681
 40
0.8792091144
 40
0.9037137747
 40
0.9279888824
 40
0.9520900454
 40
0.9760743644
 40
1.0
 40
1.0
 40
1.0
 40
1.0
 10
16.2643492937
 20
13.5428381963
 30
0.0
 10
16.2588351125
 20
13.5540749162
 30
0.0
 10
16.2476431854
 20
13.5759510224
 30
0.0
 10
16.2300092851
 20
13.6075139929
 30
0.0
 10
16.2118749739
 20
13.6371550446
 30
0.0
 10
16.1932716325
 20
13.6648222054
 30
0.0
 10
16.1742309323
 20
13.6904675629
 30
0.0
 10
16.1547850772
 20
13.7140465267
 30
0.0
 10
16.13496662
 20
13.7355179862
 30
0.0
 10
16.114808336
 20
13.7548441996
 30
0.0
 10
16.0943433896
 20
13.7719905861
 30
0.0
 10
16.0736046761
 20
13.7869257692
 30
0.0
 10
16.0526275793
 20
13.799620486
 30
0.0
 10
16.0348227759
 20
13.808385907
 30
0.0
 10
16.0205278309
 20
13.8142112922
 30
0.0
 10
16.0098628391
 20
13.8179704408
 30
0.0
 10
15.9991686679
 20
13.8211543205
 30
0.0
 10
15.9884499229
 20
13.8237615949
 30
0.0
 10
15.9777114944
 20
13.8257908022
 30
0.0
 10
15.966958163
 20
13.8272410387
 30
0.0
 10
15.9561952433
 20
13.8281114313
 30
0.0
 10
15.9490129262
 20
13.8283049936
 30
0.0
 10
15.9454269126
 20
13.8283049929
 30
0.0
  0
SPLINE
  5
2B5
100
AcDbEntity
  8
LAYER_FEATURE
100
AcDbSpline
 62
7
  6
CONTINUOUS
 70
0
 71
3
 72
57
 73
53
 74
0
 42
0.0000001
 43
0.0000001
 44
0.0000000001
 40
0.0
 40
0.0
 40
0.0
 40
0.0
 40
0.0079087119
 40
0.0160273379
 40
0.0243881902
 40
0.0330198605
 40
0.0419472238
 40
0.0511915529
 40
0.0607707039
 40
0.0706993513
 40
0.0809892408
 40
0.0916494418
 40
0.1026865887
 40
0.1141051035
 40
0.1259074082
 40
0.1380941133
 40
0.1506641861
 40
0.1636150978
 40
0.1769429528
 40
0.1906426115
 40
0.2047077958
 40
0.2191311822
 40
0.2339044829
 40
0.2490185178
 40
0.2644632873
 40
0.2802280338
 40
0.2963012974
 40
0.3126709651
 40
0.3293243173
 40
0.346248076
 40
0.3634284464
 40
0.3808511563
 40
0.416363344
 40
0.4526632933
 40
0.4896231833
 40
0.5271107737
 40
0.5649903768
 40
0.6031237827
 40
0.6413711654
 40
0.6795919796
 40
0.7176458468
 40
0.7553934471
 40
0.7926974138
 40
0.8294232548
 40
0.8654402805
 40
0.900622597
 40
0.9178634934
 40
0.9348512168
 40
0.9515718793
 40
0.9680119616
 40
0.9841589091
 40
1.0
 40
1.0
 40
1.0
 40
1.0
 10
15.8543134482
 20
11.1115576463
 30
0.0
 10
15.8482646743
 20
11.1136650267
 30
0.0
 10
15.8361682252
 20
11.1184139576
 30
0.0
 10
15.8183450669
 20
11.1269644301
 30
0.0
 10
15.8006466221
 20
11.1370155136
 30
0.0
 10
15.7830929822
 20
11.1485544903
 30
0.0
 10
15.7657019841
 20
11.161567993
 30
0.0
 10
15.7484917472
 20
11.176041192
 30
0.0
 10
15.7314800381
 20
11.1919579721
 30
0.0
 10
15.7146845124
 20
11.2093008552
 30
0.0
 10
15.6981226696
 20
11.2280509854
 30
0.0
 10
15.6818118598
 20
11.2481880972
 30
0.0
 10
15.6657692617
 20
11.2696904959
 30
0.0
 10
15.6500118399
 20
11.2925350376
 30
0.0
 10
15.6345563336
 20
11.3166971507
 30
0.0
 10
15.6194192239
 20
11.3421508498
 30
0.0
 10
15.6046167059
 20
11.3688687533
 30
0.0
 10
15.5901646608
 20
11.3968221012
 30
0.0
 10
15.5760786145
 20
11.4259807743
 30
0.0
 10
15.5623737321
 20
11.4563133371
 30
0.0
 10
15.5490647909
 20
11.4877870737
 30
0.0
 10
15.5361661615
 20
11.5203680218
 30
0.0
 10
15.5236917853
 20
11.5540210044
 30
0.0
 10
15.5116551444
 20
11.5887096642
 30
0.0
 10
15.5000692613
 20
11.6243965132
 30
0.0
 10
15.4889466783
 20
11.6610429756
 30
0.0
 10
15.4782994447
 20
11.69860943
 30
0.0
 10
15.4681390987
 20
11.7370552452
 30
0.0
 10
15.4584766395
 20
11.7763388338
 30
0.0
 10
15.4493225538
 20
11.8164176649
 30
0.0
 10
15.440686705
 20
11.8572484637
 30
0.0
 10
15.4298071151
 20
11.9129857398
 30
0.0
 10
15.4175932906
 20
11.9842305635
 30
0.0
 10
15.4052311794
 20
12.0714663339
 30
0.0
 10
15.3951259335
 20
12.160602445
 30
0.0
 10
15.3873214936
 20
12.2512529857
 30
0.0
 10
15.3818518135
 20
12.3430261641
 30
0.0
 10
15.3787407126
 20
12.4355250398
 30
0.0
 10
15.3780016943
 20
12.5283495414
 30
0.0
 10
15.3796380111
 20
12.6210981533
 30
0.0
 10
15.3836425153
 20
12.7133696937
 30
0.0
 10
15.389997791
 20
12.8047650903
 30
0.0
 10
15.3986761993
 20
12.8948890597
 30
0.0
 10
15.4096399578
 20
12.9833521354
 30
0.0
 10
15.4228414077
 20
13.0697713434
 30
0.0
 10
15.4357448102
 20
13.1402406944
 30
0.0
 10
15.4471650611
 20
13.1952873078
 30
0.0
 10
15.4561935044
 20
13.2355539116
 30
0.0
 10
15.4657327334
 20
13.275035621
 30
0.0
 10
15.4757724862
 20
13.3136900464
 30
0.0
 10
15.4863018256
 20
13.351474936
 30
0.0
 10
15.4937128922
 20
13.3763017076
 30
0.0
 10
15.4975008867
 20
13.3885596624
 30
0.0
  0
SPLINE
  5
2B6
100
AcDbEntity
  8
02___PRT_ALL_AXES
100
AcDbSpline
 62
7
  6
CONTINUOUS
 70
0
 71
3
 72
57
 73
53
 74
0
 42
0.0000001
 43
0.0000001
 44
0.0000000001
 40
0.0
 40
0.0
 40
0.0
 40
0.0
 40
0.0079087119
 40
0.0160273379
 40
0.0243881902
 40
0.0330198605
 40
0.0419472238
 40
0.0511915529
 40
0.0607707039
 40
0.0706993513
 40
0.0809892408
 40
0.0916494418
 40
0.1026865887
 40
0.1141051035
 40
0.1259074082
 40
0.1380941133
 40
0.1506641861
 40
0.1636150978
 40
0.1769429528
 40
0.1906426115
 40
0.2047077958
 40
0.2191311822
 40
0.2339044829
 40
0.2490185178
 40
0.2644632873
 40
0.2802280338
 40
0.2963012974
 40
0.3126709651
 40
0.3293243173
 40
0.346248076
 40
0.3634284464
 40
0.3808511563
 40
0.416363344
 40
0.4526632933
 40
0.4896231833
 40
0.5271107737
 40
0.5649903768
 40
0.6031237827
 40
0.6413711654
 40
0.6795919796
 40
0.7176458468
 40
0.7553934471
 40
0.7926974138
 40
0.8294232548
 40
0.8654402805
 40
0.900622597
 40
0.9178634934
 40
0.9348512168
 40
0.9515718793
 40
0.9680119616
 40
0.9841589091
 40
1.0
 40
1.0
 40
1.0
 40
1.0
 10
15.8711894094
 20
11.1056781039
 30
0.0
 10
15.865115219
 20
11.1077943395
 30
0.0
 10
15.8529679414
 20
11.112563225
 30
0.0
 10
15.8350698914
 20
11.121149626
 30
0.0
 10
15.8172970789
 20
11.1312429434
 30
0.0
 10
15.7996696798
 20
11.1428304062
 30
0.0
 10
15.7822056059
 20
11.1558985908
 30
0.0
 10
15.7649230528
 20
11.1704326051
 30
0.0
 10
15.7478398616
 20
11.1864162665
 30
0.0
 10
15.7309737622
 20
11.2038320231
 30
0.0
 10
15.7143423277
 20
11.2226609401
 30
0.0
 10
15.697962981
 20
11.2428826667
 30
0.0
 10
15.681852973
 20
11.264475417
 30
0.0
 10
15.6660293396
 20
11.2874159499
 30
0.0
 10
15.6505088903
 20
11.3116795906
 30
0.0
 10
15.6353081755
 20
11.3372402444
 30
0.0
 10
15.6204434584
 20
11.3640704148
 30
0.0
 10
15.6059306867
 20
11.3921412208
 30
0.0
 10
15.5917854518
 20
11.4214224166
 30
0.0
 10
15.5780229824
 20
11.4518824348
 30
0.0
 10
15.564658118
 20
11.4834884219
 30
0.0
 10
15.5517052894
 20
11.5162062729
 30
0.0
 10
15.5391784967
 20
11.550000663
 30
0.0
 10
15.5270912787
 20
11.5848350823
 30
0.0
 10
15.5154567125
 20
11.620671885
 30
0.0
 10
15.5042873931
 20
11.6574723333
 30
0.0
 10
15.4935954206
 20
11.6951966394
 30
0.0
 10
15.4833923815
 20
11.7338040013
 30
0.0
 10
15.4736893213
 20
11.7732526569
 30
0.0
 10
15.4644967707
 20
11.8134998965
 30
0.0
 10
15.4558246347
 20
11.8545022635
 30
0.0
 10
15.4448993294
 20
11.9104737439
 30
0.0
 10
15.4326341833
 20
11.9820179335
 30
0.0
 10
15.4202201274
 20
12.0696202627
 30
0.0
 10
15.4100724199
 20
12.1591309177
 30
0.0
 10
15.4022351863
 20
12.2501623658
 30
0.0
 10
15.396742523
 20
12.3423211688
 30
0.0
 10
15.3936183494
 20
12.4352087186
 30
0.0
 10
15.3928762258
 20
12.5284232624
 30
0.0
 10
15.3945194183
 20
12.6215615976
 30
0.0
 10
15.3985407492
 20
12.7142208568
 30
0.0
 10
15.4049227294
 20
12.8060002906
 30
0.0
 10
15.4136376037
 20
12.8965029549
 30
0.0
 10
15.4246474312
 20
12.9853377464
 30
0.0
 10
15.4379043527
 20
13.0721200821
 30
0.0
 10
15.4508619743
 20
13.1428855405
 30
0.0
 10
15.4623302124
 20
13.198163456
 30
0.0
 10
15.4713965926
 20
13.2385992574
 30
0.0
 10
15.4809759048
 20
13.2782468662
 30
0.0
 10
15.4910578439
 20
13.3170637149
 30
0.0
 10
15.501631427
 20
13.3550073741
 30
0.0
 10
15.5090736343
 20
13.3799384661
 30
0.0
 10
15.5128775457
 20
13.3922479279
 30
0.0
  0
SPLINE
  5
2B7
100
AcDbEntity
  8
LAYER_FEATURE
100
AcDbSpline
 62
7
  6
CONTINUOUS
 70
0
 71
3
 72
11
 73
7
 74
0
 42
0.0000001
 43
0.0000001
 44
0.0000000001
 40
0.0
 40
0.0
 40
0.0
 40
0.0
 40
0.2311675961
 40
0.4747738585
 40
0.7310507288
 40
1.0
 40
1.0
 40
1.0
 40
1.0
 10
14.5397207404
 20
13.2129300475
 30
0.0
 10
14.5402807878
 20
13.2135553685
 30
0.0
 10
14.541386991
 20
13.2148795915
 30
0.0
 10
14.542963719
 20
13.2170170226
 30
0.0
 10
14.5444970397
 20
13.2193516568
 30
0.0
 10
14.5454646726
 20
13.2209962003
 30
0.0
 10
14.5459413776
 20
13.221848608
 30
0.0
  0
SPLINE
  5
2B8
100
AcDbEntity
  8
LAYER_FEATURE
100
AcDbSpline
 62
7
  6
CONTINUOUS
 70
0
 71
3
 72
19
 73
15
 74
0
 42
0.0000001
 43
0.0000001
 44
0.0000000001
 40
0.0
 40
0.0
 40
0.0
 40
0.0
 40
0.0395962389
 40
0.0801502971
 40
0.1225464262
 40
0.1675244189
 40
0.215664882
 40
0.2673929156
 40
0.3229929215
 40
0.3826345567
 40
0.5141832754
 40
0.6618253657
 40
0.8243651475
 40
1.0
 40
1.0
 40
1.0
 40
1.0
 10
14.4983294641
 20
13.2129989737
 30
0.0
 10
14.4981629572
 20
13.2129989793
 30
0.0
 10
14.4978252377
 20
13.2129697453
 30
0.0
 10
14.4973244575
 20
13.2128392914
 30
0.0
 10
14.4968295223
 20
13.2126234194
 30
0.0
 10
14.4963428167
 20
13.2123238939
 30
0.0
 10
14.4958661429
 20
13.2119425727
 30
0.0
 10
14.4954012644
 20
13.2114813956
 30
0.0
 10
14.4949498242
 20
13.2109425058
 30
0.0
 10
14.4943486152
 20
13.2100954949
 30
0.0
 10
14.4936504681
 20
13.2088487473
 30
0.0
 10
14.4929199827
 20
13.207138073
 30
0.0
 10
14.4922831806
 20
13.205194679
 30
0.0
 10
14.4919402749
 20
13.2038132642
 30
0.0
 10
14.4917846832
 20
13.2030912735
 30
0.0
  0
SPLINE
  5
2B9
100
AcDbEntity
  8
LAYER_FEATURE
100
AcDbSpline
 62
7
  6
CONTINUOUS
 70
0
 71
3
 72
16
 73
12
 74
0
 42
0.0000001
 43
0.0000001
 44
0.0000000001
 40
0.0
 40
0.0
 40
0.0
 40
0.0
 40
0.0426531299
 40
0.0860493787
 40
0.1776001512
 40
0.2793799622
 40
0.3942717851
 40
0.5237386387
 40
0.668179787
 40
0.8272413566
 40
1.0
 40
1.0
 40
1.0
 40
1.0
 10
14.5499087649
 20
13.4454877323
 30
0.0
 10
14.54976822
 20
13.4454877305
 30
0.0
 10
14.5494842523
 20
13.4454670416
 30
0.0
 10
14.5489109368
 20
13.4453415398
 30
0.0
 10
14.5481914253
 20
13.4450172416
 30
0.0
 10
14.5473782028
 20
13.4443981789
 30
0.0
 10
14.5466030701
 20
13.4435551773
 30
0.0
 10
14.5458724727
 20
13.4424989553
 30
0.0
 10
14.5451931984
 20
13.4412417491
 30
0.0
 10
14.5445729705
 20
13.4397983782
 30
0.0
 10
14.5442174575
 20
13.43876334
 30
0.0
 10
14.5440493876
 20
13.4382194657
 30
0.0
  0
SPLINE
  5
2BA
100
AcDbEntity
  8
LAYER_CUT_FEAT
100
AcDbSpline
 62
7
  6
CONTINUOUS
 70
0
 71
3
 72
68
 73
64
 74
0
 42
0.0000001
 43
0.0000001
 44
0.0000000001
 40
0.0
 40
0.0
 40
0.0
 40
0.0
 40
0.003860193
 40
0.0077284172
 40
0.0116126431
 40
0.0155207177
 40
0.0194603129
 40
0.0234388692
 40
0.0315391814
 40
0.039877322
 40
0.0485009893
 40
0.057451707
 40
0.0667647874
 40
0.0764695573
 40
0.0865897471
 40
0.0971439613
 40
0.1081461737
 40
0.1196062096
 40
0.1315301934
 40
0.1439209531
 40
0.1567783789
 40
0.1700997377
 40
0.1838799469
 40
0.1981118122
 40
0.2127862349
 40
0.2278923934
 40
0.2434179011
 40
0.2593489478
 40
0.2756704239
 40
0.2923660327
 40
0.309418392
 40
0.3268091265
 40
0.3445189534
 40
0.362527762
 40
0.3808146881
 40
0.3993581843
 40
0.4181360873
 40
0.4371256821
 40
0.4563037636
 40
0.495129286
 40
0.5344206993
 40
0.5739806734
 40
0.6136095303
 40
0.6531069942
 40
0.6922739323
 40
0.711672566
 40
0.730915318
 40
0.7499784075
 40
0.7688384612
 40
0.7874725728
 40
0.8058583643
 40
0.8239740495
 40
0.8417984998
 40
0.8593113134
 40
0.876492888
 40
0.8933244981
 40
0.9097883779
 40
0.9258678135
 40
0.9415472319
 40
0.9568123362
 40
0.9716501493
 40
0.9860493347
 40
1.0
 40
1.0
 40
1.0
 40
1.0
 10
15.9454269126
 20
11.1933049929
 30
0.0
 10
15.9487289284
 20
11.1933049936
 30
0.0
 10
15.9553409976
 20
11.1934690542
 30
0.0
 10
15.9652508821
 20
11.1942068471
 30
0.0
 10
15.9751533434
 20
11.1954362292
 30
0.0
 10
15.9850441965
 20
11.1971565449
 30
0.0
 10
15.9949199243
 20
11.1993672583
 30
0.0
 10
16.0081394303
 20
11.2029882613
 30
0.0
 10
16.0246461152
 20
11.2087725111
 30
0.0
 10
16.0442020427
 20
11.217617566
 30
0.0
 10
16.0635996243
 20
11.2283921203
 30
0.0
 10
16.082809735
 20
11.2410770133
 30
0.0
 10
16.1018057084
 20
11.2556513395
 30
0.0
 10
16.1205608921
 20
11.2720920275
 30
0.0
 10
16.1390490719
 20
11.2903738578
 30
0.0
 10
16.1572442129
 20
11.3104693118
 30
0.0
 10
16.1751204955
 20
11.3323484786
 30
0.0
 10
16.1926523349
 20
11.3559789826
 30
0.0
 10
16.2098144429
 20
11.3813259465
 30
0.0
 10
16.226581896
 20
11.4083519846
 30
0.0
 10
16.2429302046
 20
11.4370172212
 30
0.0
 10
16.25883538
 20
11.467279327
 30
0.0
 10
16.2742739969
 20
11.4990935691
 30
0.0
 10
16.2892232502
 20
11.5324128717
 30
0.0
 10
16.3036610064
 20
11.5671878837
 30
0.0
 10
16.3175658505
 20
11.6033670528
 30
0.0
 10
16.3309171289
 20
11.6408967045
 30
0.0
 10
16.3436949886
 20
11.6797211239
 30
0.0
 10
16.3558804128
 20
11.7197826422
 30
0.0
 10
16.3674552546
 20
11.7610217249
 30
0.0
 10
16.3784022672
 20
11.8033770634
 30
0.0
 10
16.3887051334
 20
11.8467856686
 30
0.0
 10
16.3983484914
 20
11.8911829663
 30
0.0
 10
16.40731796
 20
11.9365028975
 30
0.0
 10
16.4156001589
 20
11.9826780142
 30
0.0
 10
16.4231827367
 20
12.0296395967
 30
0.0
 10
16.430054364
 20
12.0773176998
 30
0.0
 10
16.436204849
 20
12.1256414777
 30
0.0
 10
16.4434608631
 20
12.1911030472
 30
0.0
 10
16.4506491761
 20
12.2740333475
 30
0.0
 10
16.456245696
 20
12.3745538992
 30
0.0
 10
16.458813834
 20
12.4758849813
 30
0.0
 10
16.4583382524
 20
12.5774236561
 30
0.0
 10
16.4548217459
 20
12.6785657773
 30
0.0
 10
16.4493577017
 20
12.7622854562
 30
0.0
 10
16.4434691657
 20
12.828584114
 30
0.0
 10
16.4383253504
 20
12.8776780659
 30
0.0
 10
16.4324480449
 20
12.9262255285
 30
0.0
 10
16.4258459644
 20
12.974154354
 30
0.0
 10
16.4185289748
 20
13.0213931457
 30
0.0
 10
16.4105079891
 20
13.0678715882
 30
0.0
 10
16.4017949754
 20
13.1135204948
 30
0.0
 10
16.3924029313
 20
13.1582719269
 30
0.0
 10
16.382345865
 20
13.2020592934
 30
0.0
 10
16.3716387736
 20
13.2448174518
 30
0.0
 10
16.3602976186
 20
13.2864828065
 30
0.0
 10
16.3483393013
 20
13.3269934091
 30
0.0
 10
16.3357816334
 20
13.3662890413
 30
0.0
 10
16.3226433075
 20
13.4043113446
 30
0.0
 10
16.3089438784
 20
13.4410037955
 30
0.0
 10
16.2947036478
 20
13.4763121298
 30
0.0
 10
16.2799439541
 20
13.5101834658
 30
0.0
 10
16.2696064762
 20
13.5321251847
 30
0.0
 10
16.2643492937
 20
13.5428381963
 30
0.0
  0
SPLINE
  5
2BB
100
AcDbEntity
  8
LAYER_FEATURE
100
AcDbSpline
 62
7
  6
CONTINUOUS
 70
0
 71
3
 72
99
 73
95
 74
0
 42
0.0000001
 43
0.0000001
 44
0.0000000001
 40
0.0
 40
0.0
 40
0.0
 40
0.0
 40
0.0173110148
 40
0.0340649543
 40
0.0502380523
 40
0.0581004628
 40
0.0658101902
 40
0.0733652193
 40
0.0807638045
 40
0.0880044665
 40
0.0950860286
 40
0.1020076264
 40
0.1087687286
 40
0.1153691763
 40
0.1218091891
 40
0.1280894116
 40
0.1342109392
 40
0.1401753446
 40
0.1459847332
 40
0.1516417626
 40
0.1571496967
 40
0.162512449
 40
0.1677346143
 40
0.177776925
 40
0.1826124822
 40
0.1873335887
 40
0.1919488686
 40
0.1964678231
 40
0.200900808
 40
0.2052590039
 40
0.2095543637
 40
0.2137995212
 40
0.218007688
 40
0.2221925149
 40
0.2263679382
 40
0.2305480109
 40
0.2347467287
 40
0.2389778573
 40
0.2432547718
 40
0.2475903181
 40
0.2519966871
 40
0.2564853304
 40
0.261066889
 40
0.2657511516
 40
0.2705470451
 40
0.2754626216
 40
0.2856785606
 40
0.2909931575
 40
0.2964514632
 40
0.3020576126
 40
0.3078150839
 40
0.313726741
 40
0.3197948634
 40
0.326021207
 40
0.3324070222
 40
0.3389530995
 40
0.3456598064
 40
0.3525271007
 40
0.3595545797
 40
0.3667414891
 40
0.3740867505
 40
0.3815889924
 40
0.3892465503
 40
0.4050190682
 40
0.4213867133
 40
0.4383276936
 40
0.4558171041
 40
0.473827265
 40
0.4923280209
 40
0.5112870094
 40
0.5306699001
 40
0.5504406125
 40
0.5705615169
 40
0.5909936262
 40
0.611696777
 40
0.632629802
 40
0.6537506951
 40
0.6750167742
 40
0.6963848408
 40
0.7178113364
 40
0.7392524968
 40
0.7606645062
 40
0.7820036516
 40
0.8032264761
 40
0.8242899347
 40
0.8451515509
 40
0.8657695781
 40
0.8861031623
 40
0.9061125098
 40
0.9257590615
 40
0.9450056762
 40
0.9638168481
 40
0.9821587929
 40
1.0
 40
1.0
 40
1.0
 40
1.0
 10
15.4197121545
 20
13.5470764322
 30
0.0
 10
15.4262135823
 20
13.5681150602
 30
0.0
 10
15.4395868876
 20
13.6093394233
 30
0.0
 10
15.4611373686
 20
13.669510976
 30
0.0
 10
15.4802063195
 20
13.7177772891
 30
0.0
 10
15.4960294126
 20
13.7549312229
 30
0.0
 10
15.508045498
 20
13.7817858683
 30
0.0
 10
15.5203145039
 20
13.807875396
 30
0.0
 10
15.532829089
 20
13.8331842143
 30
0.0
 10
15.5455817706
 20
13.857697088
 30
0.0
 10
15.5585648792
 20
13.8813993155
 30
0.0
 10
15.5717706313
 20
13.9042766707
 30
0.0
 10
15.5851911588
 20
13.9263154068
 30
0.0
 10
15.5988183888
 20
13.947502327
 30
0.0
 10
15.6126442285
 20
13.9678246992
 30
0.0
 10
15.6266604206
 20
13.9872703412
 30
0.0
 10
15.6408586043
 20
14.0058275991
 30
0.0
 10
15.6552303963
 20
14.0234853072
 30
0.0
 10
15.6697672098
 20
14.0402328845
 30
0.0
 10
15.6844605341
 20
14.0560602821
 30
0.0
 10
15.6993014985
 20
14.0709577956
 30
0.0
 10
15.7142820295
 20
14.0849170493
 30
0.0
 10
15.7341682265
 20
14.1020412172
 30
0.0
 10
15.7545575658
 20
14.1175328322
 30
0.0
 10
15.7754152104
 20
14.1312031352
 30
0.0
 10
15.7909572694
 20
14.1403519044
 30
0.0
 10
15.806584152
 20
14.1485187463
 30
0.0
 10
15.8222869177
 20
14.1556986303
 30
0.0
 10
15.8380560481
 20
14.1618867035
 30
0.0
 10
15.8538820171
 20
14.167078716
 30
0.0
 10
15.8697550735
 20
14.1712711129
 30
0.0
 10
15.8856653706
 20
14.1744608157
 30
0.0
 10
15.9016028781
 20
14.1766455352
 30
0.0
 10
15.917557464
 20
14.1778236615
 30
0.0
 10
15.9335189123
 20
14.1779942385
 30
0.0
 10
15.9494769698
 20
14.177157229
 30
0.0
 10
15.9654214007
 20
14.1753131915
 30
0.0
 10
15.9813420342
 20
14.1724635277
 30
0.0
 10
15.9972288227
 20
14.16861037
 30
0.0
 10
16.0130718204
 20
14.1637564193
 30
0.0
 10
16.0288612836
 20
14.1579051788
 30
0.0
 10
16.0445875727
 20
14.1510606259
 30
0.0
 10
16.0602412359
 20
14.1432273418
 30
0.0
 10
16.0758128653
 20
14.1344105747
 30
0.0
 10
16.0912935625
 20
14.1246157003
 30
0.0
 10
16.1120655467
 20
14.1100748265
 30
0.0
 10
16.1323499043
 20
14.0937378101
 30
0.0
 10
16.1521216418
 20
14.0757901681
 30
0.0
 10
16.1670111614
 20
14.0612090461
 30
0.0
 10
16.1817553576
 20
14.0456955489
 30
0.0
 10
16.1963461723
 20
14.0292584286
 30
0.0
 10
16.2107747705
 20
14.0119077196
 30
0.0
 10
16.2250327053
 20
13.9936538364
 30
0.0
 10
16.2391114519
 20
13.974507716
 30
0.0
 10
16.2530026647
 20
13.9544808594
 30
0.0
 10
16.2666980778
 20
13.9335852857
 30
0.0
 10
16.2801894787
 20
13.9118335071
 30
0.0
 10
16.2934688568
 20
13.8892386002
 30
0.0
 10
16.3065282287
 20
13.8658141051
 30
0.0
 10
16.3193597868
 20
13.8415740823
 30
0.0
 10
16.331955843
 20
13.8165331111
 30
0.0
 10
16.3443088726
 20
13.7907061441
 30
0.0
 10
16.3606058213
 20
13.7548905043
 30
0.0
 10
16.3802893711
 20
13.7082369815
 30
0.0
 10
16.4025967655
 20
13.6499136469
 30
0.0
 10
16.4237649041
 20
13.5888514972
 30
0.0
 10
16.4437427865
 20
13.5251974223
 30
0.0
 10
16.4624824008
 20
13.4591038481
 30
0.0
 10
16.4799386153
 20
13.3907294248
 30
0.0
 10
16.4960693631
 20
13.3202383175
 30
0.0
 10
16.5108357422
 20
13.2477998803
 30
0.0
 10
16.524202121
 20
13.1735882155
 30
0.0
 10
16.5361362492
 20
13.0977817545
 30
0.0
 10
16.5466093245
 20
13.020562813
 30
0.0
 10
16.5555960634
 20
12.942117141
 30
0.0
 10
16.5630747631
 20
12.8626334701
 30
0.0
 10
16.5690273621
 20
12.7823030558
 30
0.0
 10
16.5734394945
 20
12.7013192121
 30
0.0
 10
16.5763005072
 20
12.6198768388
 30
0.0
 10
16.57760349
 20
12.5381719479
 30
0.0
 10
16.5773452886
 20
12.4564011889
 30
0.0
 10
16.5755265301
 20
12.3747613714
 30
0.0
 10
16.5721516118
 20
12.2934489868
 30
0.0
 10
16.5672286838
 20
12.2126597317
 30
0.0
 10
16.5607696296
 20
12.132588034
 30
0.0
 10
16.5527900401
 20
12.053426579
 30
0.0
 10
16.5433091899
 20
11.9753658385
 30
0.0
 10
16.5323499704
 20
11.8985936076
 30
0.0
 10
16.5199388386
 20
11.8232945547
 30
0.0
 10
16.5061057368
 20
11.7496497485
 30
0.0
 10
16.4908840646
 20
11.677836272
 30
0.0
 10
16.4743104854
 20
11.6080265805
 30
0.0
 10
16.4564251894
 20
11.5403889788
 30
0.0
 10
16.443469027
 20
11.4962165412
 30
0.0
 10
16.436768477
 20
11.4745335536
 30
0.0
  0
SPLINE
  5
2BC
100
AcDbEntity
  8
LAYER_FEATURE
100
AcDbSpline
 62
7
  6
CONTINUOUS
 70
0
 71
3
 72
39
 73
35
 74
0
 42
0.0000001
 43
0.0000001
 44
0.0000000001
 40
0.0
 40
0.0
 40
0.0
 40
0.0
 40
0.0443813067
 40
0.0879669132
 40
0.1307335
 40
0.1726618866
 40
0.2137331556
 40
0.2539301966
 40
0.2932376985
 40
0.3316421098
 40
0.369131909
 40
0.4056977074
 40
0.4413324012
 40
0.4760313905
 40
0.5097927922
 40
0.5426176374
 40
0.5745101304
 40
0.6054779621
 40
0.6355325877
 40
0.6646895438
 40
0.692968828
 40
0.7203952814
 40
0.7469989433
 40
0.7728154398
 40
0.7978863773
 40
0.8222596396
 40
0.8459896209
 40
0.8691373705
 40
0.8917705686
 40
0.9139632732
 40
0.9357954514
 40
0.9573522573
 40
0.9787230195
 40
1.0
 40
1.0
 40
1.0
 40
1.0
 10
15.4060078546
 20
13.625040861
 30
0.0
 10
15.4100401166
 20
13.6380892656
 30
0.0
 10
15.4182412907
 20
13.6638881692
 30
0.0
 10
15.4310745275
 20
13.7020183309
 30
0.0
 10
15.4443201346
 20
13.7392071285
 30
0.0
 10
15.4579674505
 20
13.775424816
 30
0.0
 10
15.4720058162
 20
13.8106430504
 30
0.0
 10
15.486424111
 20
13.8448339832
 30
0.0
 10
15.5012109553
 20
13.8779706503
 30
0.0
 10
15.5163547191
 20
13.9100269235
 30
0.0
 10
15.5318434559
 20
13.9409775422
 30
0.0
 10
15.5476649727
 20
13.9707981288
 30
0.0
 10
15.5638068489
 20
13.99946519
 30
0.0
 10
15.5802564198
 20
14.0269561558
 30
0.0
 10
15.5970007814
 20
14.0532494055
 30
0.0
 10
15.6140268423
 20
14.0783242526
 30
0.0
 10
15.6313213376
 20
14.1021609565
 30
0.0
 10
15.6488707931
 20
14.1247407738
 30
0.0
 10
15.6666615838
 20
14.1460459361
 30
0.0
 10
15.6846799591
 20
14.1660596337
 30
0.0
 10
15.7029120298
 20
14.1847660439
 30
0.0
 10
15.7213437637
 20
14.2021503468
 30
0.0
 10
15.739961033
 20
14.2181986712
 30
0.0
 10
15.7587496118
 20
14.2328980784
 30
0.0
 10
15.7776951191
 20
14.2462366138
 30
0.0
 10
15.7967830391
 20
14.2582032531
 30
0.0
 10
15.8159986982
 20
14.2687878672
 30
0.0
 10
15.8353272027
 20
14.2779812648
 30
0.0
 10
15.8547533662
 20
14.2857752581
 30
0.0
 10
15.8742617408
 20
14.2921626409
 30
0.0
 10
15.8938364068
 20
14.2971372611
 30
0.0
 10
15.9134615382
 20
14.3006942104
 30
0.0
 10
15.93311927
 20
14.3028298855
 30
0.0
 10
15.9462479442
 20
14.3033049866
 30
0.0
 10
15.9527954006
 20
14.3033049919
 30
0.0
  0
SPLINE
  5
2BD
100
AcDbEntity
  8
LAYER_FEATURE
100
AcDbSpline
 62
7
  6
CONTINUOUS
 70
0
 71
3
 72
38
 73
34
 74
0
 42
0.0000001
 43
0.0000001
 44
0.0000000001
 40
0.0
 40
0.0
 40
0.0
 40
0.0
 40
0.0220140592
 40
0.0441108008
 40
0.0663717658
 40
0.088876268
 40
0.1117004522
 40
0.1349164655
 40
0.1585918449
 40
0.1827891034
 40
0.2075654172
 40
0.232972565
 40
0.2590569488
 40
0.2858596652
 40
0.313416773
 40
0.3417594981
 40
0.3709144863
 40
0.4009041628
 40
0.4317469486
 40
0.4634575662
 40
0.4960473589
 40
0.5295244557
 40
0.5638940765
 40
0.5991587568
 40
0.6353184716
 40
0.6723709141
 40
0.7103116227
 40
0.7491340729
 40
0.7888299559
 40
0.829389252
 40
0.8708000229
 40
0.9130491251
 40
1.0
 40
1.0
 40
1.0
 40
1.0
 10
15.0704189683
 20
14.1500549816
 30
0.0
 10
15.064893745
 20
14.150054984
 30
0.0
 10
15.0538190201
 20
14.1496852538
 30
0.0
 10
15.0372321484
 20
14.1480229715
 30
0.0
 10
15.0206684504
 20
14.14525406
 30
0.0
 10
15.0041406783
 20
14.141380917
 30
0.0
 10
14.9876601965
 20
14.1364066672
 30
0.0
 10
14.9712384817
 20
14.130335338
 30
0.0
 10
14.9548867015
 20
14.1231716941
 30
0.0
 10
14.9386158992
 20
14.1149211115
 30
0.0
 10
14.922436883
 20
14.1055897471
 30
0.0
 10
14.9063603401
 20
14.095184338
 30
0.0
 10
14.8903968618
 20
14.0837122254
 30
0.0
 10
14.8745568679
 20
14.0711814701
 30
0.0
 10
14.858850747
 20
14.0576006848
 30
0.0
 10
14.8432887964
 20
14.0429791418
 30
0.0
 10
14.8278811858
 20
14.0273268013
 30
0.0
 10
14.8126380792
 20
14.0106542032
 30
0.0
 10
14.7975695087
 20
13.9929725881
 30
0.0
 10
14.7826854044
 20
13.9742938546
 30
0.0
 10
14.7679956645
 20
13.9546305086
 30
0.0
 10
14.753510007
 20
13.9339957618
 30
0.0
 10
14.7392380639
 20
13.9124034497
 30
0.0
 10
14.7251893801
 20
13.8898680298
 30
0.0
 10
14.7113732918
 20
13.8664046372
 30
0.0
 10
14.6977990517
 20
13.8420289983
 30
0.0
 10
14.6844757638
 20
13.8167574611
 30
0.0
 10
14.6714123165
 20
13.7906070077
 30
0.0
 10
14.6586174886
 20
13.7635951537
 30
0.0
 10
14.6460999156
 20
13.7357401087
 30
0.0
 10
14.6338678585
 20
13.7070604642
 30
0.0
 10
14.6177968232
 20
13.6673678882
 30
0.0
 10
14.6064340566
 20
13.6369874767
 30
0.0
 10
14.5991194762
 20
13.6164263376
 30
0.0
  0
SPLINE
  5
2BE
100
AcDbEntity
  8
LAYER_FEATURE
100
AcDbSpline
 62
7
  6
CONTINUOUS
 70
0
 71
3
 72
67
 73
63
 74
0
 42
0.0000001
 43
0.0000001
 44
0.0000000001
 40
0.0
 40
0.0
 40
0.0
 40
0.0
 40
0.0163581013
 40
0.0330510694
 40
0.0500642491
 40
0.0673826926
 40
0.0849905208
 40
0.1028713409
 40
0.1210081566
 40
0.1393834611
 40
0.15797927
 40
0.1767771682
 40
0.1957583526
 40
0.2149036734
 40
0.2536076561
 40
0.292731491
 40
0.3321134768
 40
0.371590054
 40
0.4109969877
 40
0.45017054
 40
0.4889486503
 40
0.5081400228
 40
0.5271731428
 40
0.546028763
 40
0.5646879707
 40
0.5831322282
 40
0.601343416
 40
0.6193038759
 40
0.6369964566
 40
0.65440456
 40
0.6715121917
 40
0.6883040129
 40
0.7047653969
 40
0.720882489
 40
0.7366422729
 40
0.7520326412
 40
0.7670424724
 40
0.7816617173
 40
0.7958814943
 40
0.8096941963
 40
0.8230936114
 40
0.8360750592
 40
0.8486355463
 40
0.8607739405
 40
0.872491169
 40
0.8837904436
 40
0.8946775128
 40
0.905160943
 40
0.9152524249
 40
0.9249671014
 40
0.9343239024
 40
0.9433458667
 40
0.9520604213
 40
0.9604995757
 40
0.9686999787
 40
0.9767027777
 40
0.9806449746
 40
0.9845550535
 40
0.9884391969
 40
0.9923037475
 40
0.9961551669
 40
1.0
 40
1.0
 40
1.0
 40
1.0
 10
14.4990763376
 20
13.625040861
 30
0.0
 10
14.4939568081
 20
13.6084740577
 30
0.0
 10
14.4839556456
 20
13.574894467
 30
0.0
 10
14.4697984176
 20
13.5237457973
 30
0.0
 10
14.4563467351
 20
13.4713553475
 30
0.0
 10
14.4436171674
 20
13.4177877282
 30
0.0
 10
14.4316253195
 20
13.3631083278
 30
0.0
 10
14.4203859088
 20
13.3073842161
 30
0.0
 10
14.4099127356
 20
13.2506836343
 30
0.0
 10
14.4002186585
 20
13.1930760707
 30
0.0
 10
14.391315577
 20
13.13463211
 30
0.0
 10
14.383214436
 20
13.0754234197
 30
0.0
 10
14.3759251242
 20
13.015522429
 30
0.0
 10
14.36726971
 20
12.9345399763
 30
0.0
 10
14.3585577128
 20
12.8321018752
 30
0.0
 10
14.351497186
 20
12.7080432696
 30
0.0
 10
14.3478282116
 20
12.583018497
 30
0.0
 10
14.3475688315
 20
12.4576403887
 30
0.0
 10
14.3507203231
 20
12.3325223611
 30
0.0
 10
14.3572671948
 20
12.2082777024
 30
0.0
 10
14.3655536004
 20
12.1056237103
 30
0.0
 10
14.3738715984
 20
12.0244225243
 30
0.0
 10
14.380912292
 20
11.964325635
 30
0.0
 10
14.3887676427
 20
11.9048988123
 30
0.0
 10
14.3974280618
 20
11.846214754
 30
0.0
 10
14.4068829021
 20
11.7883454234
 30
0.0
 10
14.4171205595
 20
11.7313617305
 30
0.0
 10
14.4281284623
 20
11.6753335046
 30
0.0
 10
14.4398930967
 20
11.6203293918
 30
0.0
 10
14.4524000221
 20
11.5664167754
 30
0.0
 10
14.4656338899
 20
11.5136616907
 30
0.0
 10
14.4795784633
 20
11.4621287436
 30
0.0
 10
14.4942166383
 20
11.4118810297
 30
0.0
 10
14.5095304673
 20
11.3629800548
 30
0.0
 10
14.5255011795
 20
11.3154856554
 30
0.0
 10
14.5421092083
 20
11.2694559239
 30
0.0
 10
14.5593342213
 20
11.2249471369
 30
0.0
 10
14.5771551488
 20
11.182013685
 30
0.0
 10
14.5955502156
 20
11.1407080044
 30
0.0
 10
14.6144969753
 20
11.1010805118
 30
0.0
 10
14.6339723471
 20
11.0631795415
 30
0.0
 10
14.6539526566
 20
11.0270512866
 30
0.0
 10
14.6744136735
 20
10.992739742
 30
0.0
 10
14.695330664
 20
10.9602866598
 30
0.0
 10
14.7166784401
 20
10.9297315124
 30
0.0
 10
14.7384314122
 20
10.901111464
 30
0.0
 10
14.7605636435
 20
10.8744613557
 30
0.0
 10
14.7830489011
 20
10.8498137075
 30
0.0
 10
14.8058607004
 20
10.8271987398
 30
0.0
 10
14.8289723352
 20
10.806644414
 30
0.0
 10
14.8523568593
 20
10.7881764945
 30
0.0
 10
14.8759870952
 20
10.7718186229
 30
0.0
 10
14.8998353543
 20
10.757592416
 30
0.0
 10
14.9238738741
 20
10.745517391
 30
0.0
 10
14.948072414
 20
10.7356112853
 30
0.0
 10
14.9684520869
 20
10.7291433274
 30
0.0
 10
14.9847675936
 20
10.7250922381
 30
0.0
 10
14.9969637591
 20
10.7226168732
 30
0.0
 10
15.0091751945
 20
10.7206908248
 30
0.0
 10
15.0213983534
 20
10.7193145543
 30
0.0
 10
15.0336289971
 20
10.7184886124
 30
0.0
 10
15.0417883112
 20
10.7183050069
 30
0.0
 10
15.0458638835
 20
10.718305003
 30
0.0
  0
SPLINE
  5
2BF
100
AcDbEntity
  8
LAYER_FEATURE
100
AcDbSpline
 62
7
  6
CONTINUOUS
 70
0
 71
3
 72
39
 73
35
 74
0
 42
0.0000001
 43
0.0000001
 44
0.0000000001
 40
0.0
 40
0.0
 40
0.0
 40
0.0
 40
0.0466500087
 40
0.0922865809
 40
0.1368764363
 40
0.1803907437
 40
0.2228024866
 40
0.2640881379
 40
0.3042274416
 40
0.3432038544
 40
0.3810048682
 40
0.4176223964
 40
0.4530532212
 40
0.4872994929
 40
0.5203692994
 40
0.5522773017
 40
0.5830454264
 40
0.6127036312
 40
0.641290723
 40
0.6688552047
 40
0.6954561117
 40
0.721163763
 40
0.7460603351
 40
0.7702401538
 40
0.7938095623
 40
0.8168862316
 40
0.839597809
 40
0.8620798612
 40
0.8844731809
 40
0.9069206355
 40
0.9295638238
 40
0.9525398492
 40
0.975978494
 40
1.0
 40
1.0
 40
1.0
 40
1.0
 10
14.5618908071
 20
13.5470764322
 30
0.0
 10
14.5663905
 20
13.5616374438
 30
0.0
 10
14.5755713491
 20
13.5903578485
 30
0.0
 10
14.5900549661
 20
13.6326676989
 30
0.0
 10
14.6050869089
 20
13.6736969515
 30
0.0
 10
14.6206498212
 20
13.7133984834
 30
0.0
 10
14.6367260934
 20
13.7517272811
 30
0.0
 10
14.6532973688
 20
13.7886396426
 30
0.0
 10
14.6703448254
 20
13.8240935996
 30
0.0
 10
14.6878490983
 20
13.8580488487
 30
0.0
 10
14.7057903493
 20
13.8904668227
 30
0.0
 10
14.7241482935
 20
13.9213107232
 30
0.0
 10
14.7429022332
 20
13.9505455576
 30
0.0
 10
14.7620310995
 20
13.9781381704
 30
0.0
 10
14.7815134874
 20
14.0040572729
 30
0.0
 10
14.8013276915
 20
14.0282734624
 30
0.0
 10
14.821451757
 20
14.0507592162
 30
0.0
 10
14.8418635106
 20
14.0714888787
 30
0.0
 10
14.8625405859
 20
14.090438635
 30
0.0
 10
14.8834604324
 20
14.1075864679
 30
0.0
 10
14.9046002873
 20
14.1229121165
 30
0.0
 10
14.9259371151
 20
14.1363970267
 30
0.0
 10
14.9474475078
 20
14.1480243053
 30
0.0
 10
14.9691075294
 20
14.1577787342
 30
0.0
 10
14.9908925372
 20
14.165646864
 30
0.0
 10
15.0127770197
 20
14.171617207
 30
0.0
 10
15.0347345041
 20
14.1756805601
 30
0.0
 10
15.0567376207
 20
14.1778303597
 30
0.0
 10
15.0787583236
 20
14.1780630184
 30
0.0
 10
15.100768318
 20
14.176378129
 30
0.0
 10
15.1227393571
 20
14.1727785631
 30
0.0
 10
15.1446442557
 20
14.1672700151
 30
0.0
 10
15.1664548633
 20
14.1598617561
 30
0.0
 10
15.1807218884
 20
14.1537465262
 30
0.0
 10
15.1878183546
 20
14.1503957951
 30
0.0
  0
SPLINE
  5
2C0
100
AcDbEntity
  8
LAYER_FEATURE
100
AcDbSpline
 62
7
  6
CONTINUOUS
 70
0
 71
3
 72
74
 73
70
 74
0
 42
0.0000001
 43
0.0000001
 44
0.0000000001
 40
0.0
 40
0.0
 40
0.0
 40
0.0
 40
0.0170013664
 40
0.0343773225
 40
0.0521101476
 40
0.0701814039
 40
0.0885716503
 40
0.1072607144
 40
0.1262276814
 40
0.1454509905
 40
0.1649084887
 40
0.1845774948
 40
0.2044348574
 40
0.2244570128
 40
0.244620041
 40
0.2648997199
 40
0.3057098275
 40
0.3466907046
 40
0.3876431292
 40
0.4283681175
 40
0.4485841974
 40
0.4686697675
 40
0.4886007714
 40
0.5083534857
 40
0.527904575
 40
0.5472311491
 40
0.5663108208
 40
0.5851217667
 40
0.6036427893
 40
0.6218533824
 40
0.6397337996
 40
0.6572651273
 40
0.6744293623
 40
0.6912094955
 40
0.707589603
 40
0.7235549453
 40
0.7390920778
 40
0.754188973
 40
0.7688351583
 40
0.7830218719
 40
0.7967422392
 40
0.8099914762
 40
0.8227671202
 40
0.8350692963
 40
0.8469010218
 40
0.8582685514
 40
0.8691817676
 40
0.87965461
 40
0.8897055373
 40
0.8993580017
 40
0.9086409012
 40
0.9175889577
 40
0.9262429481
 40
0.9346496952
 40
0.9387776279
 40
0.9428638922
 40
0.9469158141
 40
0.9509409613
 40
0.9549470891
 40
0.9589420926
 40
0.9629339481
 40
0.9669306556
 40
0.9709401788
 40
0.9749703881
 40
0.979029002
 40
0.983123542
 40
0.9872612774
 40
0.9914491987
 40
1.0
 40
1.0
 40
1.0
 40
1.0
 10
14.5618908071
 20
13.5470764322
 30
0.0
 10
14.5567388374
 20
13.5304046524
 30
0.0
 10
14.5466947722
 20
13.496577283
 30
0.0
 10
14.5325475138
 20
13.4449943812
 30
0.0
 10
14.5191700585
 20
13.3920730649
 30
0.0
 10
14.5065816789
 20
13.3378894847
 30
0.0
 10
14.4948004123
 20
13.2825210297
 30
0.0
 10
14.4838431644
 20
13.2260470275
 30
0.0
 10
14.4737256611
 20
13.1685483211
 30
0.0
 10
14.4644624222
 20
13.1101072606
 30
0.0
 10
14.4560667443
 20
13.050807546
 30
0.0
 10
14.4485506802
 20
12.9907341225
 30
0.0
 10
14.4419250159
 20
12.9299730351
 30
0.0
 10
14.4361992786
 20
12.8686113769
 30
0.0
 10
14.4313816323
 20
12.8067368933
 30
0.0
 10
14.4261677001
 20
12.7235020727
 30
0.0
 10
14.4219724395
 20
12.6188070832
 30
0.0
 10
14.4206476372
 20
12.4928161792
 30
0.0
 10
14.4230299072
 20
12.3669281851
 30
0.0
 10
14.4281048911
 20
12.2624540839
 30
0.0
 10
14.4340197513
 20
12.1794988312
 30
0.0
 10
14.4393566737
 20
12.1179061666
 30
0.0
 10
14.4455971516
 20
12.0568766041
 30
0.0
 10
14.4527322852
 20
11.996497412
 30
0.0
 10
14.4607518158
 20
11.9368551327
 30
0.0
 10
14.4696442357
 20
11.8780351904
 30
0.0
 10
14.4793967795
 20
11.820121838
 30
0.0
 10
14.4899954492
 20
11.7631980163
 30
0.0
 10
14.5014250339
 20
11.7073452387
 30
0.0
 10
14.5136691328
 20
11.6526434717
 30
0.0
 10
14.5267101793
 20
11.5991710185
 30
0.0
 10
14.5405294685
 20
11.547004405
 30
0.0
 10
14.5551071852
 20
11.4962182679
 30
0.0
 10
14.5704224352
 20
11.4468852448
 30
0.0
 10
14.5864532785
 20
11.3990758678
 30
0.0
 10
14.6031767652
 20
11.352858459
 30
0.0
 10
14.6205689743
 20
11.3082990295
 30
0.0
 10
14.6386050551
 20
11.265461182
 30
0.0
 10
14.657259273
 20
11.2244060165
 30
0.0
 10
14.6765050587
 20
11.1851920412
 30
0.0
 10
14.6963150624
 20
11.1478750879
 30
0.0
 10
14.7166612123
 20
11.1125082346
 30
0.0
 10
14.7375147808
 20
11.0791417375
 30
0.0
 10
14.758846455
 20
11.0478229743
 30
0.0
 10
14.780626413
 20
11.0185964034
 30
0.0
 10
14.802824403
 20
10.9915035434
 30
0.0
 10
14.8254098191
 20
10.966582979
 30
0.0
 10
14.8483517711
 20
10.9438704004
 30
0.0
 10
14.8716191067
 20
10.9233986821
 30
0.0
 10
14.8951804574
 20
10.9051979819
 30
0.0
 10
14.9190039448
 20
10.8892959127
 30
0.0
 10
14.9430577013
 20
10.8757175014
 30
0.0
 10
14.9673070194
 20
10.8644857447
 30
0.0
 10
14.9877773453
 20
10.8570523482
 30
0.0
 10
15.004175126
 20
10.8523299702
 30
0.0
 10
15.0164248473
 20
10.8494043029
 30
0.0
 10
15.028694411
 20
10.8470752554
 30
0.0
 10
15.0409795209
 20
10.845343546
 30
0.0
 10
15.0532755767
 20
10.8442099911
 30
0.0
 10
15.0655780193
 20
10.8436749979
 30
0.0
 10
15.0778822663
 20
10.843738811
 30
0.0
 10
15.0901837305
 20
10.8444014112
 30
0.0
 10
15.1024778388
 20
10.8456624894
 30
0.0
 10
15.1147600085
 20
10.8475215879
 30
0.0
 10
15.1270257432
 20
10.8499778766
 30
0.0
 10
15.1392703874
 20
10.8530304102
 30
0.0
 10
15.1514899313
 20
10.8566780714
 30
0.0
 10
15.1678533467
 20
10.8623713351
 30
0.0
 10
15.1799113254
 20
10.867479784
 30
0.0
 10
15.1878470555
 20
10.8712277431
 30
0.0
  0
SPLINE
  5
2C1
100
AcDbEntity
  8
LAYER_FEATURE
100
AcDbSpline
 62
7
  6
CONTINUOUS
 70
0
 71
3
 72
15
 73
11
 74
0
 42
0.0000001
 43
0.0000001
 44
0.0000000001
 40
0.0
 40
0.0
 40
0.0
 40
0.0
 40
0.1215659791
 40
0.2488578594
 40
0.3795702507
 40
0.5112715304
 40
0.6415031007
 40
0.767854059
 40
0.88803842
 40
1.0
 40
1.0
 40
1.0
 40
1.0
 10
14.5346813127
 20
13.4021439886
 30
0.0
 10
14.5344965243
 20
13.4012865173
 30
0.0
 10
14.5341829387
 20
13.3995168087
 30
0.0
 10
14.5338780599
 20
13.3967934458
 30
0.0
 10
14.5337318977
 20
13.3939837053
 30
0.0
 10
14.5337477976
 20
13.3911490727
 30
0.0
 10
14.5339253829
 20
13.3883514511
 30
0.0
 10
14.5342606855
 20
13.3856518323
 30
0.0
 10
14.5347460934
 20
13.3831091753
 30
0.0
 10
14.5351802648
 20
13.3814891539
 30
0.0
 10
14.5354243147
 20
13.3807190425
 30
0.0
  0
SPLINE
  5
2C2
100
AcDbEntity
  8
LAYER_FEATURE
100
AcDbSpline
 62
7
  6
CONTINUOUS
 70
0
 71
3
 72
15
 73
11
 74
0
 42
0.0000001
 43
0.0000001
 44
0.0000000001
 40
0.0
 40
0.0
 40
0.0
 40
0.0
 40
0.1328708717
 40
0.2652961783
 40
0.3963437414
 40
0.5250923797
 40
0.6506525692
 40
0.7721757916
 40
0.888865735
 40
1.0
 40
1.0
 40
1.0
 40
1.0
 10
14.5572547744
 20
13.2743460274
 30
0.0
 10
14.5573078785
 20
13.2771636807
 30
0.0
 10
14.5573136603
 20
13.2827919383
 30
0.0
 10
14.557023378
 20
13.2911949671
 30
0.0
 10
14.5564366348
 20
13.2994950304
 30
0.0
 10
14.5555583355
 20
13.3076229579
 30
0.0
 10
14.5543959048
 20
13.315511142
 30
0.0
 10
14.5529590771
 20
13.3230941065
 30
0.0
 10
14.5512600223
 20
13.3303087187
 30
0.0
 10
14.5499267709
 20
13.3349558275
 30
0.0
 10
14.5492146934
 20
13.3372028233
 30
0.0
  0
SPLINE
  5
2C3
100
AcDbEntity
  8
LAYER_FEATURE
100
AcDbSpline
 62
7
  6
CONTINUOUS
 70
0
 71
3
 72
15
 73
11
 74
0
 42
0.0000001
 43
0.0000001
 44
0.0000000001
 40
0.0
 40
0.0
 40
0.0
 40
0.0
 40
0.1307939005
 40
0.2648027667
 40
0.3995442424
 40
0.5324980634
 40
0.6612075757
 40
0.7833584466
 40
0.8968662956
 40
1.0
 40
1.0
 40
1.0
 40
1.0
 10
14.4848566758
 20
13.1635482353
 30
0.0
 10
14.484730796
 20
13.1626347157
 30
0.0
 10
14.4845357263
 20
13.1607765608
 30
0.0
 10
14.484407805
 20
13.1579610242
 30
0.0
 10
14.4844420389
 20
13.1551274631
 30
0.0
 10
14.4846377067
 20
13.1523378752
 30
0.0
 10
14.4849903863
 20
13.1496531308
 30
0.0
 10
14.4854922141
 20
13.1471314784
 30
0.0
 10
14.4861318419
 20
13.1448277179
 30
0.0
 10
14.4866689015
 20
13.1433946343
 30
0.0
 10
14.4869628009
 20
13.1427295406
 30
0.0
  0
SPLINE
  5
2C4
100
AcDbEntity
  8
LAYER_FEATURE
100
AcDbSpline
 62
7
  6
CONTINUOUS
 70
0
 71
3
 72
15
 73
11
 74
0
 42
0.0000001
 43
0.0000001
 44
0.0000000001
 40
0.0
 40
0.0
 40
0.0
 40
0.0
 40
0.1390504829
 40
0.2758506268
 40
0.4094554934
 40
0.5389548629
 40
0.6634963427
 40
0.7822972358
 40
0.8946600882
 40
1.0
 40
1.0
 40
1.0
 40
1.0
 10
14.5153136225
 20
13.047034347
 30
0.0
 10
14.5151862238
 20
13.0498180522
 30
0.0
 10
14.5148347463
 20
13.0553364475
 30
0.0
 10
14.5140117979
 20
13.0635025491
 30
0.0
 10
14.5129031154
 20
13.0714418147
 30
0.0
 10
14.511517991
 20
13.0790881854
 30
0.0
 10
14.5098681022
 20
13.0863782063
 30
0.0
 10
14.5079672097
 20
13.0932516472
 30
0.0
 10
14.5058313637
 20
13.0996514631
 30
0.0
 10
14.5042075787
 20
13.1037046501
 30
0.0
 10
14.503354319
 20
13.1056355748
 30
0.0
  0
SPLINE
  5
2C5
100
AcDbEntity
  8
LAYER_FEATURE
100
AcDbSpline
 62
7
  6
CONTINUOUS
 70
0
 71
3
 72
20
 73
16
 74
0
 42
0.0000001
 43
0.0000001
 44
0.0000000001
 40
0.0
 40
0.0
 40
0.0
 40
0.0
 40
0.0451269014
 40
0.0912354095
 40
0.1387744934
 40
0.1881547213
 40
0.2397277674
 40
0.2937829657
 40
0.350552718
 40
0.4102177676
 40
0.4729100737
 40
0.5387210658
 40
0.6798452947
 40
0.8337104582
 40
1.0
 40
1.0
 40
1.0
 40
1.0
 10
14.4838687835
 20
12.9642274963
 30
0.0
 10
14.48442082
 20
12.9642872913
 30
0.0
 10
14.4855307763
 20
12.9644739425
 30
0.0
 10
14.4871751877
 20
12.9649460087
 30
0.0
 10
14.4888081115
 20
12.9656108649
 30
0.0
 10
14.4904257274
 20
12.9664663671
 30
0.0
 10
14.4920249439
 20
12.9675102434
 30
0.0
 10
14.4936026299
 20
12.9687400004
 30
0.0
 10
14.4951558071
 20
12.9701528269
 30
0.0
 10
14.4966814403
 20
12.9717457144
 30
0.0
 10
14.4981766918
 20
12.9735152706
 30
0.0
 10
14.5001722716
 20
12.9761674681
 30
0.0
 10
14.5025594979
 20
12.9799192179
 30
0.0
 10
14.5051916549
 20
12.984953661
 30
0.0
 10
14.5067616082
 20
12.9885705034
 30
0.0
 10
14.5075194083
 20
12.9904711155
 30
0.0
  0
SPLINE
  5
2C6
100
AcDbEntity
  8
LAYER_FEATURE
100
AcDbSpline
 62
7
  6
CONTINUOUS
 70
0
 71
3
 72
20
 73
16
 74
0
 42
0.0000001
 43
0.0000001
 44
0.0000000001
 40
0.0
 40
0.0
 40
0.0
 40
0.0
 40
0.0370877496
 40
0.0758639881
 40
0.1171981731
 40
0.1617800911
 40
0.2100912735
 40
0.2624376284
 40
0.3189805983
 40
0.379765509
 40
0.444745713
 40
0.5137965399
 40
0.6632851252
 40
0.826226471
 40
1.0
 40
1.0
 40
1.0
 40
1.0
 10
14.4620400375
 20
12.961863068
 30
0.0
 10
14.4618527583
 20
12.9618427825
 30
0.0
 10
14.4614728831
 20
12.9617640877
 30
0.0
 10
14.4609182849
 20
12.9615405436
 30
0.0
 10
14.4603738401
 20
12.9612123837
 30
0.0
 10
14.4598423543
 20
12.9607825048
 30
0.0
 10
14.4593259369
 20
12.9602537168
 30
0.0
 10
14.4588269602
 20
12.9596289563
 30
0.0
 10
14.4583477535
 20
12.9589116039
 30
0.0
 10
14.4578907121
 20
12.9581054672
 30
0.0
 10
14.4574582205
 20
12.9572148249
 30
0.0
 10
14.4569026718
 20
12.9558855886
 30
0.0
 10
14.4562932107
 20
12.9540431643
 30
0.0
 10
14.4557100474
 20
12.951641373
 30
0.0
 10
14.4554240976
 20
12.9499536778
 30
0.0
 10
14.4553036136
 20
12.9490793162
 30
0.0
  0
SPLINE
  5
2C7
100
AcDbEntity
  8
LAYER_FEATURE
100
AcDbSpline
 62
7
  6
CONTINUOUS
 70
0
 71
3
 72
16
 73
12
 74
0
 42
0.0000001
 43
0.0000001
 44
0.0000000001
 40
0.0
 40
0.0
 40
0.0
 40
0.0
 40
0.1405022154
 40
0.2814633238
 40
0.4202631605
 40
0.5543364505
 40
0.6812832232
 40
0.7989602883
 40
0.905594099
 40
0.9543867399
 40
1.0
 40
1.0
 40
1.0
 40
1.0
 10
14.4510046518
 20
12.907147348
 30
0.0
 10
14.450939741
 20
12.9062032494
 30
0.0
 10
14.4508660163
 20
12.9043076658
 30
0.0
 10
14.4509186184
 20
12.9014760701
 30
0.0
 10
14.4511322939
 20
12.8986952989
 30
0.0
 10
14.4515022816
 20
12.8960261243
 30
0.0
 10
14.4520202715
 20
12.8935263973
 30
0.0
 10
14.4526747519
 20
12.8912503935
 30
0.0
 10
14.4533403247
 20
12.8895317366
 30
0.0
 10
14.4539370579
 20
12.8883154654
 30
0.0
 10
14.4542535729
 20
12.8877632743
 30
0.0
 10
14.4544164503
 20
12.8875027844
 30
0.0
  0
SPLINE
  5
2C8
100
AcDbEntity
  8
LAYER_FEATURE
100
AcDbSpline
 62
7
  6
CONTINUOUS
 70
0
 71
3
 72
15
 73
11
 74
0
 42
0.0000001
 43
0.0000001
 44
0.0000000001
 40
0.0
 40
0.0
 40
0.0
 40
0.0
 40
0.1457381535
 40
0.2872037252
 40
0.4234625151
 40
0.5536463079
 40
0.6769809809
 40
0.7928045642
 40
0.9005927068
 40
1.0
 40
1.0
 40
1.0
 40
1.0
 10
14.4885142975
 20
12.8050957275
 30
0.0
 10
14.4882122102
 20
12.807769926
 30
0.0
 10
14.4875178461
 20
12.8130293814
 30
0.0
 10
14.4861848492
 20
12.8207367617
 30
0.0
 10
14.4845846761
 20
12.828099837
 30
0.0
 10
14.4827307101
 20
12.8350575501
 30
0.0
 10
14.4806384994
 20
12.8415524575
 30
0.0
 10
14.4783252643
 20
12.8475314281
 30
0.0
 10
14.4758103383
 20
12.8529451844
 30
0.0
 10
14.4739351935
 20
12.8562864541
 30
0.0
 10
14.47296199
 20
12.8578428986
 30
0.0
  0
SPLINE
  5
2C9
100
AcDbEntity
  8
LAYER_FEATURE
100
AcDbSpline
 62
7
  6
CONTINUOUS
 70
0
 71
3
 72
18
 73
14
 74
0
 42
0.0000001
 43
0.0000001
 44
0.0000000001
 40
0.0
 40
0.0
 40
0.0
 40
0.0
 40
0.0892931505
 40
0.1372728777
 40
0.1876907865
 40
0.2406780665
 40
0.2963253735
 40
0.3546905433
 40
0.4158036309
 40
0.5462393988
 40
0.6874500462
 40
0.8389389009
 40
1.0
 40
1.0
 40
1.0
 40
1.0
 10
14.4628059256
 20
12.7101275337
 30
0.0
 10
14.4639280652
 20
12.7107342013
 30
0.0
 10
14.4655635168
 20
12.7118395457
 30
0.0
 10
14.4675978376
 20
12.7135878872
 30
0.0
 10
14.4691346389
 20
12.7151123507
 30
0.0
 10
14.4706417841
 20
12.7168145709
 30
0.0
 10
14.4721167393
 20
12.7186913453
 30
0.0
 10
14.4735565206
 20
12.7207386863
 30
0.0
 10
14.4754669356
 20
12.7237561939
 30
0.0
 10
14.4777357877
 20
12.7279403042
 30
0.0
 10
14.4802164827
 20
12.7334576594
 30
0.0
 10
14.4824918159
 20
12.7395316752
 30
0.0
 10
14.4838211594
 20
12.7437968081
 30
0.0
 10
14.4844518717
 20
12.7460095816
 30
0.0
  0
SPLINE
  5
2CA
100
AcDbEntity
  8
LAYER_FEATURE
100
AcDbSpline
 62
7
  6
CONTINUOUS
 70
0
 71
3
 72
18
 73
14
 74
0
 42
0.0000001
 43
0.0000001
 44
0.0000000001
 40
0.0
 40
0.0
 40
0.0
 40
0.0
 40
0.078060094
 40
0.1220964055
 40
0.1697879657
 40
0.2212537919
 40
0.2765136998
 40
0.3355082654
 40
0.3981137596
 40
0.5333750976
 40
0.6804399332
 40
0.8368960533
 40
1.0
 40
1.0
 40
1.0
 40
1.0
 10
14.441426446
 20
12.6985690454
 30
0.0
 10
14.4410367748
 20
12.6983583756
 30
0.0
 10
14.4404805642
 20
12.6979275584
 30
0.0
 10
14.4398240169
 20
12.6972219967
 30
0.0
 10
14.4393290504
 20
12.6965757882
 30
0.0
 10
14.4388547005
 20
12.6958381101
 30
0.0
 10
14.4384029932
 20
12.6950124627
 30
0.0
 10
14.4379763689
 20
12.6941033897
 30
0.0
 10
14.4374299319
 20
12.6927514132
 30
0.0
 10
14.4368327567
 20
12.690884295
 30
0.0
 10
14.4362651754
 20
12.6884576707
 30
0.0
 10
14.4358418829
 20
12.6858418402
 30
0.0
 10
14.435664775
 20
12.6840357758
 30
0.0
 10
14.4356012874
 20
12.6831123778
 30
0.0
  0
SPLINE
  5
2CB
100
AcDbEntity
  8
LAYER_FEATURE
100
AcDbSpline
 62
7
  6
CONTINUOUS
 70
0
 71
3
 72
55
 73
51
 74
0
 42
0.0000001
 43
0.0000001
 44
0.0000000001
 40
0.0
 40
0.0
 40
0.0
 40
0.0
 40
0.0417968942
 40
0.0836920547
 40
0.1255883855
 40
0.167388258
 40
0.2089946251
 40
0.2503111917
 40
0.2912428335
 40
0.3316960007
 40
0.3715791333
 40
0.4108030782
 40
0.4492815251
 40
0.4869314757
 40
0.5236737304
 40
0.5594334044
 40
0.5941405041
 40
0.6277305705
 40
0.6440888281
 40
0.6601465562
 40
0.6758975827
 40
0.6913362492
 40
0.7064574149
 40
0.7212565115
 40
0.735729589
 40
0.7498733324
 40
0.763685137
 40
0.7771631528
 40
0.7903063236
 40
0.8031144816
 40
0.8155883971
 40
0.8277298463
 40
0.8395417252
 40
0.85102811
 40
0.86219436
 40
0.8730472418
 40
0.8835950075
 40
0.8938475217
 40
0.9038163815
 40
0.9135149978
 40
0.9229587129
 40
0.9321648743
 40
0.9411528696
 40
0.9499441597
 40
0.9585622298
 40
0.9670324879
 40
0.9753821151
 40
0.9836398166
 40
0.9918355176
 40
1.0
 40
1.0
 40
1.0
 40
1.0
 10
14.4356012874
 20
12.6831123778
 30
0.0
 10
14.4344274913
 20
12.654595303
 30
0.0
 10
14.4326657528
 20
12.5974681764
 30
0.0
 10
14.431773562
 20
12.5117085037
 30
0.0
 10
14.4326289669
 20
12.4259460444
 30
0.0
 10
14.4352296818
 20
12.3404161142
 30
0.0
 10
14.4395685335
 20
12.2553530227
 30
0.0
 10
14.4456335814
 20
12.1709898348
 30
0.0
 10
14.4534081502
 20
12.0875576551
 30
0.0
 10
14.4628708736
 20
12.0052850225
 30
0.0
 10
14.4739957163
 20
11.9243972565
 30
0.0
 10
14.4867520892
 20
11.8451158386
 30
0.0
 10
14.5011049421
 20
11.7676578023
 30
0.0
 10
14.5170148308
 20
11.6922350953
 30
0.0
 10
14.5344380329
 20
11.6190540603
 30
0.0
 10
14.5533267472
 20
11.5483145897
 30
0.0
 10
14.5736290824
 20
11.4802105254
 30
0.0
 10
14.5918363514
 20
11.4253340147
 30
0.0
 10
14.6070885468
 20
11.3829185647
 30
0.0
 10
14.6187445523
 20
11.3521602545
 30
0.0
 10
14.630710037
 20
11.3221961184
 30
0.0
 10
14.6429768419
 20
11.2930465785
 30
0.0
 10
14.6555365781
 20
11.2647316032
 30
0.0
 10
14.6683806678
 20
11.2372705571
 30
0.0
 10
14.6815003003
 20
11.2106822044
 30
0.0
 10
14.6948865492
 20
11.1849847329
 30
0.0
 10
14.7085302725
 20
11.1601956988
 30
0.0
 10
14.7224221487
 20
11.1363320227
 30
0.0
 10
14.7365527606
 20
11.1134100215
 30
0.0
 10
14.7509124794
 20
11.0914453311
 30
0.0
 10
14.7654915515
 20
11.0704529371
 30
0.0
 10
14.780280141
 20
11.0504471943
 30
0.0
 10
14.7952682173
 20
11.0314417378
 30
0.0
 10
14.8104456815
 20
11.0134495547
 30
0.0
 10
14.8258023542
 20
10.9964829766
 30
0.0
 10
14.8413278941
 20
10.9805535989
 30
0.0
 10
14.8570119346
 20
10.9656723904
 30
0.0
 10
14.8728440171
 20
10.9518496464
 30
0.0
 10
14.8888135543
 20
10.9390949386
 30
0.0
 10
14.9049099415
 20
10.9274172521
 30
0.0
 10
14.9211224439
 20
10.9168248799
 30
0.0
 10
14.9374402021
 20
10.9073254267
 30
0.0
 10
14.9538522839
 20
10.898925935
 30
0.0
 10
14.9703475546
 20
10.8916327027
 30
0.0
 10
14.9869147045
 20
10.8854513442
 30
0.0
 10
15.0035422756
 20
10.8803868418
 30
0.0
 10
15.0202184552
 20
10.8764432901
 30
0.0
 10
15.0369315868
 20
10.873624006
 30
0.0
 10
15.0536685539
 20
10.871931486
 30
0.0
 10
15.06484381
 20
10.8715549919
 30
0.0
 10
15.0704189683
 20
10.8715549994
 30
0.0
  0
SPLINE
  5
2CC
100
AcDbEntity
  8
LAYER_FEATURE
100
AcDbSpline
 62
7
  6
CONTINUOUS
 70
0
 71
3
 72
15
 73
11
 74
0
 42
0.0000001
 43
0.0000001
 44
0.0000000001
 40
0.0
 40
0.0
 40
0.0
 40
0.0
 40
0.1126204601
 40
0.233296856
 40
0.3599530997
 40
0.4902911285
 40
0.6218950407
 40
0.7523079002
 40
0.8791063589
 40
1.0
 40
1.0
 40
1.0
 40
1.0
 10
14.5991194762
 20
13.6164263376
 30
0.0
 10
14.5988793566
 20
13.6156493102
 30
0.0
 10
14.5984532311
 20
13.6140171767
 30
0.0
 10
14.5979798789
 20
13.6114593995
 30
0.0
 10
14.5976573866
 20
13.6087494004
 30
0.0
 10
14.5974930774
 20
13.6059463786
 30
0.0
 10
14.5974906219
 20
13.6031114564
 30
0.0
 10
14.5976500945
 20
13.6003065419
 30
0.0
 10
14.5979678495
 20
13.5975930107
 30
0.0
 10
14.5982900448
 20
13.5958318709
 30
0.0
 10
14.598479088
 20
13.5949795569
 30
0.0
  0
SPLINE
  5
2CD
100
AcDbEntity
  8
LAYER_FEATURE
100
AcDbSpline
 62
7
  6
CONTINUOUS
 70
0
 71
3
 72
15
 73
11
 74
0
 42
0.0000001
 43
0.0000001
 44
0.0000000001
 40
0.0
 40
0.0
 40
0.0
 40
0.0
 40
0.1270541201
 40
0.2553207885
 40
0.383896457
 40
0.511868149
 40
0.6383329274
 40
0.7624063719
 40
0.8832318236
 40
1.0
 40
1.0
 40
1.0
 40
1.0
 10
14.6131937077
 20
13.4808302989
 30
0.0
 10
14.6134281987
 20
13.48360495
 30
0.0
 10
14.6137957132
 20
13.4891899998
 30
0.0
 10
14.6140460781
 20
13.4976015124
 30
0.0
 10
14.6139974063
 20
13.5060368274
 30
0.0
 10
14.6136500672
 20
13.5144256003
 30
0.0
 10
14.6130070148
 20
13.5226979928
 30
0.0
 10
14.6120736313
 20
13.530785192
 30
0.0
 10
14.6108578377
 20
13.5386197775
 30
0.0
 10
14.609846306
 20
13.5437296966
 30
0.0
 10
14.6092921617
 20
13.5462280933
 30
0.0
  0
SPLINE
  5
2CE
100
AcDbEntity
  8
LAYER_FEATURE
100
AcDbSpline
 62
7
  6
CONTINUOUS
 70
0
 71
3
 72
39
 73
35
 74
0
 42
0.0000001
 43
0.0000001
 44
0.0000000001
 40
0.0
 40
0.0
 40
0.0
 40
0.0
 40
0.0443812481
 40
0.0879669295
 40
0.1307335086
 40
0.172661876
 40
0.2137331571
 40
0.2539301992
 40
0.2932376968
 40
0.3316421073
 40
0.369131911
 40
0.4056977099
 40
0.4413323968
 40
0.4760313903
 40
0.5097927974
 40
0.5426176342
 40
0.5745101269
 40
0.6054779669
 40
0.6355325892
 40
0.664689538
 40
0.6929688298
 40
0.7203952869
 40
0.7469989387
 40
0.7728154376
 40
0.7978863828
 40
0.8222596394
 40
0.8459896168
 40
0.869137373
 40
0.8917705712
 40
0.9139632708
 40
0.935795451
 40
0.9573522592
 40
0.9787230199
 40
1.0
 40
1.0
 40
1.0
 40
1.0
 10
14.4990763376
 20
13.625040861
 30
0.0
 10
14.5031085942
 20
13.6380892484
 30
0.0
 10
14.5113097722
 20
13.663888156
 30
0.0
 10
14.5241430064
 20
13.7020183212
 30
0.0
 10
14.5373886169
 20
13.7392071334
 30
0.0
 10
14.5510359366
 20
13.7754248145
 30
0.0
 10
14.5650742993
 20
13.810643048
 30
0.0
 10
14.5794925912
 20
13.844833985
 30
0.0
 10
14.5942794393
 20
13.8779706491
 30
0.0
 10
14.6094232053
 20
13.9100269209
 30
0.0
 10
14.624911937
 20
13.9409775435
 30
0.0
 10
14.6407334518
 20
13.9707981307
 30
0.0
 10
14.6568753377
 20
13.9994651856
 30
0.0
 10
14.6733249035
 20
14.0269561551
 30
0.0
 10
14.6900692572
 20
14.0532494105
 30
0.0
 10
14.7070953299
 20
14.0783242484
 30
0.0
 10
14.7243898251
 20
14.1021609518
 30
0.0
 10
14.74193927
 20
14.1247407793
 30
0.0
 10
14.7597300647
 20
14.1460459377
 30
0.0
 10
14.7777484505
 20
14.1660596242
 30
0.0
 10
14.7959805108
 20
14.1847660458
 30
0.0
 10
14.8144122386
 20
14.2021503564
 30
0.0
 10
14.8330295236
 20
14.2181986608
 30
0.0
 10
14.851818098
 20
14.2328980726
 30
0.0
 10
14.8707635938
 20
14.2462366271
 30
0.0
 10
14.8898515236
 20
14.2582032509
 30
0.0
 10
14.9090671879
 20
14.2687878519
 30
0.0
 10
14.9283956813
 20
14.2779812742
 30
0.0
 10
14.9478218462
 20
14.2857752682
 30
0.0
 10
14.9673302287
 20
14.2921626229
 30
0.0
 10
14.9869048894
 20
14.2971372584
 30
0.0
 10
15.0065300189
 20
14.3006942309
 30
0.0
 10
15.0261877543
 20
14.3028298689
 30
0.0
 10
15.0393164273
 20
14.3033049893
 30
0.0
 10
15.0458638835
 20
14.3033049829
 30
0.0
  0
SPLINE
  5
2CF
100
AcDbEntity
  8
02___PRT_ALL_AXES
100
AcDbSpline
 62
7
  6
CONTINUOUS
 70
0
 71
3
 72
15
 73
11
 74
0
 42
0.0000001
 43
0.0000001
 44
0.0000000001
 40
0.0
 40
0.0
 40
0.0
 40
0.0
 40
0.1348107899
 40
0.2656294753
 40
0.3929780268
 40
0.51744805
 40
0.639681173
 40
0.7603661662
 40
0.8802254759
 40
1.0
 40
1.0
 40
1.0
 40
1.0
 10
16.0137030682
 20
11.4780951154
 30
0.0
 10
16.009301579
 20
11.4753607609
 30
0.0
 10
16.000452156
 20
11.4702503601
 30
0.0
 10
15.9868662165
 20
11.4636206823
 30
0.0
 10
15.9731956214
 20
11.4581582796
 30
0.0
 10
15.9594566141
 20
11.4538710355
 30
0.0
 10
15.9456649183
 20
11.4507651372
 30
0.0
 10
15.9318367701
 20
11.4488453703
 30
0.0
 10
15.9179904296
 20
11.4481146757
 30
0.0
 10
15.9087714522
 20
11.4484207779
 30
0.0
 10
15.9041809389
 20
11.4487694412
 30
0.0
  0
SPLINE
  5
2D0
100
AcDbEntity
  8
02___PRT_ALL_AXES
100
AcDbSpline
 62
7
  6
CONTINUOUS
 70
0
 71
3
 72
33
 73
29
 74
0
 42
0.0000001
 43
0.0000001
 44
0.0000000001
 40
0.0
 40
0.0
 40
0.0
 40
0.0
 40
0.0836605523
 40
0.164702416
 40
0.2430160835
 40
0.3185053247
 40
0.3910905985
 40
0.4262760527
 40
0.4607141725
 40
0.4944005219
 40
0.527332209
 40
0.5595078534
 40
0.5909278239
 40
0.6215942776
 40
0.6515113184
 40
0.6806851826
 40
0.7091242995
 40
0.7368395864
 40
0.7638444964
 40
0.7901553017
 40
0.815791237
 40
0.8407746783
 40
0.8651313968
 40
0.9120732979
 40
0.9347402499
 40
0.9569200479
 40
0.9786571999
 40
1.0
 40
1.0
 40
1.0
 40
1.0
 10
15.5128775457
 20
13.3922479279
 30
0.0
 10
15.5182672465
 20
13.4096890061
 30
0.0
 10
15.5293465023
 20
13.4438829343
 30
0.0
 10
15.5471695417
 20
13.4938326407
 30
0.0
 10
15.5659007698
 20
13.5415398854
 30
0.0
 10
15.5854973442
 20
13.5868953425
 30
0.0
 10
15.6026857614
 20
13.6230120717
 30
0.0
 10
15.616852618
 20
13.6506216112
 30
0.0
 10
15.6275555682
 20
13.6704630715
 30
0.0
 10
15.6384401889
 20
13.6896420272
 30
0.0
 10
15.6495003088
 20
13.7081476338
 30
0.0
 10
15.6607296821
 20
13.7259693109
 30
0.0
 10
15.6721219081
 20
13.7430969309
 30
0.0
 10
15.6836705442
 20
13.7595207348
 30
0.0
 10
15.6953690767
 20
13.7752313582
 30
0.0
 10
15.7072108582
 20
13.7902198798
 30
0.0
 10
15.7191892714
 20
13.8044777175
 30
0.0
 10
15.7312975226
 20
13.8179967834
 30
0.0
 10
15.7435288458
 20
13.8307693113
 30
0.0
 10
15.7558764147
 20
13.8427880401
 30
0.0
 10
15.7683331377
 20
13.8540459502
 30
0.0
 10
15.7808927318
 20
13.864536963
 30
0.0
 10
15.7975586228
 20
13.8773348957
 30
0.0
 10
15.8146131743
 20
13.8887769337
 30
0.0
 10
15.8320114508
 20
13.8987116613
 30
0.0
 10
15.8449764283
 20
13.9052831662
 30
0.0
 10
15.8580000571
 20
13.9110566641
 30
0.0
 10
15.8667916379
 20
13.9143996983
 30
0.0
 10
15.8711894099
 20
13.9159318714
 30
0.0
  0
SPLINE
  5
2D1
100
AcDbEntity
  8
02___PRT_ALL_AXES
100
AcDbSpline
 62
7
  6
CONTINUOUS
 70
0
 71
3
 72
25
 73
21
 74
0
 42
0.0000001
 43
0.0000001
 44
0.0000000001
 40
0.0
 40
0.0
 40
0.0
 40
0.0
 40
0.0891343776
 40
0.1751807179
 40
0.2578908445
 40
0.3370508652
 40
0.4124752164
 40
0.4840176283
 40
0.5515756136
 40
0.6150995452
 40
0.6746029465
 40
0.7301757289
 40
0.7820003233
 40
0.830370309
 40
0.8757094932
 40
0.9185864034
 40
0.9393349223
 40
0.9597470982
 40
0.9799311844
 40
1.0
 40
1.0
 40
1.0
 40
1.0
 10
15.8904356475
 20
13.5712087428
 30
0.0
 10
15.8897733947
 20
13.5740278114
 30
0.0
 10
15.8883837303
 20
13.5795481187
 30
0.0
 10
15.8860591674
 20
13.5875993689
 30
0.0
 10
15.8835386021
 20
13.595251289
 30
0.0
 10
15.8808324911
 20
13.6024724256
 30
0.0
 10
15.8779518485
 20
13.6092334084
 30
0.0
 10
15.8749084163
 20
13.6155067388
 30
0.0
 10
15.8717144305
 20
13.6212670457
 30
0.0
 10
15.8683825558
 20
13.6264911355
 30
0.0
 10
15.8649257147
 20
13.6311580519
 30
0.0
 10
15.8613568774
 20
13.635249045
 30
0.0
 10
15.8576890077
 20
13.6387473855
 30
0.0
 10
15.8539346011
 20
13.6416380433
 30
0.0
 10
15.8501073171
 20
13.6439069555
 30
0.0
 10
15.846831044
 20
13.6452836848
 30
0.0
 10
15.8442070584
 20
13.6460464738
 30
0.0
 10
15.8422533971
 20
13.6464513942
 30
0.0
 10
15.8402954786
 20
13.6466945611
 30
0.0
 10
15.8389870967
 20
13.6467486869
 30
0.0
 10
15.8383350979
 20
13.6467486818
 30
0.0
  0
ENDSEC
  0
SECTION
  2
OBJECTS
  0
DICTIONARY
  5
C
100
AcDbDictionary
280
0
281
1
  3
ACAD_GROUP
350
D
  3
ACAD_MLINESTYLE
350
17
  3
ACAD_LAYOUT
350
1A
  3
ACAD_PLOTSETTINGS
350
19
  3
ACAD_PLOTSTYLENAME
350
E
  0
DICTIONARY
  5
D
102
{ACAD_REACTORS
330
C
102
}
100
AcDbDictionary
280
0
281
1
  0
ACDBDICTIONARYWDFLT
  5
E
102
{ACAD_REACTORS
330
C
102
}
100
AcDbDictionary
281
1
  3
Normal
350
F
100
AcDbDictionaryWithDefault
340
F
  0
DICTIONARY
  5
17
102
{ACAD_REACTORS
330
C
102
}
100
AcDbDictionary
280
0
281
1
  3
Standard
350
18
  0
DICTIONARY
  5
19
102
{ACAD_REACTORS
330
C
102
}
100
AcDbDictionary
281
1
  0
DICTIONARY
  5
1A
102
{ACAD_REACTORS
330
C
102
}
100
AcDbDictionary
281
1
  3
Model
350
2D2
  3
Layout1
350
2D3
  0
ACDBPLACEHOLDER
  5
F
102
{ACAD_REACTORS
330
E
102
}
  0
MLINESTYLE
  5
18
102
{ACAD_REACTORS
330
17
102
}
100
AcDbMlineStyle
  2
STANDARD
 70
0
  3

 62
256
 51
90.0
 52
90.0
 71
2
 49
0.5
 62
256
  6
BYLAYER
 49
-0.5
 62
256
  6
BYLAYER
  0
LAYOUT
  5
2D2
102
{ACAD_REACTORS
330
1A
102
}
100
AcDbPlotSettings
  1

  2
none_device
  4
ANSI_C_(22.00_x_17.00_Inches)
  6

 40
0.0
 41
0.0
 42
0.0
 43
0.0
 44
558.8
 45
431.8
 46
0.0
 47
0.0
 48
0.0
 49
0.0
140
0.0
141
0.0
142
1.0
143
1.0
 70
1024
 72
0
 73
0
 74
0
  7

 75
0
147
1.0
148
0.0
149
0.0
100
AcDbLayout
  1
Model
 70
0
 71
0
 10
0.0
 20
0.0
 11
22.0
 21
17.0
 12
0.0
 22
0.0
 32
0.0
 14
0.0
 24
0.0
 34
0.0
 15
0.0
 25
0.0
 35
0.0
146
0.0
 13
0.0
 23
0.0
 33
0.0
 16
1.0
 26
0.0
 36
0.0
 17
0.0
 27
1.0
 37
0.0
 76
0
330
222
345
0
346
0
  0
LAYOUT
  5
2D3
102
{ACAD_REACTORS
330
1A
102
}
100
AcDbPlotSettings
  1

  2
none_device
  4
ANSI_C_(22.00_x_17.00_Inches)
  6

 40
0.0
 41
0.0
 42
0.0
 43
0.0
 44
558.8
 45
431.8
 46
0.0
 47
0.0
 48
0.0
 49
0.0
140
0.0
141
0.0
142
1.0
143
1.0
 70
0
 72
0
 73
0
 74
0
  7

 75
0
147
1.0
148
0.0
149
0.0
100
AcDbLayout
  1
Layout1
 70
0
 71
1
 10
0.0
 20
0.0
 11
22.0
 21
17.0
 12
0.0
 22
0.0
 32
0.0
 14
0.0
 24
0.0
 34
0.0
 15
0.0
 25
0.0
 35
0.0
146
0.0
 13
0.0
 23
0.0
 33
0.0
 16
1.0
 26
0.0
 36
0.0
 17
0.0
 27
1.0
 37
0.0
 76
0
330
223
345
0
346
0
  0
ENDSEC
  0
EOF