999
DXF file: _cgs_temp_output.dxf
999
Pro/ENGINEER 2016360 by Parametric Technology Corporation
  0
SECTION
  2
HEADER
  9
$ACADVER
  1
AC1021
  9
$DWGCODEPAGE
  3
ANSI_1252
  9
$EXTMAX
 10
22.0
 20
17.0
 30
0.0
  9
$EXTMIN
 10
0.0
 20
0.0
 30
0.0
  9
$LIMMIN
 10
0.0
 20
0.0
  9
$LIMMAX
 10
22.0
 20
17.0
  9
$VIEWCTR
 10
11.0
 20
8.5
  9
$VIEWSIZE
 40
17.0
  9
$CLAYER
  8
0
  9
$LTSCALE
 40
1.21
  9
$CELTYPE
  6
BYLAYER
  9
$DIMSCALE
 40
1.0
  9
$DIMASZ
 40
0.1875
  9
$DIMEXO
 40
0.0625
  9
$DIMDLI
 40
0.836
  9
$DIMEXE
 40
0.125
  9
$DIMCEN
 40
0.198
  9
$DIMLFAC
 40
1.0
  9
$DIMBLK
  1
_CLOSED
  9
$DIMALT
 70
0
  9
$DIMALTF
 40
25.4
  9
$DIMTXT
 40
0.15625
  9
$DIMTOL
 70
0
  9
$DIMLIM
 70
0
  9
$DIMTFAC
 40
1.0
  9
$DIMGAP
 40
0.09
  9
$DIMDSEP
 70
46
  9
$AUNITS
 70
0
  9
$PDMODE
 70
3
  9
$PDSIZE
 40
0.3125
  9
$HANDSEED
  5
2D3
  9
$TILEMODE
 70
1
  9
$MEASUREMENT
 70
0
  9
$INSUNITS
 70
1
  0
ENDSEC
  0
SECTION
  2
CLASSES
  0
CLASS
  1
ACDBDICTIONARYWDFLT
  2
AcDbDictionaryWithDefault
  3
AutoCAD 2000
 90
0
 91
1
280
0
281
0
  0
CLASS
  1
ACDBPLACEHOLDER
  2
AcDbPlaceHolder
  3
AutoCAD 2000
 90
0
 91
1
280
0
281
0
  0
CLASS
  1
LAYOUT
  2
AcDbLayout
  3
AutoCAD 2000
 90
0
 91
0
280
0
281
0
  0
ENDSEC
  0
SECTION
  2
TABLES
  0
TABLE
  2
VPORT
  5
8
100
AcDbSymbolTable
 70
2
  0
VPORT
  5
1F4
100
AcDbSymbolTableRecord
100
AcDbViewportTableRecord
  2
*ACTIVE
 70
0
 10
0.0
 20
0.0
 11
1.0
 21
1.0
 12
11.0
 22
8.5
 13
0.0
 23
0.0
 14
1.0
 24
1.0
 15
0.0
 25
0.0
 16
0.0
 26
0.0
 36
1.0
 17
0.0
 27
0.0
 37
0.0
 40
17.0
 41
1.2941176471
 42
50.0
 43
0.0
 44
0.0
 50
0.0
 51
0.0
 71
0
 72
100
 73
1
 74
1
 75
0
 76
0
 77
0
 78
0
  0
ENDTAB
  0
TABLE
  2
LTYPE
  5
5
100
AcDbSymbolTable
 70
6
  0
LTYPE
  5
14
100
AcDbSymbolTableRecord
100
AcDbLinetypeTableRecord
  2
BYBLOCK
 70
0
  3

 72
65
 73
0
 40
0.0
  0
LTYPE
  5
15
100
AcDbSymbolTableRecord
100
AcDbLinetypeTableRecord
  2
BYLAYER
 70
0
  3

 72
65
 73
0
 40
0.0
  0
LTYPE
  5
16
100
AcDbSymbolTableRecord
100
AcDbLinetypeTableRecord
  2
CONTINUOUS
 70
64
  3
Solid line
 72
65
 73
0
 40
0.0
  0
LTYPE
  5
1F5
100
AcDbSymbolTableRecord
100
AcDbLinetypeTableRecord
  2
CENTER
 70
64
  3
____ _ ____ _ ____ _ ____ _ ____ _ ____ _ ____
 72
65
 73
4
 40
0.6
 49
0.375
 74
0
 49
-0.075
 74
0
 49
0.075
 74
0
 49
-0.075
 74
0
  0
LTYPE
  5
1F6
100
AcDbSymbolTableRecord
100
AcDbLinetypeTableRecord
  2
HIDDEN
 70
64
  3
- - - - - - - - - - - - - - - - - - - -
 72
65
 73
2
 40
0.2
 49
0.1
 74
0
 49
-0.1
 74
0
  0
LTYPE
  5
1F7
100
AcDbSymbolTableRecord
100
AcDbLinetypeTableRecord
  2
PHANTOM
 70
64
  3
_____ _ _ _____ _ _ _____ _ _ _____
 72
65
 73
6
 40
0.8
 49
0.45
 74
0
 49
-0.05
 74
0
 49
0.1
 74
0
 49
-0.05
 74
0
 49
0.1
 74
0
 49
-0.05
 74
0
  0
LTYPE
  5
1F8
100
AcDbSymbolTableRecord
100
AcDbLinetypeTableRecord
  2
DOT
 70
64
  3
. . . . . . . . . . . . . . . . . . . .
 72
65
 73
2
 40
0.2
 49
0.1
 74
0
 49
-0.1
 74
0
  0
LTYPE
  5
1F9
100
AcDbSymbolTableRecord
100
AcDbLinetypeTableRecord
  2
DASHED
 70
64
  3
- - - - - - - - - - - - - - - - - - - -
 72
65
 73
2
 40
0.2
 49
0.1
 74
0
 49
-0.1
 74
0
  0
ENDTAB
  0
TABLE
  2
LAYER
  5
2
100
AcDbSymbolTable
 70
36
  0
LAYER
  5
10
100
AcDbSymbolTableRecord
100
AcDbLayerTableRecord
  2
0
 70
0
 62
7
  6
CONTINUOUS
370
-3
390
F
  0
LAYER
  5
1FA
100
AcDbSymbolTableRecord
100
AcDbLayerTableRecord
  2
DEFAULT_1
 70
0
 62
7
  6
CENTER
370
-3
390
F
  0
LAYER
  5
1FB
100
AcDbSymbolTableRecord
100
AcDbLayerTableRecord
  2
DEFAULT_2
 70
0
 62
8
  6
HIDDEN
370
-3
390
F
  0
LAYER
  5
1FC
100
AcDbSymbolTableRecord
100
AcDbLayerTableRecord
  2
DEFAULT_3
 70
0
 62
7
  6
PHANTOM
370
-3
390
F
  0
LAYER
  5
1FD
100
AcDbSymbolTableRecord
100
AcDbLayerTableRecord
  2
01_ALL_DTM_PLN
 70
0
 62
7
  6
CONTINUOUS
370
-3
390
F
  0
LAYER
  5
1FE
100
AcDbSymbolTableRecord
100
AcDbLayerTableRecord
  2
01__ASM_ALL_DTM_PLN
 70
0
 62
7
  6
CONTINUOUS
370
-3
390
F
  0
LAYER
  5
1FF
100
AcDbSymbolTableRecord
100
AcDbLayerTableRecord
  2
01__ASM_DEF_DTM_PLN
 70
0
 62
7
  6
CONTINUOUS
370
-3
390
F
  0
LAYER
  5
200
100
AcDbSymbolTableRecord
100
AcDbLayerTableRecord
  2
01___PRT_ALL_DTM_PLN
 70
0
 62
7
  6
CONTINUOUS
370
-3
390
F
  0
LAYER
  5
201
100
AcDbSymbolTableRecord
100
AcDbLayerTableRecord
  2
01___PRT_DEF_DTM_PLN
 70
0
 62
7
  6
CONTINUOUS
370
-3
390
F
  0
LAYER
  5
202
100
AcDbSymbolTableRecord
100
AcDbLayerTableRecord
  2
02_ALL_AXES
 70
0
 62
7
  6
CONTINUOUS
370
-3
390
F
  0
LAYER
  5
203
100
AcDbSymbolTableRecord
100
AcDbLayerTableRecord
  2
02__ASM_ALL_AXES
 70
0
 62
7
  6
CONTINUOUS
370
-3
390
F
  0
LAYER
  5
204
100
AcDbSymbolTableRecord
100
AcDbLayerTableRecord
  2
02___PRT_ALL_AXES
 70
0
 62
7
  6
CONTINUOUS
370
-3
390
F
  0
LAYER
  5
205
100
AcDbSymbolTableRecord
100
AcDbLayerTableRecord
  2
03_ALL_CURVES
 70
0
 62
7
  6
CONTINUOUS
370
-3
390
F
  0
LAYER
  5
206
100
AcDbSymbolTableRecord
100
AcDbLayerTableRecord
  2
03__ASM_ALL_CURVES
 70
0
 62
7
  6
CONTINUOUS
370
-3
390
F
  0
LAYER
  5
207
100
AcDbSymbolTableRecord
100
AcDbLayerTableRecord
  2
03___PRT_ALL_CURVES
 70
0
 62
7
  6
CONTINUOUS
370
-3
390
F
  0
LAYER
  5
208
100
AcDbSymbolTableRecord
100
AcDbLayerTableRecord
  2
04_ALL_DTM_PNT
 70
0
 62
7
  6
CONTINUOUS
370
-3
390
F
  0
LAYER
  5
209
100
AcDbSymbolTableRecord
100
AcDbLayerTableRecord
  2
04__ASM_ALL_DTM_PNT
 70
0
 62
7
  6
CONTINUOUS
370
-3
390
F
  0
LAYER
  5
20A
100
AcDbSymbolTableRecord
100
AcDbLayerTableRecord
  2
04___PRT_ALL_DTM_PNT
 70
0
 62
7
  6
CONTINUOUS
370
-3
390
F
  0
LAYER
  5
20B
100
AcDbSymbolTableRecord
100
AcDbLayerTableRecord
  2
05_ALL_DTM_CSYS
 70
0
 62
7
  6
CONTINUOUS
370
-3
390
F
  0
LAYER
  5
20C
100
AcDbSymbolTableRecord
100
AcDbLayerTableRecord
  2
05__ASM_ALL_DTM_CSYS
 70
0
 62
7
  6
CONTINUOUS
370
-3
390
F
  0
LAYER
  5
20D
100
AcDbSymbolTableRecord
100
AcDbLayerTableRecord
  2
05__ASM_DEF_DTM_CSYS
 70
0
 62
7
  6
CONTINUOUS
370
-3
390
F
  0
LAYER
  5
20E
100
AcDbSymbolTableRecord
100
AcDbLayerTableRecord
  2
05___PRT_ALL_DTM_CSYS
 70
0
 62
7
  6
CONTINUOUS
370
-3
390
F
  0
LAYER
  5
20F
100
AcDbSymbolTableRecord
100
AcDbLayerTableRecord
  2
05___PRT_DEF_DTM_CSYS
 70
0
 62
7
  6
CONTINUOUS
370
-3
390
F
  0
LAYER
  5
210
100
AcDbSymbolTableRecord
100
AcDbLayerTableRecord
  2
06_ALL_SURFS
 70
0
 62
7
  6
CONTINUOUS
370
-3
390
F
  0
LAYER
  5
211
100
AcDbSymbolTableRecord
100
AcDbLayerTableRecord
  2
06__ASM_ALL_SURFS
 70
0
 62
7
  6
CONTINUOUS
370
-3
390
F
  0
LAYER
  5
212
100
AcDbSymbolTableRecord
100
AcDbLayerTableRecord
  2
06___PRT_ALL_SURFS
 70
0
 62
7
  6
CONTINUOUS
370
-3
390
F
  0
LAYER
  5
213
100
AcDbSymbolTableRecord
100
AcDbLayerTableRecord
  2
07__ASM_ALL_SKELETONS
 70
0
 62
7
  6
CONTINUOUS
370
-3
390
F
  0
LAYER
  5
214
100
AcDbSymbolTableRecord
100
AcDbLayerTableRecord
  2
LAYER_AXIS
 70
0
 62
7
  6
CONTINUOUS
370
-3
390
F
  0
LAYER
  5
215
100
AcDbSymbolTableRecord
100
AcDbLayerTableRecord
  2
LAYER_CHAMFER_FEAT
 70
0
 62
7
  6
CONTINUOUS
370
-3
390
F
  0
LAYER
  5
216
100
AcDbSymbolTableRecord
100
AcDbLayerTableRecord
  2
LAYER_CUT_FEAT
 70
0
 62
7
  6
CONTINUOUS
370
-3
390
F
  0
LAYER
  5
217
100
AcDbSymbolTableRecord
100
AcDbLayerTableRecord
  2
LAYER_DATUM
 70
0
 62
7
  6
CONTINUOUS
370
-3
390
F
  0
LAYER
  5
218
100
AcDbSymbolTableRecord
100
AcDbLayerTableRecord
  2
LAYER_DIM
 70
0
 62
7
  6
CONTINUOUS
370
-3
390
F
  0
LAYER
  5
219
100
AcDbSymbolTableRecord
100
AcDbLayerTableRecord
  2
LAYER_FEATURE
 70
0
 62
7
  6
CONTINUOUS
370
-3
390
F
  0
LAYER
  5
21A
100
AcDbSymbolTableRecord
100
AcDbLayerTableRecord
  2
LAYER_GEOM_FEAT
 70
0
 62
7
  6
CONTINUOUS
370
-3
390
F
  0
LAYER
  5
21B
100
AcDbSymbolTableRecord
100
AcDbLayerTableRecord
  2
LAYER_NOGEOM_FEAT
 70
0
 62
7
  6
CONTINUOUS
370
-3
390
F
  0
LAYER
  5
21C
100
AcDbSymbolTableRecord
100
AcDbLayerTableRecord
  2
LAYER_PARAMETER_DIM
 70
0
 62
7
  6
CONTINUOUS
370
-3
390
F
  0
LAYER
  5
21D
100
AcDbSymbolTableRecord
100
AcDbLayerTableRecord
  2
LAYER_PROTRUSION_FEAT
 70
0
 62
7
  6
CONTINUOUS
370
-3
390
F
  0
LAYER
  5
21E
100
AcDbSymbolTableRecord
100
AcDbLayerTableRecord
  2
LAYER_QUILT
 70
0
 62
7
  6
CONTINUOUS
370
-3
390
F
  0
LAYER
  5
21F
100
AcDbSymbolTableRecord
100
AcDbLayerTableRecord
  2
LAYER_ROUND_FEAT
 70
0
 62
7
  6
CONTINUOUS
370
-3
390
F
  0
ENDTAB
  0
TABLE
  2
STYLE
  5
3
100
AcDbSymbolTable
 70
1
  0
STYLE
  5
11
100
AcDbSymbolTableRecord
100
AcDbTextStyleTableRecord
  2
STANDARD
 70
0
 40
0.0
 41
0.8
 50
0.0
 71
0
 42
0.2
  3
txt
  4

  0
STYLE
  5
220
100
AcDbSymbolTableRecord
100
AcDbTextStyleTableRecord
  2
TEXTSTYLE_1
 70
0
 40
0.0
 41
0.8
 50
0.0
 71
0
 42
0.2
  3
gdt
  4

  0
ENDTAB
  0
TABLE
  2
VIEW
  5
6
100
AcDbSymbolTable
 70
0
  0
ENDTAB
  0
TABLE
  2
UCS
  5
7
100
AcDbSymbolTable
 70
0
  0
ENDTAB
  0
TABLE
  2
APPID
  5
9
100
AcDbSymbolTable
 70
1
  0
APPID
  5
221
100
AcDbSymbolTableRecord
100
AcDbRegAppTableRecord
  2
ACAD
 70
0
  0
ENDTAB
  0
TABLE
  2
BLOCK_RECORD
  5
1
100
AcDbSymbolTable
 70
0
  0
BLOCK_RECORD
  5
222
100
AcDbSymbolTableRecord
100
AcDbBlockTableRecord
  2
*Model_Space
  0
BLOCK_RECORD
  5
223
100
AcDbSymbolTableRecord
100
AcDbBlockTableRecord
  2
*Paper_Space
  0
ENDTAB
  0
TABLE
  2
DIMSTYLE
  5
A
100
AcDbSymbolTable
 70
1
100
AcDbDimStyleTable
 71
0
  0
DIMSTYLE
105
224
100
AcDbSymbolTableRecord
100
AcDbDimStyleTableRecord
  2
STANDARD
 70
0
  3

  4

 40
1.0
 41
0.1875
 42
0.0625
 43
0.38
 44
0.125
 45
0.0
 46
0.0
 47
0.0001
 48
0.0001
140
0.15625
141
0.09
142
0.0
143
25.4
144
1.0
145
0.0
146
1.0
147
0.09
 71
0.0
 72
0.0
 73
1
 74
1
 75
0
 76
0
 77
0
 78
4
 79
1
170
0
171
3
172
0
173
0
174
0
175
0
176
0
177
0
178
0
270
2
179
4
271
4
272
4
273
2
274
2
275
0
280
0
281
0
282
0
283
1
284
4
285
0
286
0
287
3
288
0
340
11
278
46
  0
ENDTAB
  0
ENDSEC
  0
SECTION
  2
BLOCKS
  0
BLOCK
  5
20
100
AcDbEntity
  8
0
100
AcDbBlockBegin
  2
*Model_Space
 70
0
 10
0.0
 20
0.0
 30
0.0
  3
*Model_Space
  1

  0
ENDBLK
  5
21
100
AcDbEntity
  8
0
100
AcDbBlockEnd
  0
BLOCK
  5
1C
100
AcDbEntity
  8
0
100
AcDbBlockBegin
  2
*Paper_Space
 70
0
 10
0.0
 20
0.0
 30
0.0
  3
*Paper_Space
  1

  0
ENDBLK
  5
1D
100
AcDbEntity
  8
0
100
AcDbBlockEnd
  0
ENDSEC
  0
SECTION
  2
ENTITIES
  0
MTEXT
  5
225
100
AcDbEntity
  8
0
100
AcDbMText
 62
7
  6
CONTINUOUS
  7
STANDARD
 71
1
 72
1
 10
15.9560215477
 20
0.9479130325
 30
0.0
 11
1.0
 21
0.0
 31
0.0
 44
0.9
  1
SCALE: 1:0.333
 40
0.3
 41
3.36
  0
LINE
  5
226
100
AcDbEntity
  8
0
100
AcDbLine
 62
7
  6
CONTINUOUS
 10
0.0
 20
0.0
 11
0.0
 21
17.0
  0
LINE
  5
227
100
AcDbEntity
  8
0
100
AcDbLine
 62
7
  6
CONTINUOUS
 10
0.0
 20
0.0
 11
22.0
 21
0.0
  0
LINE
  5
228
100
AcDbEntity
  8
0
100
AcDbLine
 62
7
  6
CONTINUOUS
 10
0.0
 20
17.0
 11
22.0
 21
17.0
  0
LINE
  5
229
100
AcDbEntity
  8
0
100
AcDbLine
 62
7
  6
CONTINUOUS
 10
22.0
 20
0.0
 11
22.0
 21
17.0
  0
LINE
  5
22A
100
AcDbEntity
  8
LAYER_FEATURE
100
AcDbLine
 62
7
  6
CONTINUOUS
 10
6.6867006095
 20
4.1801198968
 11
6.6458069857
 21
4.1801198968
  0
LINE
  5
22B
100
AcDbEntity
  8
LAYER_FEATURE
100
AcDbLine
 62
7
  6
CONTINUOUS
 10
5.5740339428
 20
4.1801198968
 11
5.6149275666
 21
4.1801198968
  0
LINE
  5
22C
100
AcDbEntity
  8
02___PRT_ALL_AXES
100
AcDbLine
 62
7
  6
CONTINUOUS
 10
5.6287006095
 20
4.2811198968
 11
6.6320339428
 21
4.2811198968
  0
LINE
  5
22D
100
AcDbEntity
  8
LAYER_FEATURE
100
AcDbLine
 62
7
  6
CONTINUOUS
 10
5.5740339428
 20
6.8601198968
 11
5.5740339428
 21
4.1801198968
  0
LINE
  5
22E
100
AcDbEntity
  8
LAYER_FEATURE
100
AcDbLine
 62
7
  6
CONTINUOUS
 10
5.6149275666
 20
6.8601198968
 11
5.6149275666
 21
4.1801198968
  0
LINE
  5
22F
100
AcDbEntity
  8
LAYER_FEATURE
100
AcDbLine
 62
7
  6
CONTINUOUS
 10
5.6287006095
 20
6.7953228246
 11
5.6287006095
 21
4.2449169689
  0
LINE
  5
230
100
AcDbEntity
  8
LAYER_FEATURE
100
AcDbLine
 62
7
  6
CONTINUOUS
 10
5.6149275666
 20
4.1801198968
 11
5.6287006095
 21
4.2449169689
  0
LINE
  5
231
100
AcDbEntity
  8
LAYER_FEATURE
100
AcDbLine
 62
7
  6
CONTINUOUS
 10
5.6149275666
 20
6.8601198968
 11
5.6287006095
 21
6.7953228246
  0
LINE
  5
232
100
AcDbEntity
  8
LAYER_FEATURE
100
AcDbLine
 62
7
  6
CONTINUOUS
 10
6.6458069857
 20
6.8601198968
 11
6.6320339428
 21
6.7953228246
  0
LINE
  5
233
100
AcDbEntity
  8
LAYER_FEATURE
100
AcDbLine
 62
7
  6
CONTINUOUS
 10
6.6458069857
 20
4.1801198968
 11
6.6320339428
 21
4.2449169689
  0
LINE
  5
234
100
AcDbEntity
  8
LAYER_FEATURE
100
AcDbLine
 62
7
  6
CONTINUOUS
 10
6.6320339428
 20
6.7953228246
 11
6.6320339428
 21
4.2449169689
  0
LINE
  5
235
100
AcDbEntity
  8
LAYER_FEATURE
100
AcDbLine
 62
7
  6
CONTINUOUS
 10
6.6458069857
 20
6.8601198968
 11
6.6458069857
 21
4.1801198968
  0
LINE
  5
236
100
AcDbEntity
  8
LAYER_FEATURE
100
AcDbLine
 62
7
  6
CONTINUOUS
 10
6.6867006095
 20
6.8601198968
 11
6.6867006095
 21
4.1801198968
  0
LINE
  5
237
100
AcDbEntity
  8
LAYER_FEATURE
100
AcDbLine
 62
7
  6
CONTINUOUS
 10
5.6287006095
 20
6.6076790514
 11
6.6320339428
 21
6.6076790514
  0
LINE
  5
238
100
AcDbEntity
  8
0
100
AcDbLine
 62
7
  6
CONTINUOUS
 10
5.6287006095
 20
6.6088723292
 11
6.6320339428
 21
6.6088723292
  0
LINE
  5
239
100
AcDbEntity
  8
LAYER_FEATURE
100
AcDbLine
 62
7
  6
CONTINUOUS
 10
5.6287006095
 20
6.6720549841
 11
6.6320339428
 21
6.6720549841
  0
LINE
  5
23A
100
AcDbEntity
  8
LAYER_FEATURE
100
AcDbLine
 62
7
  6
CONTINUOUS
 10
5.6287006095
 20
6.6825151362
 11
6.6320339428
 21
6.6825151362
  0
LINE
  5
23B
100
AcDbEntity
  8
0
100
AcDbLine
 62
7
  6
CONTINUOUS
 10
5.6287006095
 20
6.6830502321
 11
6.6320339428
 21
6.6830502321
  0
LINE
  5
23C
100
AcDbEntity
  8
LAYER_FEATURE
100
AcDbLine
 62
7
  6
CONTINUOUS
 10
5.6287006095
 20
6.7262101663
 11
6.6320339428
 21
6.7262101663
  0
LINE
  5
23D
100
AcDbEntity
  8
LAYER_FEATURE
100
AcDbLine
 62
7
  6
CONTINUOUS
 10
5.6287006095
 20
6.7325767846
 11
6.6320339428
 21
6.7325767846
  0
LINE
  5
23E
100
AcDbEntity
  8
0
100
AcDbLine
 62
7
  6
CONTINUOUS
 10
5.6287006095
 20
6.7327112751
 11
6.6320339428
 21
6.7327112751
  0
LINE
  5
23F
100
AcDbEntity
  8
LAYER_FEATURE
100
AcDbLine
 62
7
  6
CONTINUOUS
 10
5.6287006095
 20
6.7546596283
 11
6.6320339428
 21
6.7546596283
  0
LINE
  5
240
100
AcDbEntity
  8
LAYER_FEATURE
100
AcDbLine
 62
7
  6
CONTINUOUS
 10
5.6287006095
 20
6.7567970194
 11
6.6320339428
 21
6.7567970194
  0
LINE
  5
241
100
AcDbEntity
  8
LAYER_FEATURE
100
AcDbLine
 62
7
  6
CONTINUOUS
 10
6.6867006095
 20
6.8601198968
 11
6.6458069857
 21
6.8601198968
  0
LINE
  5
242
100
AcDbEntity
  8
LAYER_FEATURE
100
AcDbLine
 62
7
  6
CONTINUOUS
 10
5.5740339428
 20
6.8601198968
 11
5.6149275666
 21
6.8601198968
  0
LINE
  5
243
100
AcDbEntity
  8
LAYER_FEATURE
100
AcDbLine
 62
7
  6
CONTINUOUS
 10
5.5145387505
 20
11.2600477814
 11
5.5554323743
 21
11.2600477814
  0
LINE
  5
244
100
AcDbEntity
  8
LAYER_FEATURE
100
AcDbLine
 62
7
  6
CONTINUOUS
 10
6.5863117934
 20
11.2600477814
 11
6.6272054172
 21
11.2600477814
  0
LINE
  5
245
100
AcDbEntity
  8
02___PRT_ALL_AXES
100
AcDbLine
 62
7
  6
CONTINUOUS
 10
5.5692054172
 20
11.3610477814
 11
6.5725387505
 21
11.3610477814
  0
LINE
  5
246
100
AcDbEntity
  8
LAYER_FEATURE
100
AcDbLine
 62
7
  6
CONTINUOUS
 10
5.5692054172
 20
12.0064687343
 11
6.5725387505
 21
12.0064687343
  0
LINE
  5
247
100
AcDbEntity
  8
LAYER_FEATURE
100
AcDbLine
 62
7
  6
CONTINUOUS
 10
5.5145387505
 20
11.2600477814
 11
5.5145387505
 21
13.9400477814
  0
LINE
  5
248
100
AcDbEntity
  8
LAYER_FEATURE
100
AcDbLine
 62
7
  6
CONTINUOUS
 10
5.5554323743
 20
11.2600477814
 11
5.5554323743
 21
13.9400477814
  0
LINE
  5
249
100
AcDbEntity
  8
LAYER_FEATURE
100
AcDbLine
 62
7
  6
CONTINUOUS
 10
5.5692054172
 20
11.3248449364
 11
5.5692054172
 21
13.8752506264
  0
LINE
  5
24A
100
AcDbEntity
  8
LAYER_FEATURE
100
AcDbLine
 62
7
  6
CONTINUOUS
 10
6.5725387505
 20
12.0890172522
 11
5.5692054172
 21
12.0890172522
  0
LINE
  5
24B
100
AcDbEntity
  8
LAYER_FEATURE
100
AcDbLine
 62
7
  6
CONTINUOUS
 10
6.5725387505
 20
12.1252351817
 11
5.5692054172
 21
12.1252351817
  0
LINE
  5
24C
100
AcDbEntity
  8
0
100
AcDbLine
 62
7
  6
CONTINUOUS
 10
5.5692054172
 20
12.1365314836
 11
6.5725387505
 21
12.1365314836
  0
LINE
  5
24D
100
AcDbEntity
  8
LAYER_FEATURE
100
AcDbLine
 62
7
  6
CONTINUOUS
 10
5.5692054172
 20
12.1437950503
 11
6.5725387505
 21
12.1437950503
  0
LINE
  5
24E
100
AcDbEntity
  8
LAYER_FEATURE
100
AcDbLine
 62
7
  6
CONTINUOUS
 10
5.5692054172
 20
12.1711441706
 11
6.5725387505
 21
12.1711441706
  0
LINE
  5
24F
100
AcDbEntity
  8
LAYER_FEATURE
100
AcDbLine
 62
7
  6
CONTINUOUS
 10
6.5725387505
 20
12.2463262853
 11
5.5692054172
 21
12.2463262853
  0
LINE
  5
250
100
AcDbEntity
  8
LAYER_FEATURE
100
AcDbLine
 62
7
  6
CONTINUOUS
 10
6.5725387505
 20
12.2846303093
 11
5.5692054172
 21
12.2846303093
  0
LINE
  5
251
100
AcDbEntity
  8
LAYER_FEATURE
100
AcDbLine
 62
7
  6
CONTINUOUS
 10
5.5692054172
 20
12.3163802616
 11
6.5725387505
 21
12.3163802616
  0
LINE
  5
252
100
AcDbEntity
  8
LAYER_FEATURE
100
AcDbLine
 62
7
  6
CONTINUOUS
 10
5.5554323743
 20
11.2600477814
 11
5.5692054172
 21
11.3248448536
  0
LINE
  5
253
100
AcDbEntity
  8
LAYER_FEATURE
100
AcDbLine
 62
7
  6
CONTINUOUS
 10
5.5692054172
 20
12.3449609428
 11
6.5725387505
 21
12.3449609428
  0
LINE
  5
254
100
AcDbEntity
  8
LAYER_FEATURE
100
AcDbLine
 62
7
  6
CONTINUOUS
 10
6.5725387505
 20
12.4111742779
 11
5.5692054172
 21
12.4111742779
  0
LINE
  5
255
100
AcDbEntity
  8
LAYER_FEATURE
100
AcDbLine
 62
7
  6
CONTINUOUS
 10
5.5554323743
 20
13.9400477814
 11
5.5692054172
 21
13.8752507092
  0
LINE
  5
256
100
AcDbEntity
  8
LAYER_FEATURE
100
AcDbLine
 62
7
  6
CONTINUOUS
 10
6.5725387505
 20
12.4507480126
 11
5.5692054172
 21
12.4507480126
  0
LINE
  5
257
100
AcDbEntity
  8
LAYER_FEATURE
100
AcDbLine
 62
7
  6
CONTINUOUS
 10
5.5692054172
 20
12.4950113536
 11
6.5725387505
 21
12.4950113536
  0
LINE
  5
258
100
AcDbEntity
  8
LAYER_FEATURE
100
AcDbLine
 62
7
  6
CONTINUOUS
 10
5.5692054172
 20
12.524214448
 11
6.5725387505
 21
12.524214448
  0
LINE
  5
259
100
AcDbEntity
  8
LAYER_FEATURE
100
AcDbLine
 62
7
  6
CONTINUOUS
 10
6.5725387505
 20
12.5800477814
 11
5.5692054172
 21
12.5800477814
  0
LINE
  5
25A
100
AcDbEntity
  8
LAYER_FEATURE
100
AcDbLine
 62
7
  6
CONTINUOUS
 10
6.5725387505
 20
12.6200477814
 11
5.5692054172
 21
12.6200477814
  0
LINE
  5
25B
100
AcDbEntity
  8
LAYER_FEATURE
100
AcDbLine
 62
7
  6
CONTINUOUS
 10
5.5692054172
 20
12.6758811147
 11
6.5725387505
 21
12.6758811147
  0
LINE
  5
25C
100
AcDbEntity
  8
LAYER_FEATURE
100
AcDbLine
 62
7
  6
CONTINUOUS
 10
6.5725387505
 20
13.8752507092
 11
6.5863117934
 21
13.9400477814
  0
LINE
  5
25D
100
AcDbEntity
  8
LAYER_FEATURE
100
AcDbLine
 62
7
  6
CONTINUOUS
 10
6.5725387505
 20
11.3248448536
 11
6.5863117934
 21
11.2600477814
  0
LINE
  5
25E
100
AcDbEntity
  8
LAYER_FEATURE
100
AcDbLine
 62
7
  6
CONTINUOUS
 10
6.5725387505
 20
11.3248448536
 11
6.5725387505
 21
13.8752507092
  0
LINE
  5
25F
100
AcDbEntity
  8
LAYER_FEATURE
100
AcDbLine
 62
7
  6
CONTINUOUS
 10
6.5863117934
 20
11.2600477814
 11
6.5863117934
 21
13.9400477814
  0
LINE
  5
260
100
AcDbEntity
  8
LAYER_FEATURE
100
AcDbLine
 62
7
  6
CONTINUOUS
 10
6.6272054172
 20
11.2600477814
 11
6.6272054172
 21
13.9400477814
  0
LINE
  5
261
100
AcDbEntity
  8
02___PRT_ALL_AXES
100
AcDbLine
 62
7
  6
CONTINUOUS
 10
5.5692054172
 20
13.8390477814
 11
6.5725387505
 21
13.8390477814
  0
LINE
  5
262
100
AcDbEntity
  8
LAYER_FEATURE
100
AcDbLine
 62
7
  6
CONTINUOUS
 10
5.5145387505
 20
13.9400477814
 11
5.5554323743
 21
13.9400477814
  0
LINE
  5
263
100
AcDbEntity
  8
LAYER_FEATURE
100
AcDbLine
 62
7
  6
CONTINUOUS
 10
6.5863117934
 20
13.9400477814
 11
6.6272054172
 21
13.9400477814
  0
LINE
  5
264
100
AcDbEntity
  8
LAYER_FEATURE
100
AcDbLine
 62
7
  6
CONTINUOUS
 10
14.9586738808
 20
11.1708049929
 11
14.9963394025
 21
11.1708049929
  0
LINE
  5
265
100
AcDbEntity
  8
LAYER_FEATURE
100
AcDbLine
 62
7
  6
CONTINUOUS
 10
15.945842225
 20
11.1708049929
 11
15.9835077467
 21
11.1708049929
  0
LINE
  5
266
100
AcDbEntity
  8
02___PRT_ALL_AXES
100
AcDbLine
 62
7
  6
CONTINUOUS
 10
15.0090252151
 20
11.2718049929
 11
15.7473620053
 21
11.2718049929
  0
LINE
  5
267
100
AcDbEntity
  8
LAYER_FEATURE
100
AcDbLine
 62
7
  6
CONTINUOUS
 10
14.5671608557
 20
12.758845138
 11
14.5707489142
 21
12.7977694774
  0
LINE
  5
268
100
AcDbEntity
  8
LAYER_FEATURE
100
AcDbLine
 62
7
  6
CONTINUOUS
 10
14.5859334596
 20
12.9214122825
 11
14.5916902824
 21
12.9585802661
  0
LINE
  5
269
100
AcDbEntity
  8
LAYER_FEATURE
100
AcDbLine
 62
7
  6
CONTINUOUS
 10
14.6137235297
 20
13.0752280454
 11
14.6215264201
 21
13.1098475022
  0
LINE
  5
26A
100
AcDbEntity
  8
LAYER_FEATURE
100
AcDbLine
 62
7
  6
CONTINUOUS
 10
14.6523784586
 20
13.2249089496
 11
14.6596214218
 21
13.2483471873
  0
LINE
  5
26B
100
AcDbEntity
  8
02___PRT_ALL_AXES
100
AcDbLine
 62
7
  6
CONTINUOUS
 10
15.9330290058
 20
13.6095500681
 11
15.9330931954
 21
13.6095690291
  0
LINE
  5
26C
100
AcDbEntity
  8
02___PRT_ALL_AXES
100
AcDbLine
 62
7
  6
CONTINUOUS
 10
15.924376507
 20
13.6067643296
 11
15.9131258663
 21
13.6028446347
  0
LINE
  5
26D
100
AcDbEntity
  8
02___PRT_ALL_AXES
100
AcDbLine
 62
7
  6
CONTINUOUS
 10
15.924376507
 20
11.4148456562
 11
15.9131258663
 21
11.4187653511
  0
LINE
  5
26E
100
AcDbEntity
  8
LAYER_FEATURE
100
AcDbLine
 62
7
  6
CONTINUOUS
 10
14.5611873613
 20
12.8344106279
 11
14.5491415179
 21
12.8562470002
  0
LINE
  5
26F
100
AcDbEntity
  8
LAYER_FEATURE
100
AcDbLine
 62
7
  6
CONTINUOUS
 10
14.584308168
 20
12.9984059522
 11
14.57362881
 21
13.0245134905
  0
LINE
  5
270
100
AcDbEntity
  8
LAYER_FEATURE
100
AcDbLine
 62
7
  6
CONTINUOUS
 10
14.6164810813
 20
13.1520089086
 11
14.6073958205
 21
13.1818311761
  0
LINE
  5
271
100
AcDbEntity
  8
LAYER_FEATURE
100
AcDbLine
 62
7
  6
CONTINUOUS
 10
14.6570203912
 20
13.2919457168
 11
14.6497228643
 21
13.3248471035
  0
LINE
  5
272
100
AcDbEntity
  8
LAYER_FEATURE
100
AcDbLine
 62
7
  6
CONTINUOUS
 10
14.5376375123
 20
12.7314480819
 11
14.5522172151
 21
12.7370997794
  0
LINE
  5
273
100
AcDbEntity
  8
LAYER_FEATURE
100
AcDbLine
 62
7
  6
CONTINUOUS
 10
14.5335886429
 20
12.721876164
 11
15.4305766125
 21
12.721876164
  0
LINE
  5
274
100
AcDbEntity
  8
LAYER_FEATURE
100
AcDbLine
 62
7
  6
CONTINUOUS
 10
15.4331028554
 20
12.758845138
 11
14.5671608557
 21
12.758845138
  0
LINE
  5
275
100
AcDbEntity
  8
LAYER_FEATURE
100
AcDbLine
 62
7
  6
CONTINUOUS
 10
15.4362318424
 20
12.7977694774
 11
14.5707489142
 21
12.7977694774
  0
LINE
  5
276
100
AcDbEntity
  8
LAYER_FEATURE
100
AcDbLine
 62
7
  6
CONTINUOUS
 10
14.5551713289
 20
12.9053457866
 11
14.5699161111
 21
12.9054859931
  0
LINE
  5
277
100
AcDbEntity
  8
LAYER_FEATURE
100
AcDbLine
 62
7
  6
CONTINUOUS
 10
14.5471933647
 20
12.8694642842
 11
15.4430824934
 21
12.8694642842
  0
LINE
  5
278
100
AcDbEntity
  8
LAYER_FEATURE
100
AcDbLine
 62
7
  6
CONTINUOUS
 10
14.5506228813
 20
12.8973897209
 11
15.4463165995
 21
12.8973897209
  0
LINE
  5
279
100
AcDbEntity
  8
LAYER_FEATURE
100
AcDbLine
 62
7
  6
CONTINUOUS
 10
15.4491388911
 20
12.9214122825
 11
14.5859334596
 21
12.9214122825
  0
LINE
  5
27A
100
AcDbEntity
  8
LAYER_FEATURE
100
AcDbLine
 62
7
  6
CONTINUOUS
 10
15.454109654
 20
12.9585802661
 11
14.5916902824
 21
12.9585802661
  0
LINE
  5
27B
100
AcDbEntity
  8
LAYER_FEATURE
100
AcDbLine
 62
7
  6
CONTINUOUS
 10
14.5724508344
 20
13.0383183255
 11
15.4662526825
 21
13.0383183255
  0
LINE
  5
27C
100
AcDbEntity
  8
LAYER_FEATURE
100
AcDbLine
 62
7
  6
CONTINUOUS
 10
14.5774271697
 20
13.0646638955
 11
15.4707399739
 21
13.0646638955
  0
LINE
  5
27D
100
AcDbEntity
  8
0
100
AcDbLine
 62
7
  6
CONTINUOUS
 10
14.5816806907
 20
13.0709623111
 11
15.4718127473
 21
13.0709623111
  0
LINE
  5
27E
100
AcDbEntity
  8
LAYER_FEATURE
100
AcDbLine
 62
7
  6
CONTINUOUS
 10
15.4725983806
 20
13.0752280454
 11
14.6137235297
 21
13.0752280454
  0
LINE
  5
27F
100
AcDbEntity
  8
LAYER_FEATURE
100
AcDbLine
 62
7
  6
CONTINUOUS
 10
15.4791452477
 20
13.1098475022
 11
14.6215264201
 21
13.1098475022
  0
LINE
  5
280
100
AcDbEntity
  8
LAYER_FEATURE
100
AcDbLine
 62
7
  6
CONTINUOUS
 10
14.607013129
 20
13.1959293359
 11
15.4974962134
 21
13.1959293359
  0
LINE
  5
281
100
AcDbEntity
  8
LAYER_FEATURE
100
AcDbLine
 62
7
  6
CONTINUOUS
 10
14.613430221
 20
13.2201335292
 11
15.5031934026
 21
13.2201335292
  0
LINE
  5
282
100
AcDbEntity
  8
0
100
AcDbLine
 62
7
  6
CONTINUOUS
 10
14.6172799608
 20
13.2249089496
 11
15.5043889918
 21
13.2249089496
  0
LINE
  5
283
100
AcDbEntity
  8
LAYER_FEATURE
100
AcDbLine
 62
7
  6
CONTINUOUS
 10
15.5102570622
 20
13.2483471873
 11
14.6596214218
 21
13.2483471873
  0
LINE
  5
284
100
AcDbEntity
  8
LAYER_FEATURE
100
AcDbLine
 62
7
  6
CONTINUOUS
 10
14.6501436134
 20
13.3389381105
 11
15.5356552598
 21
13.3389381105
  0
LINE
  5
285
100
AcDbEntity
  8
02___PRT_ALL_AXES
100
AcDbLine
 62
7
  6
CONTINUOUS
 10
15.9330290058
 20
13.6095500681
 11
15.9330933473
 21
13.6095656341
  0
LINE
  5
286
100
AcDbEntity
  8
02___PRT_ALL_AXES
100
AcDbLine
 62
7
  6
CONTINUOUS
 10
15.0090252151
 20
13.7498049929
 11
15.7472587254
 21
13.7498049929
  0
LINE
  5
287
100
AcDbEntity
  8
LAYER_FEATURE
100
AcDbLine
 62
7
  6
CONTINUOUS
 10
14.9586738808
 20
13.8508049929
 11
14.9963394025
 21
13.8508049929
  0
LINE
  5
288
100
AcDbEntity
  8
LAYER_FEATURE
100
AcDbLine
 62
7
  6
CONTINUOUS
 10
15.945842225
 20
13.8508049929
 11
15.9835077467
 21
13.8508049929
  0
CIRCLE
  5
289
100
AcDbEntity
  8
LAYER_FEATURE
100
AcDbCircle
 62
7
  6
CONTINUOUS
 10
15.5603552569
 20
5.4606247044
 40
1.34
  0
CIRCLE
  5
28A
100
AcDbEntity
  8
LAYER_FEATURE
100
AcDbCircle
 62
7
  6
CONTINUOUS
 10
15.5603552569
 20
5.4606247044
 40
1.2752029278
  0
CIRCLE
  5
28B
100
AcDbEntity
  8
02___PRT_ALL_AXES
100
AcDbCircle
 62
7
  6
CONTINUOUS
 10
15.5603552569
 20
5.4606247044
 40
1.106
  0
CIRCLE
  5
28C
100
AcDbEntity
  8
LAYER_CHAMFER_FEAT
100
AcDbCircle
 62
7
  6
CONTINUOUS
 10
15.5603552569
 20
5.4606247044
 40
1.0476666667
  0
CIRCLE
  5
28D
100
AcDbEntity
  8
LAYER_CHAMFER_FEAT
100
AcDbCircle
 62
7
  6
CONTINUOUS
 10
15.5603552569
 20
5.4606247044
 40
1.0266666667
  0
ARC
  5
28E
100
AcDbEntity
  8
02___PRT_ALL_AXES
100
AcDbCircle
 62
7
  6
CONTINUOUS
 10
15.5603552569
 20
5.4606247044
 40
0.7083333333
100
AcDbArc
 50
152.9665029899
 51
232.0334970101
  0
ARC
  5
28F
100
AcDbEntity
  8
02___PRT_ALL_AXES
100
AcDbCircle
 62
7
  6
CONTINUOUS
 10
15.5603552569
 20
5.4606247044
 40
0.7083333333
100
AcDbArc
 50
57.9665029899
 51
137.0334970101
  0
ARC
  5
290
100
AcDbEntity
  8
02___PRT_ALL_AXES
100
AcDbCircle
 62
7
  6
CONTINUOUS
 10
15.5603552569
 20
5.4606247044
 40
0.7083333333
100
AcDbArc
 50
247.9665029899
 51
42.0334970101
  0
ARC
  5
291
100
AcDbEntity
  8
02___PRT_ALL_AXES
100
AcDbCircle
 62
7
  6
CONTINUOUS
 10
15.5603552569
 20
5.4606247044
 40
0.685024396
100
AcDbArc
 50
136.2981765847
 51
153.7018234153
  0
ARC
  5
292
100
AcDbEntity
  8
02___PRT_ALL_AXES
100
AcDbCircle
 62
7
  6
CONTINUOUS
 10
15.5603552569
 20
5.4606247044
 40
0.6617154587
100
AcDbArc
 50
58.9849431335
 51
231.0150568665
  0
ARC
  5
293
100
AcDbEntity
  8
02___PRT_ALL_AXES
100
AcDbCircle
 62
7
  6
CONTINUOUS
 10
15.5603552569
 20
5.4606247044
 40
0.6617154587
100
AcDbArc
 50
248.9849431335
 51
41.0150568665
  0
ARC
  5
294
100
AcDbEntity
  8
02___PRT_ALL_AXES
100
AcDbCircle
 62
7
  6
CONTINUOUS
 10
15.9888803301
 20
5.9713209999
 40
0.1041666667
100
AcDbArc
 50
312.7915186562
 51
147.2084813438
  0
ARC
  5
295
100
AcDbEntity
  8
02___PRT_ALL_AXES
100
AcDbCircle
 62
7
  6
CONTINUOUS
 10
15.2270219236
 20
4.8832744353
 40
0.1041666667
100
AcDbArc
 50
142.7915186562
 51
337.2084813438
  0
ARC
  5
296
100
AcDbEntity
  8
02___PRT_ALL_AXES
100
AcDbCircle
 62
7
  6
CONTINUOUS
 10
15.0142538941
 20
5.8430089953
 40
0.1041666667
100
AcDbArc
 50
60.7700162156
 51
229.2299837844
  0
ARC
  5
297
100
AcDbEntity
  8
02___PRT_ALL_AXES
100
AcDbCircle
 62
7
  6
CONTINUOUS
 10
13.4175082856
 20
-14.9409429027
 40
26.9331805744
100
AcDbArc
 50
85.1173988413
 51
85.2426933846
  0
ARC
  5
298
100
AcDbEntity
  8
LAYER_FEATURE
100
AcDbCircle
 62
7
  6
CONTINUOUS
 10
17.3458991334
 20
12.5399291587
 40
2.818039634
100
AcDbArc
 50
172.7125556464
 51
173.2845976616
  0
ARC
  5
299
100
AcDbEntity
  8
LAYER_FEATURE
100
AcDbCircle
 62
7
  6
CONTINUOUS
 10
16.9693145562
 20
12.5992247317
 40
2.4367517077
100
AcDbArc
 50
168.9883819936
 51
169.6188072166
  0
ARC
  5
29A
100
AcDbEntity
  8
LAYER_FEATURE
100
AcDbCircle
 62
7
  6
CONTINUOUS
 10
16.5273425079
 20
12.6997583192
 40
1.9833937081
100
AcDbArc
 50
164.7894972681
 51
165.5128630968
  0
ARC
  5
29B
100
AcDbEntity
  8
LAYER_FEATURE
100
AcDbCircle
 62
7
  6
CONTINUOUS
 10
17.4382859288
 20
12.7309445356
 40
1.9427361476
100
AcDbArc
 50
162.8599891651
 51
165.4941508875
  0
ARC
  5
29C
100
AcDbEntity
  8
LAYER_CHAMFER_FEAT
100
AcDbCircle
 62
7
  6
CONTINUOUS
 10
16.1000415879
 20
11.834892086
 40
0.3980850447
100
AcDbArc
 50
221.4433477933
 51
223.3182275751
  0
ARC
  5
29D
100
AcDbEntity
  8
LAYER_CHAMFER_FEAT
100
AcDbCircle
 62
7
  6
CONTINUOUS
 10
16.0951009582
 20
13.1912491599
 40
0.3913818118
100
AcDbArc
 50
136.672234096
 51
138.3301858578
  0
ARC
  5
29E
100
AcDbEntity
  8
02___PRT_ALL_AXES
100
AcDbCircle
 62
7
  6
CONTINUOUS
 10
15.9871013975
 20
13.4267716753
 40
0.1906089305
100
AcDbArc
 50
106.4801031301
 51
109.2127229239
  0
ARC
  5
29F
100
AcDbEntity
  8
02___PRT_ALL_AXES
100
AcDbCircle
 62
7
  6
CONTINUOUS
 10
15.9867095673
 20
11.5936229231
 40
0.1893323044
100
AcDbArc
 50
250.7782146776
 51
253.5634899304
  0
SPLINE
  5
2A0
100
AcDbEntity
  8
02___PRT_ALL_AXES
100
AcDbSpline
 62
7
  6
CONTINUOUS
 70
0
 71
3
 72
37
 73
33
 74
0
 42
0.0000001
 43
0.0000001
 44
0.0000000001
 40
0.0
 40
0.0
 40
0.0
 40
0.0
 40
0.0909556116
 40
0.1350063241
 40
0.1780694297
 40
0.2201209055
 40
0.2611395931
 40
0.3011069761
 40
0.3400073889
 40
0.3778283246
 40
0.4145607031
 40
0.4501992006
 40
0.4847425838
 40
0.5181941039
 40
0.5505619497
 40
0.5818597572
 40
0.6121071287
 40
0.6413302159
 40
0.6695623476
 40
0.6968446942
 40
0.7232268886
 40
0.7735104472
 40
0.7975826143
 40
0.8210473916
 40
0.8440021492
 40
0.8665529711
 40
0.8888133797
 40
0.9109025624
 40
0.9329431736
 40
0.9550588706
 40
0.9773717661
 40
1.0
 40
1.0
 40
1.0
 40
1.0
 10
16.3196559699
 20
11.823304368
 30
0.0
 10
16.3141113063
 20
11.8053618299
 30
0.0
 10
16.3054020245
 20
11.7788728482
 30
0.0
 10
16.2928698879
 20
11.7443063993
 30
0.0
 10
16.2832591073
 20
11.7194271165
 30
0.0
 10
16.2733463555
 20
11.6953422463
 30
0.0
 10
16.2631414801
 20
11.6720757796
 30
0.0
 10
16.2526547238
 20
11.6496510295
 30
0.0
 10
16.241896558
 20
11.628090414
 30
0.0
 10
16.2308777195
 20
11.6074154963
 30
0.0
 10
16.2196091843
 20
11.5876469329
 30
0.0
 10
16.2081021645
 20
11.5688044571
 30
0.0
 10
16.196368074
 20
11.550906873
 30
0.0
 10
16.184418513
 20
11.533972042
 30
0.0
 10
16.172265254
 20
11.5180168702
 30
0.0
 10
16.1599202262
 20
11.5030572759
 30
0.0
 10
16.1473955272
 20
11.4891082367
 30
0.0
 10
16.1347032294
 20
11.4761836838
 30
0.0
 10
16.1218560115
 20
11.4642969097
 30
0.0
 10
16.1088648734
 20
11.4534591565
 30
0.0
 10
16.0916495059
 20
11.4406311679
 30
0.0
 10
16.0739029625
 20
11.4296586193
 30
0.0
 10
16.0557287054
 20
11.4208178644
 30
0.0
 10
16.0422147502
 20
11.4153786888
 30
0.0
 10
16.0286364484
 20
11.4110431124
 30
0.0
 10
16.0150073176
 20
11.4078163139
 30
0.0
 10
16.001342082
 20
11.4057027191
 30
0.0
 10
15.9876556272
 20
11.4047052258
 30
0.0
 10
15.9739632311
 20
11.4048252357
 30
0.0
 10
15.9602799018
 20
11.406062656
 30
0.0
 10
15.9466217916
 20
11.408415468
 30
0.0
 10
15.9376187339
 20
11.4107062646
 30
0.0
 10
15.9331374816
 20
11.412027898
 30
0.0
  0
SPLINE
  5
2A1
100
AcDbEntity
  8
LAYER_CHAMFER_FEAT
100
AcDbSpline
 62
7
  6
CONTINUOUS
 70
0
 71
3
 72
15
 73
11
 74
0
 42
0.0000001
 43
0.0000001
 44
0.0000000001
 40
0.0
 40
0.0
 40
0.0
 40
0.0
 40
0.1375061211
 40
0.2714667129
 40
0.4018485709
 40
0.5286396893
 40
0.651835306
 40
0.7714433908
 40
0.887486038
 40
1.0
 40
1.0
 40
1.0
 40
1.0
 10
15.7286748473
 20
11.6901395006
 30
0.0
 10
15.7317547721
 20
11.6838632736
 30
0.0
 10
15.7379808818
 20
11.6715434046
 30
0.0
 10
15.7476504372
 20
11.6535428799
 30
0.0
 10
15.7575212588
 20
11.6362763893
 30
0.0
 10
15.767584765
 20
11.6197589348
 30
0.0
 10
15.777832498
 20
11.6040044625
 30
0.0
 10
15.7882558225
 20
11.5890263643
 30
0.0
 10
15.7988457267
 20
11.5748376802
 30
0.0
 10
15.8061225191
 20
11.5657737414
 30
0.0
 10
15.8097882288
 20
11.5613820367
 30
0.0
  0
SPLINE
  5
2A2
100
AcDbEntity
  8
02___PRT_ALL_AXES
100
AcDbSpline
 62
7
  6
CONTINUOUS
 70
0
 71
3
 72
59
 73
55
 74
0
 42
0.0000001
 43
0.0000001
 44
0.0000000001
 40
0.0
 40
0.0
 40
0.0
 40
0.0
 40
0.0080802117
 40
0.0160371292
 40
0.0239282493
 40
0.0318128661
 40
0.0397504549
 40
0.0477990342
 40
0.0560136865
 40
0.0644453728
 40
0.0731401136
 40
0.082138539
 40
0.0914757566
 40
0.1011814652
 40
0.111280231
 40
0.1217918598
 40
0.1327318083
 40
0.1441116016
 40
0.1559392308
 40
0.1682195206
 40
0.1809544599
 40
0.1941434957
 40
0.2077837916
 40
0.2218704559
 40
0.2363967397
 40
0.251354211
 40
0.2667329079
 40
0.2825214731
 40
0.2987072741
 40
0.3152765104
 40
0.3322143093
 40
0.3495048138
 40
0.3671312638
 40
0.3850760692
 40
0.4033208797
 40
0.4218466487
 40
0.4596604833
 40
0.4983548814
 40
0.5377582606
 40
0.5776931732
 40
0.6179778678
 40
0.6584278011
 40
0.6988571205
 40
0.7390801367
 40
0.7789127964
 40
0.8181741704
 40
0.8566879735
 40
0.8942841423
 40
0.9126877687
 40
0.9308019059
 40
0.9486078336
 40
0.9660874602
 40
0.9832237133
 40
1.0
 40
1.0
 40
1.0
 40
1.0
 10
15.9330931954
 20
13.6095690291
 30
0.0
 10
15.9382905247
 20
13.6111032523
 30
0.0
 10
15.9487455393
 20
13.6136992851
 30
0.0
 10
15.9646308197
 20
13.6161272719
 30
0.0
 10
15.9805447009
 20
13.6170471371
 30
0.0
 10
15.9964609602
 20
13.6164565005
 30
0.0
 10
16.0123552754
 20
13.6143567324
 30
0.0
 10
16.0282032725
 20
13.6107521523
 30
0.0
 10
16.0439815814
 20
13.6056498789
 30
0.0
 10
16.0596678272
 20
13.5990593427
 30
0.0
 10
16.0752406357
 20
13.5909918987
 30
0.0
 10
16.0906794424
 20
13.5814605418
 30
0.0
 10
16.1059642772
 20
13.5704797726
 30
0.0
 10
16.1210755668
 20
13.5580655666
 30
0.0
 10
16.1359939968
 20
13.544235414
 30
0.0
 10
16.1507004339
 20
13.5290083868
 30
0.0
 10
16.1651758994
 20
13.5124052054
 30
0.0
 10
16.1794015769
 20
13.4944482897
 30
0.0
 10
16.1933588414
 20
13.4751617921
 30
0.0
 10
16.2070292997
 20
13.45457161
 30
0.0
 10
16.2203948334
 20
13.4327053827
 30
0.0
 10
16.2334376458
 20
13.409592476
 30
0.0
 10
16.246140302
 20
13.3852639542
 30
0.0
 10
16.2584857683
 20
13.3597525443
 30
0.0
 10
16.2704574483
 20
13.3330925949
 30
0.0
 10
16.2820392157
 20
13.3053200308
 30
0.0
 10
16.2932154446
 20
13.2764723045
 30
0.0
 10
16.3039710376
 20
13.2465883441
 30
0.0
 10
16.3142914508
 20
13.2157084993
 30
0.0
 10
16.3241627176
 20
13.1838744855
 30
0.0
 10
16.3335714725
 20
13.1511293256
 30
0.0
 10
16.3425049692
 20
13.1175172923
 30
0.0
 10
16.3509511062
 20
13.0830838356
 30
0.0
 10
16.3588984169
 20
13.0478755609
 30
0.0
 10
16.3663361929
 20
13.0119400044
 30
0.0
 10
16.3756232605
 20
12.9627870656
 30
0.0
 10
16.3858627829
 20
12.8998670082
 30
0.0
 10
16.3958926605
 20
12.8227675087
 30
0.0
 10
16.4036926072
 20
12.743981143
 30
0.0
 10
16.4092201588
 20
12.6639343092
 30
0.0
 10
16.412445206
 20
12.5830595075
 30
0.0
 10
16.4133501786
 20
12.501794036
 30
0.0
 10
16.4119301427
 20
12.4205772874
 30
0.0
 10
16.4081928395
 20
12.3398483854
 30
0.0
 10
16.4021586277
 20
12.2600438252
 30
0.0
 10
16.3938603747
 20
12.1815947658
 30
0.0
 10
16.3833432558
 20
12.1049257602
 30
0.0
 10
16.3727035556
 20
12.0424259065
 30
0.0
 10
16.36310292
 20
11.9936547534
 30
0.0
 10
16.3554379796
 20
11.9580355792
 30
0.0
 10
16.3472681994
 20
11.9231649677
 30
0.0
 10
16.3386045747
 20
11.8890898582
 30
0.0
 10
16.3294589149
 20
11.8558566656
 30
0.0
 10
16.3229778357
 20
11.8340539296
 30
0.0
 10
16.3196559699
 20
11.823304368
 30
0.0
  0
SPLINE
  5
2A3
100
AcDbEntity
  8
LAYER_FEATURE
100
AcDbSpline
 62
7
  6
CONTINUOUS
 70
0
 71
3
 72
58
 73
54
 74
0
 42
0.0000001
 43
0.0000001
 44
0.0000000001
 40
0.0
 40
0.0
 40
0.0
 40
0.0
 40
0.0163583066
 40
0.0330514671
 40
0.0500648586
 40
0.067383511
 40
0.0849915537
 40
0.1028725912
 40
0.1393839942
 40
0.1767770749
 40
0.2149030244
 40
0.2536074776
 40
0.2927317876
 40
0.3321142519
 40
0.371591309
 40
0.4109987213
 40
0.4501727498
 40
0.488951332
 40
0.527175277
 40
0.5646894896
 40
0.601344234
 40
0.6193049133
 40
0.6369977095
 40
0.6544060242
 40
0.6715138628
 40
0.6883058869
 40
0.7047674701
 40
0.7208847584
 40
0.7366447351
 40
0.7520352918
 40
0.7670453063
 40
0.7816647284
 40
0.7958846768
 40
0.809697545
 40
0.823097122
 40
0.8360787281
 40
0.8486393693
 40
0.8607779126
 40
0.8724952844
 40
0.8837946958
 40
0.8946818959
 40
0.9051654519
 40
0.9152570557
 40
0.9249718508
 40
0.9343287667
 40
0.9433508417
 40
0.9520655027
 40
0.9605047595
 40
0.9687052614
 40
0.976708157
 40
0.9845587032
 40
0.9923055923
 40
1.0
 40
1.0
 40
1.0
 40
1.0
 10
15.5370861237
 20
13.3437623504
 30
0.0
 10
15.5332589704
 20
13.3313776779
 30
0.0
 10
15.5257825085
 20
13.3062749464
 30
0.0
 10
15.5151991434
 20
13.2680382839
 30
0.0
 10
15.5051432101
 20
13.2288733184
 30
0.0
 10
15.495627116
 20
13.188828362
 30
0.0
 10
15.4866624533
 20
13.1479522023
 30
0.0
 10
15.4753816727
 20
13.0920221566
 30
0.0
 10
15.462764978
 20
13.0203789954
 30
0.0
 10
15.450086078
 20
12.9325014127
 30
0.0
 10
15.4398276101
 20
12.8425594227
 30
0.0
 10
15.4320401132
 20
12.7509937305
 30
0.0
 10
15.4267619634
 20
12.6582522204
 30
0.0
 10
15.4240191806
 20
12.5647888929
 30
0.0
 10
15.4238252813
 20
12.471061275
 30
0.0
 10
15.4261812157
 20
12.3775282328
 30
0.0
 10
15.4310753721
 20
12.28464764
 30
0.0
 10
15.4384836352
 20
12.1928741906
 30
0.0
 10
15.448369499
 20
12.1026568099
 30
0.0
 10
15.460684249
 20
12.0144375628
 30
0.0
 10
15.4730018862
 20
11.9424658859
 30
0.0
 10
15.4840483437
 20
11.8862405839
 30
0.0
 10
15.4928431489
 20
11.8451216807
 30
0.0
 10
15.5021928064
 20
11.8048188226
 30
0.0
 10
15.5120859121
 20
11.7653812677
 30
0.0
 10
15.5225103087
 20
11.7268573393
 30
0.0
 10
15.5334532138
 20
11.6892941963
 30
0.0
 10
15.5449012078
 20
11.6527378181
 30
0.0
 10
15.5568402595
 20
11.6172329359
 30
0.0
 10
15.5692557432
 20
11.5828229794
 30
0.0
 10
15.5821324602
 20
11.5495500208
 30
0.0
 10
15.5954546609
 20
11.5174547219
 30
0.0
 10
15.6092060657
 20
11.4865762812
 30
0.0
 10
15.6233698938
 20
11.456952386
 30
0.0
 10
15.6379288899
 20
11.4286191666
 30
0.0
 10
15.6528653545
 20
11.401611153
 30
0.0
 10
15.6681611755
 20
11.3759612351
 30
0.0
 10
15.6837978639
 20
11.3517006276
 30
0.0
 10
15.6997565908
 20
11.328858841
 30
0.0
 10
15.7160182277
 20
11.3074636599
 30
0.0
 10
15.7325633843
 20
11.2875411294
 30
0.0
 10
15.749372449
 20
11.2691155571
 30
0.0
 10
15.7664256222
 20
11.252209531
 30
0.0
 10
15.7837029368
 20
11.2368439519
 30
0.0
 10
15.8011842574
 20
11.2230380817
 30
0.0
 10
15.8188492444
 20
11.2108096001
 30
0.0
 10
15.8366772807
 20
11.2001746557
 30
0.0
 10
15.8546473234
 20
11.1911478893
 30
0.0
 10
15.872737798
 20
11.1837423897
 30
0.0
 10
15.8909261701
 20
11.1779695541
 30
0.0
 10
15.9091896806
 20
11.1738388355
 30
0.0
 10
15.9275021399
 20
11.1713574023
 30
0.0
 10
15.939745078
 20
11.1708049954
 30
0.0
 10
15.945842225
 20
11.1708050005
 30
0.0
  0
SPLINE
  5
2A4
100
AcDbEntity
  8
LAYER_FEATURE
100
AcDbSpline
 62
7
  6
CONTINUOUS
 70
0
 71
3
 72
19
 73
15
 74
0
 42
0.0000001
 43
0.0000001
 44
0.0000000001
 40
0.0
 40
0.0
 40
0.0
 40
0.0
 40
0.0556072511
 40
0.1113994023
 40
0.1675590763
 40
0.224264503
 40
0.2816875352
 40
0.3399919974
 40
0.3993324122
 40
0.4598528939
 40
0.5849171722
 40
0.7161576756
 40
0.8543245465
 40
1.0
 40
1.0
 40
1.0
 40
1.0
 10
14.9963394025
 20
13.8508049854
 30
0.0
 10
15.0005880074
 20
13.8508049812
 30
0.0
 10
15.0091017457
 20
13.850537673
 30
0.0
 10
15.021855251
 20
13.8493356334
 30
0.0
 10
15.0345931149
 20
13.8473332813
 30
0.0
 10
15.0473066762
 20
13.8445320213
 30
0.0
 10
15.0599882439
 20
13.8409338707
 30
0.0
 10
15.0726299364
 20
13.83654143
 30
0.0
 10
15.0852243684
 20
13.8313574742
 30
0.0
 10
15.1021264435
 20
13.8233081942
 30
0.0
 10
15.1231352459
 20
13.8111952294
 30
0.0
 10
15.1477400575
 20
13.7937212532
 30
0.0
 10
15.1719627235
 20
13.773198586
 30
0.0
 10
15.1873997088
 20
13.7579350098
 30
0.0
 10
15.1950468492
 20
13.7498478817
 30
0.0
  0
SPLINE
  5
2A5
100
AcDbEntity
  8
LAYER_FEATURE
100
AcDbSpline
 62
7
  6
CONTINUOUS
 70
0
 71
3
 72
19
 73
15
 74
0
 42
0.0000001
 43
0.0000001
 44
0.0000000001
 40
0.0
 40
0.0
 40
0.0
 40
0.0
 40
0.0556173064
 40
0.1114192018
 40
0.1675880246
 40
0.2243016925
 40
0.281731824
 40
0.3400419995
 40
0.3993865031
 40
0.4599093385
 40
0.5849724426
 40
0.7162033243
 40
0.8543517823
 40
1.0
 40
1.0
 40
1.0
 40
1.0
 10
14.9963394025
 20
11.1708050004
 30
0.0
 10
15.0005840757
 20
11.1708049963
 30
0.0
 10
15.0090899038
 20
11.1710718344
 30
0.0
 10
15.0218315975
 20
11.1722716088
 30
0.0
 10
15.0345576859
 20
11.1742702852
 30
0.0
 10
15.0472595516
 20
11.1770663336
 30
0.0
 10
15.0599295094
 20
11.1806578362
 30
0.0
 10
15.0725596989
 20
11.1850421787
 30
0.0
 10
15.0851427797
 20
11.1902165481
 30
0.0
 10
15.1020294581
 20
11.198250911
 30
0.0
 10
15.1230194747
 20
11.2103413621
 30
0.0
 10
15.1476032795
 20
11.2277833615
 30
0.0
 10
15.1718059727
 20
11.2482687133
 30
0.0
 10
15.1872311503
 20
11.2635051071
 30
0.0
 10
15.1948725398
 20
11.2715778681
 30
0.0
  0
SPLINE
  5
2A6
100
AcDbEntity
  8
LAYER_FEATURE
100
AcDbSpline
 62
7
  6
CONTINUOUS
 70
0
 71
3
 72
58
 73
54
 74
0
 42
0.0000001
 43
0.0000001
 44
0.0000000001
 40
0.0
 40
0.0
 40
0.0
 40
0.0
 40
0.0076944077
 40
0.0154412968
 40
0.023291843
 40
0.0312947386
 40
0.0394952405
 40
0.0479344973
 40
0.0566491583
 40
0.0656712333
 40
0.0750281492
 40
0.0847429443
 40
0.0948345481
 40
0.1053181041
 40
0.1162053042
 40
0.1275047156
 40
0.1392220874
 40
0.1513606307
 40
0.1639212719
 40
0.176902878
 40
0.190302455
 40
0.2041153232
 40
0.2183352716
 40
0.2329546937
 40
0.2479647082
 40
0.2633552649
 40
0.2791152416
 40
0.2952325299
 40
0.3116941131
 40
0.3284861372
 40
0.3455939758
 40
0.3630022905
 40
0.3806950867
 40
0.398655766
 40
0.4353105104
 40
0.472824723
 40
0.511048668
 40
0.5498272502
 40
0.5890012787
 40
0.628408691
 40
0.6678857481
 40
0.7072682124
 40
0.7463925224
 40
0.7850969756
 40
0.8232229251
 40
0.8606160058
 40
0.8971274088
 40
0.9150084463
 40
0.932616489
 40
0.9499351414
 40
0.9669485329
 40
0.9836416934
 40
1.0
 40
1.0
 40
1.0
 40
1.0
 10
15.9835077467
 20
13.8508049853
 30
0.0
 10
15.9896048937
 20
13.8508049904
 30
0.0
 10
16.0018478318
 20
13.8502525835
 30
0.0
 10
16.0201602911
 20
13.8477711504
 30
0.0
 10
16.0384238016
 20
13.8436404318
 30
0.0
 10
16.0566121738
 20
13.8378675961
 30
0.0
 10
16.0747026483
 20
13.8304620966
 30
0.0
 10
16.092672691
 20
13.8214353301
 30
0.0
 10
16.1105007273
 20
13.8108003857
 30
0.0
 10
16.1281657143
 20
13.7985719041
 30
0.0
 10
16.1456470349
 20
13.7847660339
 30
0.0
 10
16.1629243496
 20
13.7694004548
 30
0.0
 10
16.1799775227
 20
13.7524944287
 30
0.0
 10
16.1967865874
 20
13.7340688565
 30
0.0
 10
16.213331744
 20
13.714146326
 30
0.0
 10
16.2295933809
 20
13.6927511448
 30
0.0
 10
16.2455521078
 20
13.6699093582
 30
0.0
 10
16.2611887962
 20
13.6456487507
 30
0.0
 10
16.2764846173
 20
13.6199988328
 30
0.0
 10
16.2914210818
 20
13.5929908192
 30
0.0
 10
16.3059800779
 20
13.5646575998
 30
0.0
 10
16.320143906
 20
13.5350337046
 30
0.0
 10
16.3338953108
 20
13.5041552639
 30
0.0
 10
16.3472175115
 20
13.472059965
 30
0.0
 10
16.3600942285
 20
13.4387870065
 30
0.0
 10
16.3725097122
 20
13.4043770499
 30
0.0
 10
16.3844487639
 20
13.3688721677
 30
0.0
 10
16.3958967579
 20
13.3323157896
 30
0.0
 10
16.406839663
 20
13.2947526465
 30
0.0
 10
16.4172640596
 20
13.2562287181
 30
0.0
 10
16.4271571653
 20
13.2167911632
 30
0.0
 10
16.4365068228
 20
13.1764883051
 30
0.0
 10
16.4453016281
 20
13.1353694019
 30
0.0
 10
16.4563480855
 20
13.0791440999
 30
0.0
 10
16.4686657227
 20
13.007172423
 30
0.0
 10
16.4809804727
 20
12.9189531759
 30
0.0
 10
16.4908663365
 20
12.8287357952
 30
0.0
 10
16.4982745997
 20
12.7369623458
 30
0.0
 10
16.503168756
 20
12.644081753
 30
0.0
 10
16.5055246904
 20
12.5505487108
 30
0.0
 10
16.5053307911
 20
12.4568210929
 30
0.0
 10
16.5025880083
 20
12.3633577654
 30
0.0
 10
16.4973098585
 20
12.2706162553
 30
0.0
 10
16.4895223616
 20
12.1790505631
 30
0.0
 10
16.4792638937
 20
12.0891085731
 30
0.0
 10
16.4665849937
 20
12.0012309904
 30
0.0
 10
16.453968299
 20
11.9295878293
 30
0.0
 10
16.4426875185
 20
11.8736577835
 30
0.0
 10
16.4337228557
 20
11.8327816238
 30
0.0
 10
16.4242067616
 20
11.7927366674
 30
0.0
 10
16.4141508283
 20
11.7535717019
 30
0.0
 10
16.4035674632
 20
11.7153350394
 30
0.0
 10
16.3960910013
 20
11.6902323079
 30
0.0
 10
16.392263848
 20
11.6778476354
 30
0.0
  0
SPLINE
  5
2A7
100
AcDbEntity
  8
LAYER_FEATURE
100
AcDbSpline
 62
7
  6
CONTINUOUS
 70
0
 71
3
 72
38
 73
34
 74
0
 42
0.0000001
 43
0.0000001
 44
0.0000000001
 40
0.0
 40
0.0
 40
0.0
 40
0.0
 40
0.0212770466
 40
0.0426478758
 40
0.0642047512
 40
0.0860369972
 40
0.1082297681
 40
0.1308630401
 40
0.1540108647
 40
0.1777409152
 40
0.2021142543
 40
0.2271852749
 40
0.2530018507
 40
0.2796055914
 40
0.3070321349
 40
0.3353115102
 40
0.3644685519
 40
0.3945232728
 40
0.4254912056
 40
0.4573837966
 40
0.4902087415
 40
0.5239702523
 40
0.5586693516
 40
0.5943041532
 40
0.6308700673
 40
0.668359986
 40
0.7067645167
 40
0.7460721402
 40
0.7862693076
 40
0.827340711
 40
0.8692692201
 40
0.9120359366
 40
1.0
 40
1.0
 40
1.0
 40
1.0
 10
15.9835077467
 20
11.1708050005
 30
0.0
 10
15.9884023584
 20
11.1708050045
 30
0.0
 10
15.9982168207
 20
11.171160158
 30
0.0
 10
16.0129121414
 20
11.1727567011
 30
0.0
 10
16.0275830883
 20
11.1754157451
 30
0.0
 10
16.042216311
 20
11.1791345664
 30
0.0
 10
16.0567999818
 20
11.1839094997
 30
0.0
 10
16.0713221875
 20
11.1897359819
 30
0.0
 10
16.0857713867
 20
11.1966085982
 30
0.0
 10
16.1001362371
 20
11.2045212121
 30
0.0
 10
16.1144055881
 20
11.2134669859
 30
0.0
 10
16.1285684731
 20
11.2234383395
 30
0.0
 10
16.1426140507
 20
11.2344270151
 30
0.0
 10
16.1565315684
 20
11.2464240822
 30
0.0
 10
16.1703103774
 20
11.2594198848
 30
0.0
 10
16.1839399282
 20
11.273404038
 30
0.0
 10
16.1974097381
 20
11.2883654568
 30
0.0
 10
16.2107094069
 20
11.3042923299
 30
0.0
 10
16.2238286618
 20
11.3211720853
 30
0.0
 10
16.2367573239
 20
11.3389914327
 30
0.0
 10
16.2494853167
 20
11.3577363647
 30
0.0
 10
16.2620027162
 20
11.3773921299
 30
0.0
 10
16.2742997443
 20
11.3979432572
 30
0.0
 10
16.2863667576
 20
11.419373582
 30
0.0
 10
16.2981942775
 20
11.4416662389
 30
0.0
 10
16.3097730247
 20
11.4648036622
 30
0.0
 10
16.3210938873
 20
11.4887676262
 30
0.0
 10
16.3321479297
 20
11.5135392464
 30
0.0
 10
16.3429264629
 20
11.5390990035
 30
0.0
 10
16.3534209567
 20
11.5654266955
 30
0.0
 10
16.363623196
 20
11.5925016594
 30
0.0
 10
16.3769502748
 20
11.6299195719
 30
0.0
 10
16.3862893941
 20
11.6585142956
 30
0.0
 10
16.392263848
 20
11.6778476354
 30
0.0
  0
SPLINE
  5
2A8
100
AcDbEntity
  8
LAYER_CHAMFER_FEAT
100
AcDbSpline
 62
7
  6
CONTINUOUS
 70
0
 71
3
 72
50
 73
46
 74
0
 42
0.0000001
 43
0.0000001
 44
0.0000000001
 40
0.0
 40
0.0
 40
0.0
 40
0.0
 40
0.0101614954
 40
0.0206687975
 40
0.0315256052
 40
0.0427339295
 40
0.0542942466
 40
0.0662056254
 40
0.0784658557
 40
0.091071564
 40
0.1040183094
 40
0.1173006623
 40
0.1309122869
 40
0.1448460173
 40
0.1590939182
 40
0.1736473336
 40
0.2036315892
 40
0.2347184928
 40
0.2668178335
 40
0.2998320752
 40
0.3336573672
 40
0.368184517
 40
0.4032998417
 40
0.4388860136
 40
0.4748228323
 40
0.510988002
 40
0.5472578689
 40
0.583508164
 40
0.6196147333
 40
0.6554542695
 40
0.6909050573
 40
0.7258477144
 40
0.7601659775
 40
0.7937474822
 40
0.8264846249
 40
0.8582754318
 40
0.889024561
 40
0.9039813863
 40
0.9186456247
 40
0.933007723
 40
0.9470587841
 40
0.9607906003
 40
0.9741956223
 40
0.9872675119
 40
1.0
 40
1.0
 40
1.0
 40
1.0
 10
15.8097882275
 20
13.4602279562
 30
0.0
 10
15.8058041005
 20
13.4554547672
 30
0.0
 10
15.7979007822
 20
13.4455770234
 30
0.0
 10
15.7864298159
 20
13.4300639962
 30
0.0
 10
15.7751569657
 20
13.4136237078
 30
0.0
 10
15.7640937019
 20
13.3962729835
 30
0.0
 10
15.7532509678
 20
13.3780291284
 30
0.0
 10
15.7426396049
 20
13.358910484
 30
0.0
 10
15.732270219
 20
13.3389362481
 30
0.0
 10
15.7221532089
 20
13.3181264906
 30
0.0
 10
15.7122987431
 20
13.2965021252
 30
0.0
 10
15.7027167267
 20
13.2740849092
 30
0.0
 10
15.6934167944
 20
13.2508974043
 30
0.0
 10
15.6844083362
 20
13.2269629737
 30
0.0
 10
15.6757003691
 20
13.2023056519
 30
0.0
 10
15.6643900665
 20
13.1681594387
 30
0.0
 10
15.6510944445
 20
13.1238271544
 30
0.0
 10
15.6366258696
 20
13.0686755086
 30
0.0
 10
15.6235472407
 20
13.0112752499
 30
0.0
 10
15.6119115876
 20
12.9518578502
 30
0.0
 10
15.6017659765
 20
12.8906622877
 30
0.0
 10
15.5931515688
 20
12.8279350881
 30
0.0
 10
15.5861032442
 20
12.7639290124
 30
0.0
 10
15.5806496241
 20
12.6989020826
 30
0.0
 10
15.5768127849
 20
12.6331165027
 30
0.0
 10
15.5746083285
 20
12.5668375819
 30
0.0
 10
15.5740451562
 20
12.5003326492
 30
0.0
 10
15.5751255924
 20
12.433869958
 30
0.0
 10
15.5778452144
 20
12.3677175882
 30
0.0
 10
15.5821930321
 20
12.3021423518
 30
0.0
 10
15.5881513708
 20
12.2374086954
 30
0.0
 10
15.5956961089
 20
12.1737776264
 30
0.0
 10
15.6047966138
 20
12.111505612
 30
0.0
 10
15.6154160361
 20
12.0508436041
 30
0.0
 10
15.6275113156
 20
11.992035717
 30
0.0
 10
15.6410334767
 20
11.9353191867
 30
0.0
 10
15.6535581689
 20
11.8895750428
 30
0.0
 10
15.6642713554
 20
11.8542226037
 30
0.0
 10
15.6725532574
 20
11.8286152317
 30
0.0
 10
15.6811476055
 20
11.803696512
 30
0.0
 10
15.6900458026
 20
11.7794914815
 30
0.0
 10
15.6992388518
 20
11.7560246104
 30
0.0
 10
15.7087175289
 20
11.7333193279
 30
0.0
 10
15.7184721895
 20
11.7113988668
 30
0.0
 10
15.7252427822
 20
11.6971333138
 30
0.0
 10
15.7286748473
 20
11.6901395006
 30
0.0
  0
SPLINE
  5
2A9
100
AcDbEntity
  8
LAYER_CHAMFER_FEAT
100
AcDbSpline
 62
7
  6
CONTINUOUS
 70
0
 71
3
 72
19
 73
15
 74
0
 42
0.0000001
 43
0.0000001
 44
0.0000000001
 40
0.0
 40
0.0
 40
0.0
 40
0.0
 40
0.1457327754
 40
0.2839384239
 40
0.4151991569
 40
0.5402658712
 40
0.6007814365
 40
0.6601132073
 40
0.7184056721
 40
0.7758137676
 40
0.8325018377
 40
0.888642273
 40
0.944413911
 40
1.0
 40
1.0
 40
1.0
 40
1.0
 10
15.8104130061
 20
11.5617859027
 30
0.0
 10
15.8162812708
 20
11.5555666075
 30
0.0
 10
15.8281276252
 20
11.5438282501
 30
0.0
 10
15.8467184502
 20
11.5280441792
 30
0.0
 10
15.8656037411
 20
11.5146045457
 30
0.0
 10
15.8817303271
 20
11.5052876686
 30
0.0
 10
15.8947049651
 20
11.4990964383
 30
0.0
 10
15.9043727428
 20
11.4951092252
 30
0.0
 10
15.9140769419
 20
11.4917307701
 30
0.0
 10
15.9238118807
 20
11.488963248
 30
0.0
 10
15.9335714737
 20
11.4868086279
 30
0.0
 10
15.9433498032
 20
11.4852685068
 30
0.0
 10
15.9531401871
 20
11.4843439367
 30
0.0
 10
15.9596758981
 20
11.4841383372
 30
0.0
 10
15.9629373845
 20
11.4841383349
 30
0.0
  0
SPLINE
  5
2AA
100
AcDbEntity
  8
LAYER_FEATURE
100
AcDbSpline
 62
7
  6
CONTINUOUS
 70
0
 71
3
 72
38
 73
34
 74
0
 42
0.0000001
 43
0.0000001
 44
0.0000000001
 40
0.0
 40
0.0
 40
0.0
 40
0.0
 40
0.0879640634
 40
0.1307307799
 40
0.172659289
 40
0.2137306924
 40
0.2539278598
 40
0.2932354833
 40
0.331640014
 40
0.3691299327
 40
0.4056958468
 40
0.4413306484
 40
0.4760297477
 40
0.5097912585
 40
0.5426162034
 40
0.5745087944
 40
0.6054767272
 40
0.6355314481
 40
0.6646884898
 40
0.6929678651
 40
0.7203944086
 40
0.7469981493
 40
0.7728147251
 40
0.7978857457
 40
0.8222590848
 40
0.8459891353
 40
0.8691369599
 40
0.8917702319
 40
0.9139630028
 40
0.9357952488
 40
0.9573521242
 40
0.9787229534
 40
1.0
 40
1.0
 40
1.0
 40
1.0
 10
15.5370861237
 20
13.3437623504
 30
0.0
 10
15.5430605776
 20
13.3630956903
 30
0.0
 10
15.5523996969
 20
13.3916904139
 30
0.0
 10
15.5657267757
 20
13.4291083264
 30
0.0
 10
15.575929015
 20
13.4561832903
 30
0.0
 10
15.5864235088
 20
13.4825109823
 30
0.0
 10
15.597202042
 20
13.5080707394
 30
0.0
 10
15.6082560844
 20
13.5328423596
 30
0.0
 10
15.619576947
 20
13.5568063236
 30
0.0
 10
15.6311556942
 20
13.5799437469
 30
0.0
 10
15.6429832142
 20
13.6022364038
 30
0.0
 10
15.6550502274
 20
13.6236667286
 30
0.0
 10
15.6673472555
 20
13.6442178559
 30
0.0
 10
15.679864655
 20
13.6638736211
 30
0.0
 10
15.6925926478
 20
13.6826185531
 30
0.0
 10
15.7055213099
 20
13.7004379005
 30
0.0
 10
15.7186405648
 20
13.7173176559
 30
0.0
 10
15.7319402336
 20
13.7332445291
 30
0.0
 10
15.7454100436
 20
13.7482059478
 30
0.0
 10
15.7590395943
 20
13.762190101
 30
0.0
 10
15.7728184033
 20
13.7751859036
 30
0.0
 10
15.786735921
 20
13.7871829707
 30
0.0
 10
15.8007814986
 20
13.7981716463
 30
0.0
 10
15.8149443836
 20
13.8081429999
 30
0.0
 10
15.8292137347
 20
13.8170887737
 30
0.0
 10
15.8435785851
 20
13.8250013876
 30
0.0
 10
15.8580277843
 20
13.831874004
 30
0.0
 10
15.8725499899
 20
13.8377004861
 30
0.0
 10
15.8871336607
 20
13.8424754195
 30
0.0
 10
15.9017668834
 20
13.8461942408
 30
0.0
 10
15.9164378303
 20
13.8488532847
 30
0.0
 10
15.931133151
 20
13.8504498278
 30
0.0
 10
15.9409476134
 20
13.8508049813
 30
0.0
 10
15.945842225
 20
13.8508049853
 30
0.0
  0
SPLINE
  5
2AB
100
AcDbEntity
  8
LAYER_CHAMFER_FEAT
100
AcDbSpline
 62
7
  6
CONTINUOUS
 70
0
 71
3
 72
19
 73
15
 74
0
 42
0.0000001
 43
0.0000001
 44
0.0000000001
 40
0.0
 40
0.0
 40
0.0
 40
0.0
 40
0.0555846607
 40
0.1113549122
 40
0.1674940551
 40
0.2241809442
 40
0.2815880434
 40
0.3398796879
 40
0.3992108835
 40
0.4597261205
 40
0.5847930085
 40
0.7160551066
 40
0.8542633653
 40
1.0
 40
1.0
 40
1.0
 40
1.0
 10
15.9629373845
 20
13.5374716509
 30
0.0
 10
15.9596754703
 20
13.5374716533
 30
0.0
 10
15.9531388994
 20
13.5372659859
 30
0.0
 10
15.9433472279
 20
13.5363411918
 30
0.0
 10
15.9335676217
 20
13.5348006437
 30
0.0
 10
15.9238067499
 20
13.5326454822
 30
0.0
 10
15.9140705545
 20
13.5298772127
 30
0.0
 10
15.9043650989
 20
13.5264978893
 30
0.0
 10
15.8946960885
 20
13.5225096243
 30
0.0
 10
15.8817197761
 20
13.5163167645
 30
0.0
 10
15.8655911471
 20
13.5069974303
 30
0.0
 10
15.8467035719
 20
13.4935543106
 30
0.0
 10
15.8281105734
 20
13.4777661742
 30
0.0
 10
15.8162629411
 20
13.4660248492
 30
0.0
 10
15.8103940477
 20
13.4598039918
 30
0.0
  0
SPLINE
  5
2AC
100
AcDbEntity
  8
LAYER_FEATURE
100
AcDbSpline
 62
7
  6
CONTINUOUS
 70
0
 71
3
 72
58
 73
54
 74
0
 42
0.0000001
 43
0.0000001
 44
0.0000000001
 40
0.0
 40
0.0
 40
0.0
 40
0.0
 40
0.0163583
 40
0.033051471
 40
0.0500648574
 40
0.0673835114
 40
0.0849915535
 40
0.1028725909
 40
0.1393839941
 40
0.1767770752
 40
0.2149030243
 40
0.2536074773
 40
0.2927317876
 40
0.3321142519
 40
0.3715913088
 40
0.4109987214
 40
0.4501727498
 40
0.4889513312
 40
0.5271752767
 40
0.5646894904
 40
0.601344234
 40
0.6193049122
 40
0.6369977078
 40
0.6544060228
 40
0.6715138624
 40
0.6883058876
 40
0.7047674716
 40
0.7208847596
 40
0.736644735
 40
0.7520352903
 40
0.7670453039
 40
0.7816647265
 40
0.7958846763
 40
0.8096975461
 40
0.823097124
 40
0.8360787296
 40
0.8486393693
 40
0.860777911
 40
0.8724952819
 40
0.8837946938
 40
0.8946818953
 40
0.9051654528
 40
0.9152570574
 40
0.9249718519
 40
0.9343287667
 40
0.9433508406
 40
0.952065501
 40
0.960504758
 40
0.9687052606
 40
0.9767081569
 40
0.9845587033
 40
0.9923055923
 40
1.0
 40
1.0
 40
1.0
 40
1.0
 10
14.5499177795
 20
13.3437623504
 30
0.0
 10
14.5460906277
 20
13.3313776829
 30
0.0
 10
14.5386141658
 20
13.3062749482
 30
0.0
 10
14.5280307995
 20
13.2680382869
 30
0.0
 10
14.5179748663
 20
13.2288733157
 30
0.0
 10
14.508458772
 20
13.1888283627
 30
0.0
 10
14.4994941089
 20
13.1479522024
 30
0.0
 10
14.4882133275
 20
13.0920221571
 30
0.0
 10
14.4755966336
 20
13.0203789954
 30
0.0
 10
14.4629177356
 20
12.9325014122
 30
0.0
 10
14.4526592662
 20
12.8425594226
 30
0.0
 10
14.4448717668
 20
12.7509937308
 30
0.0
 10
14.439593619
 20
12.6582522205
 30
0.0
 10
14.4368508395
 20
12.5647888929
 30
0.0
 10
14.4366569375
 20
12.4710612749
 30
0.0
 10
14.4390128681
 20
12.3775282326
 30
0.0
 10
14.4439070275
 20
12.2846476403
 30
0.0
 10
14.4513152952
 20
12.1928741916
 30
0.0
 10
14.4612011553
 20
12.1026568099
 30
0.0
 10
14.4735159005
 20
12.0144375614
 30
0.0
 10
14.4858335408
 20
11.9424658857
 30
0.0
 10
14.4968800019
 20
11.8862405864
 30
0.0
 10
14.5056748081
 20
11.8451216844
 30
0.0
 10
14.5150244645
 20
11.8048188256
 30
0.0
 10
14.5249175682
 20
11.7653812681
 30
0.0
 10
14.5353419626
 20
11.7268573368
 30
0.0
 10
14.5462848663
 20
11.6892941919
 30
0.0
 10
14.5577328611
 20
11.6527378146
 30
0.0
 10
14.5696719151
 20
11.6172329358
 30
0.0
 10
14.5820874011
 20
11.5828229832
 30
0.0
 10
14.5949641193
 20
11.5495500267
 30
0.0
 10
14.6082863189
 20
11.5174547265
 30
0.0
 10
14.6220377217
 20
11.4865762819
 30
0.0
 10
14.6362015477
 20
11.4569523822
 30
0.0
 10
14.6507605425
 20
11.4286191603
 30
0.0
 10
14.6656970082
 20
11.4016111483
 30
0.0
 10
14.6809928312
 20
11.3759612349
 30
0.0
 10
14.6966295214
 20
11.3517006323
 30
0.0
 10
14.7125882494
 20
11.3288588485
 30
0.0
 10
14.7288498855
 20
11.3074636658
 30
0.0
 10
14.7453950403
 20
11.2875411302
 30
0.0
 10
14.762204103
 20
11.2691155522
 30
0.0
 10
14.7792572755
 20
11.2522095233
 30
0.0
 10
14.7965345913
 20
11.2368439466
 30
0.0
 10
14.8140159132
 20
11.2230380815
 30
0.0
 10
14.8316809012
 20
11.2108096051
 30
0.0
 10
14.849508938
 20
11.200174664
 30
0.0
 10
14.8674789802
 20
11.1911478963
 30
0.0
 10
14.8855694535
 20
11.1837423908
 30
0.0
 10
14.9037578249
 20
11.1779695478
 30
0.0
 10
14.9220213358
 20
11.1738388292
 30
0.0
 10
14.9403337957
 20
11.1713573916
 30
0.0
 10
14.9525767338
 20
11.1708050064
 30
0.0
 10
14.9586738808
 20
11.1708050004
 30
0.0
  0
SPLINE
  5
2AD
100
AcDbEntity
  8
LAYER_FEATURE
100
AcDbSpline
 62
7
  6
CONTINUOUS
 70
0
 71
3
 72
38
 73
34
 74
0
 42
0.0000001
 43
0.0000001
 44
0.0000000001
 40
0.0
 40
0.0
 40
0.0
 40
0.0
 40
0.0879640716
 40
0.1307307847
 40
0.1726592835
 40
0.2137306933
 40
0.2539278613
 40
0.2932354821
 40
0.331640013
 40
0.3691299341
 40
0.4056958476
 40
0.4413306462
 40
0.4760297484
 40
0.5097912612
 40
0.5426162009
 40
0.5745087936
 40
0.6054767306
 40
0.6355314471
 40
0.6646884872
 40
0.6929678677
 40
0.7203944107
 40
0.7469981459
 40
0.7728147257
 40
0.7978857495
 40
0.8222590824
 40
0.8459891342
 40
0.8691369629
 40
0.8917702321
 40
0.9139630012
 40
0.9357952498
 40
0.9573521255
 40
0.9787229532
 40
1.0
 40
1.0
 40
1.0
 40
1.0
 10
14.5499177795
 20
13.3437623504
 30
0.0
 10
14.5558922339
 20
13.363095692
 30
0.0
 10
14.565231354
 20
13.3916904166
 30
0.0
 10
14.5785584312
 20
13.4291083283
 30
0.0
 10
14.5887606721
 20
13.4561832898
 30
0.0
 10
14.5992551646
 20
13.4825109815
 30
0.0
 10
14.6100336966
 20
13.5080707401
 30
0.0
 10
14.6210877409
 20
13.5328423589
 30
0.0
 10
14.6324086039
 20
13.5568063227
 30
0.0
 10
14.6439873489
 20
13.5799437476
 30
0.0
 10
14.6558148691
 20
13.6022364041
 30
0.0
 10
14.6678818856
 20
13.6236667269
 30
0.0
 10
14.680178911
 20
13.6442178562
 30
0.0
 10
14.6926963079
 20
13.663873623
 30
0.0
 10
14.7054243065
 20
13.6826185507
 30
0.0
 10
14.7183529668
 20
13.7004378994
 30
0.0
 10
14.7314722171
 20
13.7173176589
 30
0.0
 10
14.7447718907
 20
13.7332445276
 30
0.0
 10
14.7582417021
 20
13.7482059446
 30
0.0
 10
14.7718712479
 20
13.7621901036
 30
0.0
 10
14.7856500569
 20
13.7751859062
 30
0.0
 10
14.799567581
 20
13.787182965
 30
0.0
 10
14.813613154
 20
13.7981716466
 30
0.0
 10
14.8277760351
 20
13.8081430068
 30
0.0
 10
14.8420453941
 20
13.8170887673
 30
0.0
 10
14.8564102422
 20
13.825001384
 30
0.0
 10
14.8708594367
 20
13.8318740121
 30
0.0
 10
14.8853816464
 20
13.8377004846
 30
0.0
 10
14.8999653187
 20
13.8424754109
 30
0.0
 10
14.9145985379
 20
13.8461942458
 30
0.0
 10
14.9292694854
 20
13.8488532935
 30
0.0
 10
14.9439648078
 20
13.8504498095
 30
0.0
 10
14.9537792691
 20
13.8508049902
 30
0.0
 10
14.9586738808
 20
13.8508049854
 30
0.0
  0
SPLINE
  5
2AE
100
AcDbEntity
  8
LAYER_FEATURE
100
AcDbSpline
 62
7
  6
CONTINUOUS
 70
0
 71
3
 72
24
 73
20
 74
0
 42
0.0000001
 43
0.0000001
 44
0.0000000001
 40
0.0
 40
0.0
 40
0.0
 40
0.0
 40
0.0836660473
 40
0.1647132339
 40
0.2430320452
 40
0.3185262446
 40
0.391116286
 40
0.4607407349
 40
0.5273589255
 40
0.5909538648
 40
0.6515357247
 40
0.7091459617
 40
0.7638621331
 40
0.815803379
 40
0.8651363847
 40
0.9120813691
 40
0.9569172183
 40
0.9786557981
 40
1.0
 40
1.0
 40
1.0
 40
1.0
 10
15.6346522549
 20
13.1958467741
 30
0.0
 10
15.6388410346
 20
13.2094016701
 30
0.0
 10
15.6474516337
 20
13.235976578
 30
0.0
 10
15.6613033898
 20
13.2747966248
 30
0.0
 10
15.6758609438
 20
13.3118737677
 30
0.0
 10
15.6910911361
 20
13.3471235039
 30
0.0
 10
15.7069594357
 20
13.3804659931
 30
0.0
 10
15.7234300227
 20
13.4118257831
 30
0.0
 10
15.7404659149
 20
13.4411320625
 30
0.0
 10
15.758029138
 20
13.4683187808
 30
0.0
 10
15.7760809202
 20
13.4933247511
 30
0.0
 10
15.7945818798
 20
13.5160936641
 30
0.0
 10
15.8134923122
 20
13.5365740503
 30
0.0
 10
15.8327720763
 20
13.5547189816
 30
0.0
 10
15.8523815956
 20
13.570486082
 30
0.0
 10
15.8722783252
 20
13.5838358323
 30
0.0
 10
15.8892406826
 20
13.5930114518
 30
0.0
 10
15.9028752289
 20
13.5990556312
 30
0.0
 10
15.9097079964
 20
13.6016538487
 30
0.0
 10
15.9131258667
 20
13.6028446264
 30
0.0
  0
SPLINE
  5
2AF
100
AcDbEntity
  8
02___PRT_ALL_AXES
100
AcDbSpline
 62
7
  6
CONTINUOUS
 70
0
 71
3
 72
22
 73
18
 74
0
 42
0.0000001
 43
0.0000001
 44
0.0000000001
 40
0.0
 40
0.0
 40
0.0
 40
0.0
 40
0.0410303103
 40
0.0854918145
 40
0.1334511043
 40
0.184888514
 40
0.2397151781
 40
0.2977860307
 40
0.3589097635
 40
0.4228566135
 40
0.4893646329
 40
0.5581449156
 40
0.6288860937
 40
0.7012583731
 40
0.7749171296
 40
0.8495065876
 40
1.0
 40
1.0
 40
1.0
 40
1.0
 10
15.6847122104
 20
11.7943807141
 30
0.0
 10
15.6857052636
 20
11.7954226064
 30
0.0
 10
15.6876530952
 20
11.7977109075
 30
0.0
 10
15.6903516315
 20
11.8015425321
 30
0.0
 10
15.6929282138
 20
11.8058870429
 30
0.0
 10
15.6953683736
 20
11.810719601
 30
0.0
 10
15.6976587084
 20
11.8160132052
 30
0.0
 10
15.699786191
 20
11.8217378045
 30
0.0
 10
15.7017386441
 20
11.8278607774
 30
0.0
 10
15.7035047974
 20
11.8343470575
 30
0.0
 10
15.7050744191
 20
11.8411593877
 30
0.0
 10
15.7064383906
 20
11.8482585464
 30
0.0
 10
15.7075887808
 20
11.8556036119
 30
0.0
 10
15.7085188784
 20
11.8631521449
 30
0.0
 10
15.7092233129
 20
11.8708607026
 30
0.0
 10
15.7098578099
 20
11.8813223781
 30
0.0
 10
15.709981688
 20
11.8892234516
 30
0.0
 10
15.7099087654
 20
11.8945022378
 30
0.0
  0
SPLINE
  5
2B0
100
AcDbEntity
  8
LAYER_FEATURE
100
AcDbSpline
 62
7
  6
CONTINUOUS
 70
0
 71
3
 72
81
 73
77
 74
0
 42
0.0000001
 43
0.0000001
 44
0.0000000001
 40
0.0
 40
0.0
 40
0.0
 40
0.0
 40
0.0187456376
 40
0.0379279856
 40
0.0575138202
 40
0.0774683353
 40
0.0977553508
 40
0.118337472
 40
0.1391762507
 40
0.1602323413
 40
0.1814656498
 40
0.2028354797
 40
0.2243006742
 40
0.2458197573
 40
0.2673510735
 40
0.2888529269
 40
0.3102837194
 40
0.3316020898
 40
0.3527670541
 40
0.3737381473
 40
0.3944755673
 40
0.4149403216
 40
0.4350943783
 40
0.4549008231
 40
0.4743240245
 40
0.4933298056
 40
0.5118856274
 40
0.5299607875
 40
0.5475266363
 40
0.5645568192
 40
0.5810275461
 40
0.5969178958
 40
0.6122101695
 40
0.6268903017
 40
0.6409483462
 40
0.6543790523
 40
0.6671825439
 40
0.6793651283
 40
0.6909402452
 40
0.6965072603
 40
0.7019313119
 40
0.7123659225
 40
0.7173889708
 40
0.7222900001
 40
0.7317524059
 40
0.7363330913
 40
0.7408248997
 40
0.745238098
 40
0.7495836993
 40
0.7538733895
 40
0.7581194501
 40
0.7623346428
 40
0.7665320821
 40
0.7707250902
 40
0.7749270415
 40
0.7791512045
 40
0.7834105908
 40
0.7877178138
 40
0.792084963
 40
0.7965235093
 40
0.8010442155
 40
0.8103684873
 40
0.8201315274
 40
0.8303910834
 40
0.841192747
 40
0.8525710209
 40
0.8645505561
 40
0.8771473884
 40
0.8903700747
 40
0.9042206906
 40
0.9186956838
 40
0.9337865957
 40
0.949480663
 40
0.9657613628
 40
0.9826087187
 40
1.0
 40
1.0
 40
1.0
 40
1.0
 10
15.5574801785
 20
13.2175588271
 30
0.0
 10
15.5530422493
 20
13.2004433402
 30
0.0
 10
15.5445032971
 20
13.1656980421
 30
0.0
 10
15.5328205645
 20
13.1127172641
 30
0.0
 10
15.5221352274
 20
13.0583637407
 30
0.0
 10
15.5124718347
 20
13.0027617368
 30
0.0
 10
15.5038524534
 20
12.9460378408
 30
0.0
 10
15.4962968109
 20
12.8883213814
 30
0.0
 10
15.489822185
 20
12.8297439344
 30
0.0
 10
15.4844433872
 20
12.7704390698
 30
0.0
 10
15.4801727231
 20
12.7105420277
 30
0.0
 10
15.4770199654
 20
12.650189411
 30
0.0
 10
15.4749923315
 20
12.5895188702
 30
0.0
 10
15.4740944596
 20
12.5286687879
 30
0.0
 10
15.4743284013
 20
12.4677779593
 30
0.0
 10
15.4756936205
 20
12.4069852729
 30
0.0
 10
15.478186994
 20
12.3464293917
 30
0.0
 10
15.4818028195
 20
12.2862484345
 30
0.0
 10
15.4865328255
 20
12.2265796583
 30
0.0
 10
15.4923661861
 20
12.1675591405
 30
0.0
 10
15.4992895542
 20
12.1093214667
 30
0.0
 10
15.5072870914
 20
12.0519994211
 30
0.0
 10
15.5163405053
 20
11.9957236799
 30
0.0
 10
15.5264290937
 20
11.9406225077
 30
0.0
 10
15.5375297848
 20
11.8868214575
 30
0.0
 10
15.5496172009
 20
11.8344430786
 30
0.0
 10
15.5626637215
 20
11.7836066327
 30
0.0
 10
15.5766395519
 20
11.7344278137
 30
0.0
 10
15.5915128025
 20
11.6870184741
 30
0.0
 10
15.607249567
 20
11.6414863544
 30
0.0
 10
15.6238140186
 20
11.5979348253
 30
0.0
 10
15.6411685228
 20
11.5564626443
 30
0.0
 10
15.659273758
 20
11.5171637173
 30
0.0
 10
15.6780888464
 20
11.4801268879
 30
0.0
 10
15.6975715405
 20
11.445435696
 30
0.0
 10
15.717678297
 20
11.4131683298
 30
0.0
 10
15.7383648469
 20
11.3833970535
 30
0.0
 10
15.7595852122
 20
11.3561897156
 30
0.0
 10
15.7779081455
 20
11.3354409197
 30
0.0
 10
15.7928019335
 20
11.3202286723
 30
0.0
 10
15.8074489082
 20
11.3063000429
 30
0.0
 10
15.822473119
 20
11.2935257402
 30
0.0
 10
15.8378642236
 20
11.2820332395
 30
0.0
 10
15.8529846764
 20
11.2717424183
 30
0.0
 10
15.8684360242
 20
11.2627018567
 30
0.0
 10
15.8841608648
 20
11.2550469441
 30
0.0
 10
15.8958798292
 20
11.2500842235
 30
0.0
 10
15.9076430567
 20
11.2458421975
 30
0.0
 10
15.9194440722
 20
11.2423233407
 30
0.0
 10
15.9312759086
 20
11.239530117
 30
0.0
 10
15.943131576
 20
11.2374643599
 30
0.0
 10
15.9550039873
 20
11.2361275121
 30
0.0
 10
15.9668859876
 20
11.235520543
 30
0.0
 10
15.978770376
 20
11.2356438169
 30
0.0
 10
15.9906499408
 20
11.2364973238
 30
0.0
 10
16.0025174977
 20
11.2380803982
 30
0.0
 10
16.0143659058
 20
11.2403919597
 30
0.0
 10
16.0261881176
 20
11.2434304446
 30
0.0
 10
16.037977115
 20
11.2471937095
 30
0.0
 10
16.0497262733
 20
11.2516795104
 30
0.0
 10
16.0654898902
 20
11.2586909991
 30
0.0
 10
16.0850996573
 20
11.2693270409
 30
0.0
 10
16.1081015791
 20
11.2847917141
 30
0.0
 10
16.1307711434
 20
11.3030487801
 30
0.0
 10
16.1530593545
 20
11.3240526146
 30
0.0
 10
16.1749204774
 20
11.3477542599
 30
0.0
 10
16.1963081802
 20
11.3740994985
 30
0.0
 10
16.2171766236
 20
11.4030288656
 30
0.0
 10
16.2374803455
 20
11.4344773141
 30
0.0
 10
16.2571745903
 20
11.4683741721
 30
0.0
 10
16.2762155195
 20
11.5046431625
 30
0.0
 10
16.2945604408
 20
11.5432025176
 30
0.0
 10
16.3121680077
 20
11.5839651094
 30
0.0
 10
16.3289983627
 20
11.6268387511
 30
0.0
 10
16.3450132269
 20
11.6717258798
 30
0.0
 10
16.3549689725
 20
11.7024534008
 30
0.0
 10
16.3598122156
 20
11.7181261414
 30
0.0
  0
SPLINE
  5
2B1
100
AcDbEntity
  8
LAYER_FEATURE
100
AcDbSpline
 62
7
  6
CONTINUOUS
 70
0
 71
3
 72
58
 73
54
 74
0
 42
0.0000001
 43
0.0000001
 44
0.0000000001
 40
0.0
 40
0.0
 40
0.0
 40
0.0
 40
0.0163583066
 40
0.0330514671
 40
0.0500648586
 40
0.067383511
 40
0.0849915537
 40
0.1028725912
 40
0.1393839942
 40
0.1767770749
 40
0.2149030244
 40
0.2536074776
 40
0.2927317876
 40
0.3321142519
 40
0.371591309
 40
0.4109987213
 40
0.4501727498
 40
0.488951332
 40
0.527175277
 40
0.5646894896
 40
0.601344234
 40
0.6193049133
 40
0.6369977095
 40
0.6544060242
 40
0.6715138628
 40
0.6883058869
 40
0.7047674701
 40
0.7208847584
 40
0.7366447351
 40
0.7520352918
 40
0.7670453063
 40
0.7816647284
 40
0.7958846768
 40
0.809697545
 40
0.823097122
 40
0.8360787281
 40
0.8486393693
 40
0.8607779126
 40
0.8724952844
 40
0.8837946958
 40
0.8946818959
 40
0.9051654519
 40
0.9152570557
 40
0.9249718508
 40
0.9343287667
 40
0.9433508417
 40
0.9520655027
 40
0.9605047595
 40
0.9687052614
 40
0.976708157
 40
0.9845587032
 40
0.9923055923
 40
1.0
 40
1.0
 40
1.0
 40
1.0
 10
15.5747516455
 20
13.3437623504
 30
0.0
 10
15.5709244922
 20
13.3313776779
 30
0.0
 10
15.5634480303
 20
13.3062749464
 30
0.0
 10
15.5528646652
 20
13.2680382839
 30
0.0
 10
15.5428087319
 20
13.2288733184
 30
0.0
 10
15.5332926378
 20
13.188828362
 30
0.0
 10
15.524327975
 20
13.1479522023
 30
0.0
 10
15.5130471944
 20
13.0920221566
 30
0.0
 10
15.5004304998
 20
13.0203789954
 30
0.0
 10
15.4877515998
 20
12.9325014127
 30
0.0
 10
15.4774931319
 20
12.8425594227
 30
0.0
 10
15.469705635
 20
12.7509937305
 30
0.0
 10
15.4644274852
 20
12.6582522204
 30
0.0
 10
15.4616847024
 20
12.5647888929
 30
0.0
 10
15.4614908031
 20
12.471061275
 30
0.0
 10
15.4638467375
 20
12.3775282328
 30
0.0
 10
15.4687408938
 20
12.28464764
 30
0.0
 10
15.476149157
 20
12.1928741906
 30
0.0
 10
15.4860350208
 20
12.1026568099
 30
0.0
 10
15.4983497708
 20
12.0144375628
 30
0.0
 10
15.510667408
 20
11.9424658859
 30
0.0
 10
15.5217138654
 20
11.8862405839
 30
0.0
 10
15.5305086707
 20
11.8451216807
 30
0.0
 10
15.5398583282
 20
11.8048188226
 30
0.0
 10
15.5497514339
 20
11.7653812677
 30
0.0
 10
15.5601758305
 20
11.7268573393
 30
0.0
 10
15.5711187356
 20
11.6892941963
 30
0.0
 10
15.5825667296
 20
11.6527378181
 30
0.0
 10
15.5945057812
 20
11.6172329359
 30
0.0
 10
15.6069212649
 20
11.5828229794
 30
0.0
 10
15.619797982
 20
11.5495500208
 30
0.0
 10
15.6331201827
 20
11.5174547219
 30
0.0
 10
15.6468715875
 20
11.4865762812
 30
0.0
 10
15.6610354156
 20
11.456952386
 30
0.0
 10
15.6755944117
 20
11.4286191666
 30
0.0
 10
15.6905308762
 20
11.401611153
 30
0.0
 10
15.7058266973
 20
11.3759612351
 30
0.0
 10
15.7214633857
 20
11.3517006276
 30
0.0
 10
15.7374221126
 20
11.328858841
 30
0.0
 10
15.7536837495
 20
11.3074636599
 30
0.0
 10
15.7702289061
 20
11.2875411294
 30
0.0
 10
15.7870379708
 20
11.2691155571
 30
0.0
 10
15.8040911439
 20
11.252209531
 30
0.0
 10
15.8213684586
 20
11.2368439519
 30
0.0
 10
15.8388497792
 20
11.2230380817
 30
0.0
 10
15.8565147662
 20
11.2108096001
 30
0.0
 10
15.8743428025
 20
11.2001746557
 30
0.0
 10
15.8923128452
 20
11.1911478893
 30
0.0
 10
15.9104033197
 20
11.1837423897
 30
0.0
 10
15.9285916919
 20
11.1779695541
 30
0.0
 10
15.9468552024
 20
11.1738388355
 30
0.0
 10
15.9651676617
 20
11.1713574023
 30
0.0
 10
15.9774105997
 20
11.1708049954
 30
0.0
 10
15.9835077467
 20
11.1708050005
 30
0.0
  0
SPLINE
  5
2B2
100
AcDbEntity
  8
02___PRT_ALL_AXES
100
AcDbSpline
 62
7
  6
CONTINUOUS
 70
0
 71
3
 72
53
 73
49
 74
0
 42
0.0000001
 43
0.0000001
 44
0.0000000001
 40
0.0
 40
0.0
 40
0.0
 40
0.0
 40
0.0095462752
 40
0.0194699154
 40
0.0297827023
 40
0.040493272
 40
0.0516074217
 40
0.0631283947
 40
0.0750571476
 40
0.0873925798
 40
0.1001317308
 40
0.113269951
 40
0.1268010682
 40
0.1407175266
 40
0.1550105064
 40
0.1696700225
 40
0.1846850276
 40
0.2000435026
 40
0.2317368821
 40
0.2646389352
 40
0.2986255169
 40
0.3335629913
 40
0.3693098094
 40
0.4057179357
 40
0.4426341884
 40
0.4799015213
 40
0.5173602543
 40
0.5548492879
 40
0.5922072985
 40
0.629273931
 40
0.6658910096
 40
0.7019037511
 40
0.7371620391
 40
0.7715217225
 40
0.8048460238
 40
0.837007038
 40
0.8526149566
 40
0.867889025
 40
0.8828165416
 40
0.8973857177
 40
0.9115857657
 40
0.9254069882
 40
0.9388408619
 40
0.9518801638
 40
0.9645191038
 40
0.9767533428
 40
0.988580672
 40
1.0
 40
1.0
 40
1.0
 40
1.0
 10
15.6675411212
 20
13.1771125534
 30
0.0
 10
15.670682412
 20
13.1742027182
 30
0.0
 10
15.6769220666
 20
13.1680854572
 30
0.0
 10
15.6859714109
 20
13.1582516285
 30
0.0
 10
15.6948775881
 20
13.147597915
 30
0.0
 10
15.7036292747
 20
13.1361381475
 30
0.0
 10
15.7122158065
 20
13.1238866451
 30
0.0
 10
15.7206265199
 20
13.1108588589
 30
0.0
 10
15.7288509547
 20
13.0970711685
 30
0.0
 10
15.7368788257
 20
13.0825409242
 30
0.0
 10
15.7447000608
 20
13.0672864225
 30
0.0
 10
15.7523048336
 20
13.0513268989
 30
0.0
 10
15.7596835627
 20
13.0346824891
 30
0.0
 10
15.7668269318
 20
13.0173742051
 30
0.0
 10
15.7737259084
 20
12.9994239049
 30
0.0
 10
15.7803717503
 20
12.9808542987
 30
0.0
 10
15.786756112
 20
12.9616888155
 30
0.0
 10
15.7949951218
 20
12.9350943937
 30
0.0
 10
15.8045576005
 20
12.9005195876
 30
0.0
 10
15.8147522362
 20
12.8574830933
 30
0.0
 10
15.8237317174
 20
12.812692123
 30
0.0
 10
15.8314503213
 20
12.7663734595
 30
0.0
 10
15.837868738
 20
12.7187610707
 30
0.0
 10
15.8429542466
 20
12.670095842
 30
0.0
 10
15.8466809376
 20
12.6206240477
 30
0.0
 10
15.8490297856
 20
12.5705961418
 30
0.0
 10
15.8499888421
 20
12.5202654445
 30
0.0
 10
15.849553182
 20
12.4698868369
 30
0.0
 10
15.8477250642
 20
12.4197154475
 30
0.0
 10
15.8445137732
 20
12.370005336
 30
0.0
 10
15.8399357211
 20
12.321008186
 30
0.0
 10
15.8340142142
 20
12.272971988
 30
0.0
 10
15.8267794661
 20
12.2261398168
 30
0.0
 10
15.818268308
 20
12.1807483161
 30
0.0
 10
15.8085241132
 20
12.1370273573
 30
0.0
 10
15.7993282239
 20
12.1018252605
 30
0.0
 10
15.7913728314
 20
12.0746881382
 30
0.0
 10
15.7851901797
 20
12.0550911869
 30
0.0
 10
15.7787399374
 20
12.0360719753
 30
0.0
 10
15.7720302076
 20
12.0176545105
 30
0.0
 10
15.7650695053
 20
11.9998620978
 30
0.0
 10
15.7578666364
 20
11.9827172187
 30
0.0
 10
15.7504307064
 20
11.9662415305
 30
0.0
 10
15.7427710866
 20
11.9504558212
 30
0.0
 10
15.7348974394
 20
11.9353800656
 30
0.0
 10
15.7268196044
 20
11.9210330729
 30
0.0
 10
15.7185478821
 20
11.9074333241
 30
0.0
 10
15.7128102167
 20
11.8987232746
 30
0.0
 10
15.7099087654
 20
11.8945022378
 30
0.0
  0
SPLINE
  5
2B3
100
AcDbEntity
  8
LAYER_FEATURE
100
AcDbSpline
 62
7
  6
CONTINUOUS
 70
0
 71
3
 72
52
 73
48
 74
0
 42
0.0000001
 43
0.0000001
 44
0.0000000001
 40
0.0
 40
0.0
 40
0.0
 40
0.0
 40
0.0079087583
 40
0.016027432
 40
0.0243883334
 40
0.0330200544
 40
0.0419474701
 40
0.0511918536
 40
0.0607710608
 40
0.0706997665
 40
0.0809897165
 40
0.09164998
 40
0.1026871917
 40
0.1141057736
 40
0.1259081476
 40
0.1380949243
 40
0.1506650709
 40
0.1636160586
 40
0.1769439919
 40
0.190643731
 40
0.204708998
 40
0.2191324691
 40
0.2339058565
 40
0.2490199802
 40
0.2644648404
 40
0.2802296795
 40
0.2963030375
 40
0.3126728013
 40
0.346248947
 40
0.3808511685
 40
0.4163635648
 40
0.4526637272
 40
0.4896238343
 40
0.5271116449
 40
0.5649914704
 40
0.6031251002
 40
0.6413727076
 40
0.6795937462
 40
0.7176478369
 40
0.7553956589
 40
0.7926998447
 40
0.8294259013
 40
0.8654431385
 40
0.9006256617
 40
0.9348533853
 40
0.9680131181
 40
1.0
 40
1.0
 40
1.0
 40
1.0
 10
15.9131258663
 20
11.4187653513
 30
0.0
 10
15.9084051135
 20
11.4204100519
 30
0.0
 10
15.8989644652
 20
11.424116345
 30
0.0
 10
15.8850544189
 20
11.4307895432
 30
0.0
 10
15.871241705
 20
11.4386338901
 30
0.0
 10
15.8575420037
 20
11.4476394602
 30
0.0
 10
15.8439692359
 20
11.457795821
 30
0.0
 10
15.8305375428
 20
11.4690913986
 30
0.0
 10
15.8172607903
 20
11.4815136161
 30
0.0
 10
15.8041527577
 20
11.4950488326
 30
0.0
 10
15.7912271024
 20
11.5096823322
 30
0.0
 10
15.7784973653
 20
11.5253982986
 30
0.0
 10
15.7659769534
 20
11.5421798003
 30
0.0
 10
15.7536791068
 20
11.5600087747
 30
0.0
 10
15.7416168895
 20
11.578866045
 30
0.0
 10
15.7298031642
 20
11.5987313308
 30
0.0
 10
15.7182505702
 20
11.6195832623
 30
0.0
 10
15.706971502
 20
11.6413993937
 30
0.0
 10
15.6959780769
 20
11.6641562186
 30
0.0
 10
15.6852821303
 20
11.6878292033
 30
0.0
 10
15.6748951952
 20
11.7123928147
 30
0.0
 10
15.6648284872
 20
11.7378205469
 30
0.0
 10
15.6550928863
 20
11.7640849464
 30
0.0
 10
15.6456989161
 20
11.791157637
 30
0.0
 10
15.6366567352
 20
11.8190093664
 30
0.0
 10
15.6279761496
 20
11.8476100081
 30
0.0
 10
15.619666497
 20
11.8769287165
 30
0.0
 10
15.6090038948
 20
11.9172755856
 30
0.0
 10
15.596693277
 20
11.969291668
 30
0.0
 10
15.5836559182
 20
12.0335344188
 30
0.0
 10
15.5722885414
 20
12.0998408812
 30
0.0
 10
15.562640556
 20
12.1679241202
 30
0.0
 10
15.5547539386
 20
12.237490137
 30
0.0
 10
15.5486629799
 20
12.3082381804
 30
0.0
 10
15.5443941795
 20
12.3798623585
 30
0.0
 10
15.5419661274
 20
12.4520529125
 30
0.0
 10
15.5413893621
 20
12.5244975988
 30
0.0
 10
15.5426664221
 20
12.596883057
 30
0.0
 10
15.5457917291
 20
12.668896188
 30
0.0
 10
15.5507516904
 20
12.7402255259
 30
0.0
 10
15.5575247366
 20
12.8105626123
 30
0.0
 10
15.5660813761
 20
12.8796033441
 30
0.0
 10
15.5763844297
 20
12.9470493556
 30
0.0
 10
15.5883890451
 20
13.0126091932
 30
0.0
 10
15.6020431571
 20
13.0760001434
 30
0.0
 10
15.6172871413
 20
13.1369476375
 30
0.0
 10
15.6286827608
 20
13.1765294842
 30
0.0
 10
15.6346522549
 20
13.1958467741
 30
0.0
  0
SPLINE
  5
2B4
100
AcDbEntity
  8
LAYER_CHAMFER_FEAT
100
AcDbSpline
 62
7
  6
CONTINUOUS
 70
0
 71
3
 72
39
 73
35
 74
0
 42
0.0000001
 43
0.0000001
 44
0.0000000001
 40
0.0
 40
0.0
 40
0.0
 40
0.0
 40
0.0439505114
 40
0.0865559051
 40
0.1278044838
 40
0.1676923365
 40
0.2062207622
 40
0.2433985105
 40
0.2792420463
 40
0.3137765156
 40
0.347036667
 40
0.3790678456
 40
0.4099270395
 40
0.4396839048
 40
0.4684216915
 40
0.49623793
 40
0.523244755
 40
0.5495686819
 40
0.5753496656
 40
0.6007393139
 40
0.6258982158
 40
0.6509925013
 40
0.6761898869
 40
0.7016555666
 40
0.7275483438
 40
0.754017349
 40
0.781199574
 40
0.809218285
 40
0.8381822589
 40
0.8681856992
 40
0.8993086511
 40
0.9316177704
 40
0.9651672795
 40
1.0
 40
1.0
 40
1.0
 40
1.0
 10
16.2358844836
 20
13.3314704852
 30
0.0
 10
16.2322535628
 20
13.3388695238
 30
0.0
 10
16.2249008721
 20
13.3533432691
 30
0.0
 10
16.2134117726
 20
13.3743809556
 30
0.0
 10
16.2016458295
 20
13.3943866855
 30
0.0
 10
16.1896171762
 20
13.4133363918
 30
0.0
 10
16.1773398432
 20
13.4312076937
 30
0.0
 10
16.1648282639
 20
13.4479793235
 30
0.0
 10
16.1520970131
 20
13.4636313656
 30
0.0
 10
16.139160859
 20
13.4781451911
 30
0.0
 10
16.1260347122
 20
13.4915034585
 30
0.0
 10
16.1127336118
 20
13.5036900897
 30
0.0
 10
16.0992727213
 20
13.5146902389
 30
0.0
 10
16.0856673458
 20
13.5244902559
 30
0.0
 10
16.0719329862
 20
13.5330776596
 30
0.0
 10
16.0580854102
 20
13.5404410997
 30
0.0
 10
16.0441407713
 20
13.546570369
 30
0.0
 10
16.0301157427
 20
13.5514564788
 30
0.0
 10
16.0160276332
 20
13.5550918112
 30
0.0
 10
16.0018944448
 20
13.5574703719
 30
0.0
 10
15.9877348054
 20
13.5585880497
 30
0.0
 10
15.9735677738
 20
13.55844285
 30
0.0
 10
15.9594125392
 20
13.5570350324
 30
0.0
 10
15.9452880864
 20
13.5543670899
 30
0.0
 10
15.9312129126
 20
13.5504435946
 30
0.0
 10
15.9172048581
 20
13.5452709485
 30
0.0
 10
15.9032810789
 20
13.5388570971
 30
0.0
 10
15.8894581169
 20
13.5312113163
 30
0.0
 10
15.8757520276
 20
13.5223440785
 30
0.0
 10
15.862178506
 20
13.5122669857
 30
0.0
 10
15.8487530159
 20
13.500992819
 30
0.0
 10
15.8354907498
 20
13.4885354063
 30
0.0
 10
15.8224071517
 20
13.4749102348
 30
0.0
 10
15.81397398
 20
13.4652427031
 30
0.0
 10
15.8097882275
 20
13.4602279562
 30
0.0
  0
SPLINE
  5
2B5
100
AcDbEntity
  8
LAYER_CHAMFER_FEAT
100
AcDbSpline
 62
7
  6
CONTINUOUS
 70
0
 71
3
 72
26
 73
22
 74
0
 42
0.0000001
 43
0.0000001
 44
0.0000000001
 40
0.0
 40
0.0
 40
0.0
 40
0.0
 40
0.083512342
 40
0.1639107454
 40
0.2411706187
 40
0.3152881385
 40
0.3862822553
 40
0.4541980971
 40
0.5191103211
 40
0.5811270572
 40
0.6403940767
 40
0.6970990368
 40
0.7514753368
 40
0.803804924
 40
0.8544191333
 40
0.8792073509
 40
0.9037123623
 40
0.9279878313
 40
0.9520893424
 40
0.9760740152
 40
1.0
 40
1.0
 40
1.0
 40
1.0
 10
16.2114588099
 20
13.3150206201
 30
0.0
 10
16.2071618667
 20
13.3237768697
 30
0.0
 10
16.1984405141
 20
13.3408239071
 30
0.0
 10
16.1846992369
 20
13.3654194671
 30
0.0
 10
16.1705680027
 20
13.3885173678
 30
0.0
 10
16.156071285
 20
13.4100771013
 30
0.0
 10
16.1412337477
 20
13.4300613395
 30
0.0
 10
16.126080497
 20
13.4484353315
 30
0.0
 10
16.1106368854
 20
13.4651670457
 30
0.0
 10
16.0949284915
 20
13.4802270602
 30
0.0
 10
16.0789810301
 20
13.4935884676
 30
0.0
 10
16.0628205827
 20
13.5052266783
 30
0.0
 10
16.0464731548
 20
13.5151193776
 30
0.0
 10
16.0299671695
 20
13.5232459858
 30
0.0
 10
16.0160034708
 20
13.5285687859
 30
0.0
 10
16.0048159387
 20
13.5318994373
 30
0.0
 10
15.9964631933
 20
13.5339311933
 30
0.0
 10
15.9880952724
 20
13.535512484
 30
0.0
 10
15.9797156854
 20
13.5366425472
 30
0.0
 10
15.9713286474
 20
13.5373208491
 30
0.0
 10
15.9657317986
 20
13.5374716489
 30
0.0
 10
15.9629373845
 20
13.5374716509
 30
0.0
  0
SPLINE
  5
2B6
100
AcDbEntity
  8
02___PRT_ALL_AXES
100
AcDbSpline
 62
7
  6
CONTINUOUS
 70
0
 71
3
 72
52
 73
48
 74
0
 42
0.0000001
 43
0.0000001
 44
0.0000000001
 40
0.0
 40
0.0
 40
0.0
 40
0.0
 40
0.0079087583
 40
0.016027432
 40
0.0243883334
 40
0.0330200544
 40
0.0419474701
 40
0.0511918536
 40
0.0607710608
 40
0.0706997665
 40
0.0809897165
 40
0.09164998
 40
0.1026871917
 40
0.1141057736
 40
0.1259081476
 40
0.1380949243
 40
0.1506650709
 40
0.1636160586
 40
0.1769439919
 40
0.190643731
 40
0.204708998
 40
0.2191324691
 40
0.2339058565
 40
0.2490199802
 40
0.2644648404
 40
0.2802296795
 40
0.2963030375
 40
0.3126728013
 40
0.346248947
 40
0.3808511685
 40
0.4163635648
 40
0.4526637272
 40
0.4896238343
 40
0.5271116449
 40
0.5649914704
 40
0.6031251002
 40
0.6413727076
 40
0.6795937462
 40
0.7176478369
 40
0.7553956589
 40
0.7926998447
 40
0.8294259013
 40
0.8654431385
 40
0.9006256617
 40
0.9348533853
 40
0.9680131181
 40
1.0
 40
1.0
 40
1.0
 40
1.0
 10
15.924376507
 20
11.4148456564
 30
0.0
 10
15.9196388099
 20
11.4164962604
 30
0.0
 10
15.910164276
 20
11.4202158566
 30
0.0
 10
15.8962043019
 20
11.4269130071
 30
0.0
 10
15.8823420095
 20
11.43478551
 30
0.0
 10
15.8685931355
 20
11.4438234041
 30
0.0
 10
15.8549716504
 20
11.4540162194
 30
0.0
 10
15.8414917465
 20
11.4653523407
 30
0.0
 10
15.8281673393
 20
11.4778191456
 30
0.0
 10
15.8150122576
 20
11.4914029446
 30
0.0
 10
15.8020402078
 20
11.5060889687
 30
0.0
 10
15.7892647794
 20
11.521861345
 30
0.0
 10
15.7766994276
 20
11.5387030811
 30
0.0
 10
15.7643574399
 20
11.5565960496
 30
0.0
 10
15.7522519273
 20
11.5755210049
 30
0.0
 10
15.7403957986
 20
11.5954575939
 30
0.0
 10
15.7288017385
 20
11.6163843699
 30
0.0
 10
15.7174821859
 20
11.6382788067
 30
0.0
 10
15.7064493017
 20
11.6611173135
 30
0.0
 10
15.6957149639
 20
11.6848752685
 30
0.0
 10
15.6852907466
 20
11.7095270468
 30
0.0
 10
15.6751879057
 20
11.7350460476
 30
0.0
 10
15.6654173606
 20
11.7614047188
 30
0.0
 10
15.6559896723
 20
11.7885745824
 30
0.0
 10
15.646915036
 20
11.8165262809
 30
0.0
 10
15.6382032928
 20
11.8452295799
 30
0.0
 10
15.6298638141
 20
11.8746535229
 30
0.0
 10
15.6191629403
 20
11.9151452103
 30
0.0
 10
15.6068081356
 20
11.9673479958
 30
0.0
 10
15.5937239813
 20
12.0318213353
 30
0.0
 10
15.5823158032
 20
12.0983657937
 30
0.0
 10
15.572633188
 20
12.1666934063
 30
0.0
 10
15.5647182629
 20
12.2365091187
 30
0.0
 10
15.5586054416
 20
12.3075111005
 30
0.0
 10
15.5543213192
 20
12.3793923617
 30
0.0
 10
15.5518845519
 20
12.4518420317
 30
0.0
 10
15.5513057165
 20
12.5245467461
 30
0.0
 10
15.5525873602
 20
12.5971920199
 30
0.0
 10
15.555723885
 20
12.6694636301
 30
0.0
 10
15.5607016493
 20
12.7410489928
 30
0.0
 10
15.5674990062
 20
12.8116385425
 30
0.0
 10
15.5760863583
 20
12.8809270845
 30
0.0
 10
15.586426393
 20
12.9486151822
 30
0.0
 10
15.598474097
 20
13.0144103361
 30
0.0
 10
15.6121772182
 20
13.0780288175
 30
0.0
 10
15.6274759181
 20
13.1391950725
 30
0.0
 10
15.6389124403
 20
13.1789189917
 30
0.0
 10
15.6449033609
 20
13.1983056178
 30
0.0
  0
LINE
  5
2B7
100
AcDbEntity
  8
LAYER_FEATURE
100
AcDbLine
 62
7
  6
CONTINUOUS
 10
14.6107883594
 20
13.0709263922
 11
14.6137235297
 21
13.0752280454
  0
SPLINE
  5
2B8
100
AcDbEntity
  8
LAYER_FEATURE
100
AcDbSpline
 62
7
  6
CONTINUOUS
 70
0
 71
3
 72
16
 73
12
 74
0
 42
0.0000001
 43
0.0000001
 44
0.0000000001
 40
0.0
 40
0.0
 40
0.0
 40
0.0
 40
0.0399345184
 40
0.0808032845
 40
0.1684425327
 40
0.2683862488
 40
0.3835101304
 40
0.5148592007
 40
0.6622184182
 40
0.8244964046
 40
1.0
 40
1.0
 40
1.0
 40
1.0
 10
14.5816806907
 20
13.070962313
 30
0.0
 10
14.5815732818
 20
13.0709623125
 30
0.0
 10
14.581355521
 20
13.0709438001
 30
0.0
 10
14.5809148525
 20
13.0708312344
 30
0.0
 10
14.5803640696
 20
13.0705392076
 30
0.0
 10
14.5797543974
 20
13.0699912873
 30
0.0
 10
14.5791821835
 20
13.0692510979
 30
0.0
 10
14.578653988
 20
13.0683300181
 30
0.0
 10
14.5781768246
 20
13.0672421459
 30
0.0
 10
14.5777583109
 20
13.0660048366
 30
0.0
 10
14.5775309591
 20
13.065124383
 30
0.0
 10
14.5774271697
 20
13.0646638955
 30
0.0
  0
SPLINE
  5
2B9
100
AcDbEntity
  8
LAYER_FEATURE
100
AcDbSpline
 62
7
  6
CONTINUOUS
 70
0
 71
3
 72
15
 73
11
 74
0
 42
0.0000001
 43
0.0000001
 44
0.0000000001
 40
0.0
 40
0.0
 40
0.0
 40
0.0
 40
0.0858518027
 40
0.1774223665
 40
0.2792241801
 40
0.39414084
 40
0.5236356815
 40
0.6681080548
 40
0.82720401
 40
1.0
 40
1.0
 40
1.0
 40
1.0
 10
14.6172799608
 20
13.2249089403
 30
0.0
 10
14.6170941378
 20
13.224908938
 30
0.0
 10
14.6167081778
 20
13.2248511814
 30
0.0
 10
14.6161519186
 20
13.2245997879
 30
0.0
 10
14.6156172341
 20
13.2241930892
 30
0.0
 10
14.615108076
 20
13.2236392062
 30
0.0
 10
14.6146280187
 20
13.222945249
 30
0.0
 10
14.6141817328
 20
13.2221192357
 30
0.0
 10
14.6137742255
 20
13.2211709096
 30
0.0
 10
14.6135406466
 20
13.2204908666
 30
0.0
 10
14.613430221
 20
13.2201335292
 30
0.0
  0
SPLINE
  5
2BA
100
AcDbEntity
  8
LAYER_CHAMFER_FEAT
100
AcDbSpline
 62
7
  6
CONTINUOUS
 70
0
 71
3
 72
79
 73
75
 74
0
 42
0.0000001
 43
0.0000001
 44
0.0000000001
 40
0.0
 40
0.0
 40
0.0
 40
0.0
 40
0.0113884859
 40
0.0222283963
 40
0.0325469932
 40
0.0375227434
 40
0.042382579
 40
0.0517771425
 40
0.0607895049
 40
0.0651745241
 40
0.0694902341
 40
0.0737466699
 40
0.077954423
 40
0.0821245518
 40
0.0862684983
 40
0.0903979746
 40
0.0945248464
 40
0.0986610074
 40
0.1028182523
 40
0.1070081545
 40
0.1112419542
 40
0.1155304552
 40
0.1198839476
 40
0.1288213211
 40
0.1381270301
 40
0.1478601942
 40
0.1580692248
 40
0.1687924431
 40
0.1800589872
 40
0.1918898184
 40
0.2042987087
 40
0.2172931463
 40
0.2308751347
 40
0.2450418832
 40
0.2597863946
 40
0.2750979649
 40
0.2909626075
 40
0.3073634149
 40
0.3242808698
 40
0.3416931153
 40
0.3595761909
 40
0.3779042437
 40
0.3966497165
 40
0.41578352
 40
0.435275191
 40
0.4550930401
 40
0.4752042901
 40
0.495575208
 40
0.5161712321
 40
0.5369570934
 40
0.557896935
 40
0.5789544283
 40
0.6000928871
 40
0.6212753809
 40
0.6424648464
 40
0.6636241997
 40
0.6847164471
 40
0.7057047973
 40
0.7265527741
 40
0.7472243295
 40
0.7676839597
 40
0.7878968232
 40
0.8078288609
 40
0.8274469213
 40
0.8467188902
 40
0.8656138267
 40
0.8841021072
 40
0.9021555792
 40
0.9197477275
 40
0.9368538585
 40
0.9534512923
 40
0.9695196212
 40
0.9850408726
 40
1.0
 40
1.0
 40
1.0
 40
1.0
 10
15.8097882288
 20
11.5613820367
 30
0.0
 10
15.8152509392
 20
11.5548374347
 30
0.0
 10
15.8262795521
 20
11.5423620027
 30
0.0
 10
15.8435658275
 20
11.5251697354
 30
0.0
 10
15.85839425
 20
11.5123786253
 30
0.0
 10
15.8703855923
 20
11.5032177472
 30
0.0
 10
15.8821762313
 20
11.4949541596
 30
0.0
 10
15.8970672457
 20
11.4858750161
 30
0.0
 10
15.912430525
 20
11.4783876474
 30
0.0
 10
15.9247653888
 20
11.4735098483
 30
0.0
 10
15.9339641429
 20
11.4704200112
 30
0.0
 10
15.9431887669
 20
11.4678679035
 30
0.0
 10
15.952434546
 20
11.4658548373
 30
0.0
 10
15.9616965104
 20
11.464382155
 30
0.0
 10
15.9709696662
 20
11.4634506772
 30
0.0
 10
15.9802489865
 20
11.4630610534
 30
0.0
 10
15.9895294132
 20
11.4632134783
 30
0.0
 10
15.9988058889
 20
11.4639078865
 30
0.0
 10
16.0080733643
 20
11.4651438319
 30
0.0
 10
16.0173268466
 20
11.4669205455
 30
0.0
 10
16.026561306
 20
11.469236936
 30
0.0
 10
16.0357720654
 20
11.4720916976
 30
0.0
 10
16.0481209924
 20
11.4766525725
 30
0.0
 10
16.063510773
 20
11.4837453954
 30
0.0
 10
16.0816288009
 20
11.4943036174
 30
0.0
 10
16.0995270232
 20
11.5069571547
 30
0.0
 10
16.1171699106
 20
11.5216763152
 30
0.0
 10
16.1345246613
 20
11.538429168
 30
0.0
 10
16.1515581464
 20
11.557180468
 30
0.0
 10
16.1682375952
 20
11.5778915838
 30
0.0
 10
16.1845304193
 20
11.6005202257
 30
0.0
 10
16.2004043979
 20
11.6250203495
 30
0.0
 10
16.2158278047
 20
11.6513421185
 30
0.0
 10
16.2307695574
 20
11.6794319323
 30
0.0
 10
16.2451993495
 20
11.7092324977
 30
0.0
 10
16.2590877691
 20
11.7406829288
 30
0.0
 10
16.2724064035
 20
11.7737188676
 30
0.0
 10
16.2851279305
 20
11.8082726185
 30
0.0
 10
16.297226199
 20
11.8442732932
 30
0.0
 10
16.3086763017
 20
11.8816469639
 30
0.0
 10
16.3194546387
 20
11.9203168227
 30
0.0
 10
16.3295389763
 20
11.9602033465
 30
0.0
 10
16.3389084995
 20
12.0012244676
 30
0.0
 10
16.3475438597
 20
12.0432957478
 30
0.0
 10
16.3554272185
 20
12.0863305576
 30
0.0
 10
16.3625422868
 20
12.130240259
 30
0.0
 10
16.3688743605
 20
12.1749343911
 30
0.0
 10
16.3744103522
 20
12.2203208606
 30
0.0
 10
16.3791388186
 20
12.2663061338
 30
0.0
 10
16.3830499851
 20
12.3127954322
 30
0.0
 10
16.3861357661
 20
12.3596929299
 30
0.0
 10
16.388389782
 20
12.406901953
 30
0.0
 10
16.389807373
 20
12.4543251805
 30
0.0
 10
16.3903856082
 20
12.5018648467
 30
0.0
 10
16.3901232919
 20
12.5494229441
 30
0.0
 10
16.3890209666
 20
12.5969014267
 30
0.0
 10
16.3870809112
 20
12.644202414
 30
0.0
 10
16.3843071364
 20
12.6912283939
 30
0.0
 10
16.3807053768
 20
12.7378824257
 30
0.0
 10
16.3762830783
 20
12.7840683408
 30
0.0
 10
16.3710493827
 20
12.8296909438
 30
0.0
 10
16.3650151093
 20
12.8746562102
 30
0.0
 10
16.3581927308
 20
12.9188714827
 30
0.0
 10
16.3505963472
 20
12.9622456647
 30
0.0
 10
16.3422416559
 20
13.0046894111
 30
0.0
 10
16.3331459171
 20
13.0461153157
 30
0.0
 10
16.3233279167
 20
13.0864380953
 30
0.0
 10
16.3128079227
 20
13.1255747709
 30
0.0
 10
16.3016076442
 20
13.1634448402
 30
0.0
 10
16.2897501659
 20
13.1999704637
 30
0.0
 10
16.2772599357
 20
13.2350765776
 30
0.0
 10
16.2641625636
 20
13.2686912682
 30
0.0
 10
16.2504852271
 20
13.3007450718
 30
0.0
 10
16.2408175266
 20
13.3214180005
 30
0.0
 10
16.2358844836
 20
13.3314704852
 30
0.0
  0
SPLINE
  5
2BB
100
AcDbEntity
  8
02___PRT_ALL_AXES
100
AcDbSpline
 62
7
  6
CONTINUOUS
 70
0
 71
3
 72
24
 73
20
 74
0
 42
0.0000001
 43
0.0000001
 44
0.0000000001
 40
0.0
 40
0.0
 40
0.0
 40
0.0
 40
0.0836660473
 40
0.1647132339
 40
0.2430320452
 40
0.3185262446
 40
0.391116286
 40
0.4607407349
 40
0.5273589255
 40
0.5909538648
 40
0.6515357247
 40
0.7091459617
 40
0.7638621331
 40
0.815803379
 40
0.8651363847
 40
0.9120813691
 40
0.9569172183
 40
0.9786557981
 40
1.0
 40
1.0
 40
1.0
 40
1.0
 10
15.6449033609
 20
13.1983056178
 30
0.0
 10
15.6491071755
 20
13.2119091668
 30
0.0
 10
15.6577486809
 20
13.238579461
 30
0.0
 10
15.6716501556
 20
13.2775388459
 30
0.0
 10
15.6862599616
 20
13.314749071
 30
0.0
 10
15.7015448201
 20
13.3501253302
 30
0.0
 10
15.7174700763
 20
13.3835874968
 30
0.0
 10
15.7339997817
 20
13.4150598476
 30
0.0
 10
15.7510968215
 20
13.444471317
 30
0.0
 10
15.7687230849
 20
13.4717556175
 30
0.0
 10
15.7868396609
 20
13.4968513426
 30
0.0
 10
15.8054070267
 20
13.5197019808
 30
0.0
 10
15.8243853349
 20
13.540255878
 30
0.0
 10
15.8437343005
 20
13.5584659375
 30
0.0
 10
15.8634142049
 20
13.5742896313
 30
0.0
 10
15.8833823505
 20
13.5876872983
 30
0.0
 10
15.9004055915
 20
13.5968958521
 30
0.0
 10
15.9140890767
 20
13.6029617261
 30
0.0
 10
15.9209463693
 20
13.6055692695
 30
0.0
 10
15.9243765075
 20
13.6067643213
 30
0.0
  0
SPLINE
  5
2BC
100
AcDbEntity
  8
LAYER_FEATURE
100
AcDbSpline
 62
7
  6
CONTINUOUS
 70
0
 71
3
 72
79
 73
75
 74
0
 42
0.0000001
 43
0.0000001
 44
0.0000000001
 40
0.0
 40
0.0
 40
0.0
 40
0.0
 40
0.017311513
 40
0.0340659347
 40
0.0502394981
 40
0.0658114448
 40
0.0807647673
 40
0.0950865818
 40
0.1087687329
 40
0.1218084797
 40
0.1342093207
 40
0.1459819739
 40
0.1571455233
 40
0.1677287087
 40
0.1777713084
 40
0.1873254791
 40
0.1919408919
 40
0.1964599764
 40
0.2008930889
 40
0.2052514102
 40
0.2095468937
 40
0.2137921734
 40
0.2180004612
 40
0.2221854086
 40
0.226360952
 40
0.230541145
 40
0.2347399837
 40
0.238971234
 40
0.2432482716
 40
0.2475839427
 40
0.2519904385
 40
0.256479211
 40
0.2657422617
 40
0.2754513736
 40
0.2856676065
 40
0.2964388871
 40
0.307801189
 40
0.3197799087
 40
0.3323912267
 40
0.3456433549
 40
0.3595376279
 40
0.3740694302
 40
0.3892289734
 40
0.4050019452
 40
0.4213700613
 40
0.4383115292
 40
0.455801443
 40
0.4738121222
 40
0.4923134106
 40
0.5112729447
 40
0.5306563932
 40
0.5504276746
 40
0.5705491581
 40
0.5909818554
 40
0.611685602
 40
0.6326192294
 40
0.6537407303
 40
0.6750074214
 40
0.696376103
 40
0.7178032152
 40
0.7392449927
 40
0.7606576184
 40
0.7819973778
 40
0.8032208131
 40
0.8242848779
 40
0.8451470945
 40
0.8657657151
 40
0.8860998845
 40
0.9061098078
 40
0.9257569249
 40
0.9450040935
 40
0.9638158067
 40
0.9821582794
 40
1.0
 40
1.0
 40
1.0
 40
1.0
 10
15.5818316528
 20
13.3034838444
 30
0.0
 10
15.5868048134
 20
13.319576998
 30
0.0
 10
15.5970344897
 20
13.3511108324
 30
0.0
 10
15.6135192391
 20
13.3971383631
 30
0.0
 10
15.6308623073
 20
13.441035761
 30
0.0
 10
15.649022089
 20
13.4826976647
 30
0.0
 10
15.6679552496
 20
13.5220247121
 30
0.0
 10
15.6876168136
 20
13.55892321
 30
0.0
 10
15.7079603508
 20
13.5933054693
 30
0.0
 10
15.7289382286
 20
13.6250899377
 30
0.0
 10
15.7505018448
 20
13.6542013025
 30
0.0
 10
15.772602004
 20
13.6805705358
 30
0.0
 10
15.7951888705
 20
13.704134628
 30
0.0
 10
15.8182132196
 20
13.72483675
 30
0.0
 10
15.8416228018
 20
13.742623967
 30
0.0
 10
15.8616407352
 20
13.7551215875
 30
0.0
 10
15.8777629291
 20
13.7635472116
 30
0.0
 10
15.8897746494
 20
13.7690394375
 30
0.0
 10
15.901836949
 20
13.7737728789
 30
0.0
 10
15.9139427746
 20
13.7777444299
 30
0.0
 10
15.9260846062
 20
13.7809513336
 30
0.0
 10
15.9382549279
 20
13.7833912449
 30
0.0
 10
15.9504460628
 20
13.7850624102
 30
0.0
 10
15.9626502619
 20
13.7859635986
 30
0.0
 10
15.9748597102
 20
13.7860940787
 30
0.0
 10
15.9870665644
 20
13.7854538221
 30
0.0
 10
15.9992629963
 20
13.7840432553
 30
0.0
 10
16.0114412207
 20
13.7818634537
 30
0.0
 10
16.0235935715
 20
13.778916036
 30
0.0
 10
16.0357123659
 20
13.775203116
 30
0.0
 10
16.047790437
 20
13.7707271906
 30
0.0
 10
16.063997667
 20
13.7636735066
 30
0.0
 10
16.0841613355
 20
13.7528778389
 30
0.0
 10
16.1078014519
 20
13.7370676112
 30
0.0
 10
16.1310903739
 20
13.718310473
 30
0.0
 10
16.1539752359
 20
13.6966560563
 30
0.0
 10
16.176406756
 20
13.6721576604
 30
0.0
 10
16.1983349308
 20
13.6448743528
 30
0.0
 10
16.2197102747
 20
13.6148710383
 30
0.0
 10
16.2404837095
 20
13.5822188372
 30
0.0
 10
16.2606069358
 20
13.5469951251
 30
0.0
 10
16.2800326878
 20
13.509283501
 30
0.0
 10
16.2987149903
 20
13.4691736577
 30
0.0
 10
16.3166093929
 20
13.4267612023
 30
0.0
 10
16.3336731409
 20
13.3821474191
 30
0.0
 10
16.3498653412
 20
13.3354390145
 30
0.0
 10
16.3651471006
 20
13.2867478491
 30
0.0
 10
16.3794816598
 20
13.2361906597
 30
0.0
 10
16.3928345054
 20
13.1838887634
 30
0.0
 10
16.4051734564
 20
13.1299677469
 30
0.0
 10
16.4164687561
 20
13.0745571516
 30
0.0
 10
16.4266931484
 20
13.017790155
 30
0.0
 10
16.4358219642
 20
12.9598032453
 30
0.0
 10
16.4438331715
 20
12.9007358817
 30
0.0
 10
16.4507074301
 20
12.8407301508
 30
0.0
 10
16.4564281388
 20
12.7799304196
 30
0.0
 10
16.4609814818
 20
12.7184829859
 30
0.0
 10
16.4643564702
 20
12.6565357221
 30
0.0
 10
16.466544955
 20
12.5942377136
 30
0.0
 10
16.4675416503
 20
12.5317388966
 30
0.0
 10
16.4673441434
 20
12.4691896948
 30
0.0
 10
16.4659529139
 20
12.4067406546
 30
0.0
 10
16.4633713255
 20
12.3445420788
 30
0.0
 10
16.4596056123
 20
12.2827436624
 30
0.0
 10
16.4546648647
 20
12.2214941297
 30
0.0
 10
16.4485610085
 20
12.1609408723
 30
0.0
 10
16.4413087876
 20
12.1012295884
 30
0.0
 10
16.4329257123
 20
12.0425039287
 30
0.0
 10
16.4234320204
 20
11.9849051525
 30
0.0
 10
16.412850616
 20
11.9285717651
 30
0.0
 10
16.4012070473
 20
11.8736392234
 30
0.0
 10
16.3885293596
 20
11.8202394442
 30
0.0
 10
16.3748482955
 20
11.7685011694
 30
0.0
 10
16.3649376915
 20
11.7347121874
 30
0.0
 10
16.3598122156
 20
11.7181261414
 30
0.0
  0
SPLINE
  5
2BD
100
AcDbEntity
  8
LAYER_FEATURE
100
AcDbSpline
 62
7
  6
CONTINUOUS
 70
0
 71
3
 72
38
 73
34
 74
0
 42
0.0000001
 43
0.0000001
 44
0.0000000001
 40
0.0
 40
0.0
 40
0.0
 40
0.0
 40
0.0879640634
 40
0.1307307799
 40
0.172659289
 40
0.2137306924
 40
0.2539278598
 40
0.2932354833
 40
0.331640014
 40
0.3691299327
 40
0.4056958468
 40
0.4413306484
 40
0.4760297477
 40
0.5097912585
 40
0.5426162034
 40
0.5745087944
 40
0.6054767272
 40
0.6355314481
 40
0.6646884898
 40
0.6929678651
 40
0.7203944086
 40
0.7469981493
 40
0.7728147251
 40
0.7978857457
 40
0.8222590848
 40
0.8459891353
 40
0.8691369599
 40
0.8917702319
 40
0.9139630028
 40
0.9357952488
 40
0.9573521242
 40
0.9787229534
 40
1.0
 40
1.0
 40
1.0
 40
1.0
 10
15.5747516455
 20
13.3437623504
 30
0.0
 10
15.5807260993
 20
13.3630956903
 30
0.0
 10
15.5900652187
 20
13.3916904139
 30
0.0
 10
15.6033922975
 20
13.4291083264
 30
0.0
 10
15.6135945368
 20
13.4561832903
 30
0.0
 10
15.6240890306
 20
13.4825109823
 30
0.0
 10
15.6348675637
 20
13.5080707394
 30
0.0
 10
15.6459216061
 20
13.5328423596
 30
0.0
 10
15.6572424688
 20
13.5568063236
 30
0.0
 10
15.668821216
 20
13.5799437469
 30
0.0
 10
15.6806487359
 20
13.6022364038
 30
0.0
 10
15.6927157492
 20
13.6236667286
 30
0.0
 10
15.7050127773
 20
13.6442178559
 30
0.0
 10
15.7175301768
 20
13.6638736211
 30
0.0
 10
15.7302581696
 20
13.6826185531
 30
0.0
 10
15.7431868317
 20
13.7004379005
 30
0.0
 10
15.7563060866
 20
13.7173176559
 30
0.0
 10
15.7696057553
 20
13.7332445291
 30
0.0
 10
15.7830755653
 20
13.7482059478
 30
0.0
 10
15.7967051161
 20
13.762190101
 30
0.0
 10
15.8104839251
 20
13.7751859036
 30
0.0
 10
15.8244014428
 20
13.7871829707
 30
0.0
 10
15.8384470204
 20
13.7981716463
 30
0.0
 10
15.8526099054
 20
13.8081429999
 30
0.0
 10
15.8668792564
 20
13.8170887737
 30
0.0
 10
15.8812441068
 20
13.8250013876
 30
0.0
 10
15.895693306
 20
13.831874004
 30
0.0
 10
15.9102155116
 20
13.8377004861
 30
0.0
 10
15.9247991825
 20
13.8424754195
 30
0.0
 10
15.9394324052
 20
13.8461942408
 30
0.0
 10
15.954103352
 20
13.8488532847
 30
0.0
 10
15.9687986728
 20
13.8504498278
 30
0.0
 10
15.9786131351
 20
13.8508049813
 30
0.0
 10
15.9835077467
 20
13.8508049853
 30
0.0
  0
SPLINE
  5
2BE
100
AcDbEntity
  8
LAYER_CHAMFER_FEAT
100
AcDbSpline
 62
7
  6
CONTINUOUS
 70
0
 71
3
 72
61
 73
57
 74
0
 42
0.0000001
 43
0.0000001
 44
0.0000000001
 40
0.0
 40
0.0
 40
0.0
 40
0.0
 40
0.0077261467
 40
0.015516235
 40
0.0234322838
 40
0.031532692
 40
0.0398709316
 40
0.0484947018
 40
0.0574455269
 40
0.0667587195
 40
0.0764636065
 40
0.086583918
 40
0.0971382588
 40
0.1081406027
 40
0.1196007749
 40
0.1315249
 40
0.1439158065
 40
0.1567733855
 40
0.1700949037
 40
0.183875278
 40
0.1981073138
 40
0.2127819123
 40
0.2278882513
 40
0.2434139444
 40
0.2593451813
 40
0.2756668521
 40
0.2923626604
 40
0.3094152237
 40
0.3268061663
 40
0.3445162049
 40
0.3625252286
 40
0.3808123729
 40
0.4181328761
 40
0.4562997541
 40
0.4951257409
 40
0.5344176241
 40
0.5739780704
 40
0.6136074007
 40
0.6531053369
 40
0.6922727432
 40
0.7309133814
 40
0.7688356984
 40
0.7874700325
 40
0.805856044
 40
0.8239719463
 40
0.8417966104
 40
0.8593096337
 40
0.8764914134
 40
0.8933232242
 40
0.9097873002
 40
0.9258669277
 40
0.9415465321
 40
0.9568118223
 40
0.9716498033
 40
0.9860491797
 40
1.0
 40
1.0
 40
1.0
 40
1.0
 10
15.9629373845
 20
11.4841383349
 30
0.0
 10
15.9680873785
 20
11.4841383312
 30
0.0
 10
15.9784372156
 20
11.4846534367
 30
0.0
 10
15.9939080491
 20
11.4869663314
 30
0.0
 10
16.0093275563
 20
11.4908151313
 30
0.0
 10
16.0246687313
 20
11.4961913516
 30
0.0
 10
16.0399084068
 20
11.5030840061
 30
0.0
 10
16.0550238611
 20
11.5114800826
 30
0.0
 10
16.069993461
 20
11.5213648431
 30
0.0
 10
16.0847961271
 20
11.5327219406
 30
0.0
 10
16.0994111756
 20
11.545533411
 30
0.0
 10
16.1138181551
 20
11.5597795966
 30
0.0
 10
16.1279967847
 20
11.575439054
 30
0.0
 10
16.1419269426
 20
11.5924884742
 30
0.0
 10
16.1555886926
 20
11.6109026286
 30
0.0
 10
16.1689623287
 20
11.6306543393
 30
0.0
 10
16.1820284288
 20
11.6517144749
 30
0.0
 10
16.1947679081
 20
11.6740519635
 30
0.0
 10
16.2071620735
 20
11.6976338199
 30
0.0
 10
16.2191926715
 20
11.7224251849
 30
0.0
 10
16.230841931
 20
11.7483893739
 30
0.0
 10
16.2420926046
 20
11.7754879293
 30
0.0
 10
16.2529280047
 20
11.8036806788
 30
0.0
 10
16.2633320371
 20
11.8329257962
 30
0.0
 10
16.273289231
 20
11.8631798658
 30
0.0
 10
16.2827847675
 20
11.8943979491
 30
0.0
 10
16.2918045054
 20
11.9265336546
 30
0.0
 10
16.3003350034
 20
11.9595392056
 30
0.0
 10
16.3083635517
 20
11.9933655242
 30
0.0
 10
16.3158781617
 20
12.0279622629
 30
0.0
 10
16.3228676964
 20
12.0632780505
 30
0.0
 10
16.3315311868
 20
12.1115798604
 30
0.0
 10
16.3409504896
 20
12.1733864224
 30
0.0
 10
16.3499388934
 20
12.2490648785
 30
0.0
 10
16.3566336869
 20
12.3262995758
 30
0.0
 10
16.3609947715
 20
12.4046308968
 30
0.0
 10
16.3629960089
 20
12.483593446
 30
0.0
 10
16.3626254064
 20
12.5627177687
 30
0.0
 10
16.3598851819
 20
12.641533434
 30
0.0
 10
16.354791761
 20
12.7195720896
 30
0.0
 10
16.3473756479
 20
12.7963692844
 30
0.0
 10
16.3392505083
 20
12.8593149574
 30
0.0
 10
16.3316039147
 20
12.9086826126
 30
0.0
 10
16.3253534953
 20
12.9449011754
 30
0.0
 10
16.3185638594
 20
12.980473236
 30
0.0
 10
16.3112450737
 20
13.0153459585
 30
0.0
 10
16.3034080693
 20
13.0494674227
 30
0.0
 10
16.2950645287
 20
13.0827868733
 30
0.0
 10
16.2862268917
 20
13.1152547514
 30
0.0
 10
16.2769083288
 20
13.1468227849
 30
0.0
 10
16.2671227196
 20
13.1774440475
 30
0.0
 10
16.2568846316
 20
13.2070730672
 30
0.0
 10
16.2462093013
 20
13.2356657876
 30
0.0
 10
16.2351125502
 20
13.2631799452
 30
0.0
 10
16.2236110028
 20
13.2895743044
 30
0.0
 10
16.2155554851
 20
13.3066724738
 30
0.0
 10
16.2114588099
 20
13.3150206201
 30
0.0
  0
SPLINE
  5
2BF
100
AcDbEntity
  8
LAYER_FEATURE
100
AcDbSpline
 62
7
  6
CONTINUOUS
 70
0
 71
3
 72
58
 73
54
 74
0
 42
0.0000001
 43
0.0000001
 44
0.0000000001
 40
0.0
 40
0.0
 40
0.0
 40
0.0
 40
0.0163583
 40
0.033051471
 40
0.0500648574
 40
0.0673835114
 40
0.0849915535
 40
0.1028725909
 40
0.1393839941
 40
0.1767770752
 40
0.2149030243
 40
0.2536074773
 40
0.2927317876
 40
0.3321142519
 40
0.3715913088
 40
0.4109987214
 40
0.4501727498
 40
0.4889513312
 40
0.5271752767
 40
0.5646894904
 40
0.601344234
 40
0.6193049122
 40
0.6369977078
 40
0.6544060228
 40
0.6715138624
 40
0.6883058876
 40
0.7047674716
 40
0.7208847596
 40
0.736644735
 40
0.7520352903
 40
0.7670453039
 40
0.7816647265
 40
0.7958846763
 40
0.8096975461
 40
0.823097124
 40
0.8360787296
 40
0.8486393693
 40
0.860777911
 40
0.8724952819
 40
0.8837946938
 40
0.8946818953
 40
0.9051654528
 40
0.9152570574
 40
0.9249718519
 40
0.9343287667
 40
0.9433508406
 40
0.952065501
 40
0.960504758
 40
0.9687052606
 40
0.9767081569
 40
0.9845587033
 40
0.9923055923
 40
1.0
 40
1.0
 40
1.0
 40
1.0
 10
14.5875833012
 20
13.3437623504
 30
0.0
 10
14.5837561495
 20
13.3313776829
 30
0.0
 10
14.5762796875
 20
13.3062749482
 30
0.0
 10
14.5656963213
 20
13.2680382869
 30
0.0
 10
14.5556403881
 20
13.2288733157
 30
0.0
 10
14.5461242937
 20
13.1888283627
 30
0.0
 10
14.5371596307
 20
13.1479522024
 30
0.0
 10
14.5258788493
 20
13.0920221571
 30
0.0
 10
14.5132621553
 20
13.0203789954
 30
0.0
 10
14.5005832574
 20
12.9325014122
 30
0.0
 10
14.490324788
 20
12.8425594226
 30
0.0
 10
14.4825372886
 20
12.7509937308
 30
0.0
 10
14.4772591408
 20
12.6582522205
 30
0.0
 10
14.4745163613
 20
12.5647888929
 30
0.0
 10
14.4743224593
 20
12.4710612749
 30
0.0
 10
14.4766783899
 20
12.3775282326
 30
0.0
 10
14.4815725493
 20
12.2846476403
 30
0.0
 10
14.488980817
 20
12.1928741916
 30
0.0
 10
14.498866677
 20
12.1026568099
 30
0.0
 10
14.5111814222
 20
12.0144375614
 30
0.0
 10
14.5234990625
 20
11.9424658857
 30
0.0
 10
14.5345455237
 20
11.8862405864
 30
0.0
 10
14.5433403299
 20
11.8451216844
 30
0.0
 10
14.5526899863
 20
11.8048188256
 30
0.0
 10
14.56258309
 20
11.7653812681
 30
0.0
 10
14.5730074844
 20
11.7268573368
 30
0.0
 10
14.583950388
 20
11.6892941919
 30
0.0
 10
14.5953983829
 20
11.6527378146
 30
0.0
 10
14.6073374369
 20
11.6172329358
 30
0.0
 10
14.6197529229
 20
11.5828229832
 30
0.0
 10
14.6326296411
 20
11.5495500267
 30
0.0
 10
14.6459518407
 20
11.5174547265
 30
0.0
 10
14.6597032435
 20
11.4865762819
 30
0.0
 10
14.6738670695
 20
11.4569523822
 30
0.0
 10
14.6884260643
 20
11.4286191603
 30
0.0
 10
14.70336253
 20
11.4016111483
 30
0.0
 10
14.718658353
 20
11.3759612349
 30
0.0
 10
14.7342950432
 20
11.3517006323
 30
0.0
 10
14.7502537712
 20
11.3288588485
 30
0.0
 10
14.7665154073
 20
11.3074636658
 30
0.0
 10
14.783060562
 20
11.2875411302
 30
0.0
 10
14.7998696248
 20
11.2691155522
 30
0.0
 10
14.8169227973
 20
11.2522095233
 30
0.0
 10
14.8342001131
 20
11.2368439466
 30
0.0
 10
14.851681435
 20
11.2230380815
 30
0.0
 10
14.869346423
 20
11.2108096051
 30
0.0
 10
14.8871744598
 20
11.200174664
 30
0.0
 10
14.905144502
 20
11.1911478963
 30
0.0
 10
14.9232349753
 20
11.1837423908
 30
0.0
 10
14.9414233467
 20
11.1779695478
 30
0.0
 10
14.9596868576
 20
11.1738388292
 30
0.0
 10
14.9779993174
 20
11.1713573916
 30
0.0
 10
14.9902422556
 20
11.1708050064
 30
0.0
 10
14.9963394025
 20
11.1708050004
 30
0.0
  0
SPLINE
  5
2C0
100
AcDbEntity
  8
LAYER_FEATURE
100
AcDbSpline
 62
7
  6
CONTINUOUS
 70
0
 71
3
 72
39
 73
35
 74
0
 42
0.0000001
 43
0.0000001
 44
0.0000000001
 40
0.0
 40
0.0
 40
0.0
 40
0.0
 40
0.0470952029
 40
0.0931109979
 40
0.1380108223
 40
0.1817625316
 40
0.2243366227
 40
0.2657076235
 40
0.3058540258
 40
0.3447588158
 40
0.3824098877
 40
0.4188005641
 40
0.4539301724
 40
0.4878047026
 40
0.5204375529
 40
0.5518503634
 40
0.582073939
 40
0.6111492458
 40
0.6391284569
 40
0.66607599
 40
0.6920694528
 40
0.7172003813
 40
0.7415746115
 40
0.7653120983
 40
0.7885459998
 40
0.8114208885
 40
0.8340900565
 40
0.8567120267
 40
0.8794465467
 40
0.9024504575
 40
0.9258738585
 40
0.9498569202
 40
0.9745275555
 40
1.0
 40
1.0
 40
1.0
 40
1.0
 10
14.6200349337
 20
13.3034838444
 30
0.0
 10
14.6236553192
 20
13.3151994162
 30
0.0
 10
14.6310492604
 20
13.338289957
 30
0.0
 10
14.6427432077
 20
13.372270869
 30
0.0
 10
14.6549001602
 20
13.4051627274
 30
0.0
 10
14.6675046202
 20
13.4369237616
 30
0.0
 10
14.6805407669
 20
13.4675140613
 30
0.0
 10
14.6939921347
 20
13.4968950384
 30
0.0
 10
14.7078418137
 20
13.5250297167
 30
0.0
 10
14.7220724064
 20
13.5518826972
 30
0.0
 10
14.7366660862
 20
13.5774202259
 30
0.0
 10
14.7516046207
 20
13.6016102297
 30
0.0
 10
14.7668694157
 20
13.6244223481
 30
0.0
 10
14.7824415537
 20
13.6458279588
 30
0.0
 10
14.7983018359
 20
13.6658001938
 30
0.0
 10
14.8144308237
 20
13.6843139446
 30
0.0
 10
14.8308088766
 20
13.7013458517
 30
0.0
 10
14.8474161814
 20
13.7168742778
 30
0.0
 10
14.8642327607
 20
13.7308792651
 30
0.0
 10
14.881238452
 20
13.7433424798
 30
0.0
 10
14.8984128481
 20
13.7542471477
 30
0.0
 10
14.9157351805
 20
13.7635780126
 30
0.0
 10
14.9331841508
 20
13.7713213485
 30
0.0
 10
14.950737733
 20
13.7774650616
 30
0.0
 10
14.9683729966
 20
13.7819989149
 30
0.0
 10
14.9860660265
 20
13.7849148667
 30
0.0
 10
15.0037920126
 20
13.7862074776
 30
0.0
 10
15.0215255477
 20
13.7858742606
 30
0.0
 10
15.0392410713
 20
13.783915867
 30
0.0
 10
15.0569133911
 20
13.7803360197
 30
0.0
 10
15.0745179724
 20
13.7751413132
 30
0.0
 10
15.0920315665
 20
13.7683405704
 30
0.0
 10
15.1094306074
 20
13.7599454486
 30
0.0
 10
15.120745821
 20
13.7534059268
 30
0.0
 10
15.1263712443
 20
13.7498928475
 30
0.0
  0
SPLINE
  5
2C1
100
AcDbEntity
  8
LAYER_FEATURE
100
AcDbSpline
 62
7
  6
CONTINUOUS
 70
0
 71
3
 72
64
 73
60
 74
0
 42
0.0000001
 43
0.0000001
 44
0.0000000001
 40
0.0
 40
0.0
 40
0.0
 40
0.0
 40
0.017174129
 40
0.0347349176
 40
0.0526636433
 40
0.0709407169
 40
0.089545527
 40
0.1084566534
 40
0.1276518902
 40
0.1471083394
 40
0.1668024738
 40
0.1867102064
 40
0.2270664332
 40
0.2679768685
 40
0.3092350494
 40
0.350631442
 40
0.391955301
 40
0.432996516
 40
0.473547465
 40
0.4935760007
 40
0.513406216
 40
0.5330137075
 40
0.5523745913
 40
0.5714655687
 40
0.5902639944
 40
0.6087479476
 40
0.6268963072
 40
0.6446888304
 40
0.6621062376
 40
0.6791303033
 40
0.6957439547
 40
0.7119313804
 40
0.7276781494
 40
0.7429713453
 40
0.7577997159
 40
0.7721538436
 40
0.7860263394
 40
0.7994120649
 40
0.8123083881
 40
0.8247154774
 40
0.8366366387
 40
0.8480787007
 40
0.8590524486
 40
0.8695731032
 40
0.8796608352
 40
0.8893412891
 40
0.8986460757
 40
0.9076131678
 40
0.9162871112
 40
0.9247189408
 40
0.932965696
 40
0.9410894566
 40
0.949155892
 40
0.957232415
 40
0.9653861284
 40
0.9736818089
 40
0.9821801629
 40
0.9909365168
 40
1.0
 40
1.0
 40
1.0
 40
1.0
 10
14.6200349337
 20
13.3034838444
 30
0.0
 10
14.6160012865
 20
13.2904309576
 30
0.0
 10
14.6081424483
 20
13.2639379331
 30
0.0
 10
14.5970903181
 20
13.223525446
 30
0.0
 10
14.5866554473
 20
13.1820438336
 30
0.0
 10
14.5768535809
 20
13.1395555636
 30
0.0
 10
14.5676994232
 20
13.0961241948
 30
0.0
 10
14.5592067318
 20
13.0518148694
 30
0.0
 10
14.5513882647
 20
13.0066939944
 30
0.0
 10
14.5442557884
 20
12.9608292652
 30
0.0
 10
14.5378199593
 20
12.9142893264
 30
0.0
 10
14.5301463973
 20
12.8511452937
 30
0.0
 10
14.5223805983
 20
12.7710222422
 30
0.0
 10
14.5160087416
 20
12.6737478867
 30
0.0
 10
14.5125809869
 20
12.5754971879
 30
0.0
 10
14.5121179963
 20
12.476859271
 30
0.0
 10
14.5146225652
 20
12.3784244479
 30
0.0
 10
14.5200796091
 20
12.2807829516
 30
0.0
 10
14.5270884253
 20
12.2002339861
 30
0.0
 10
14.53416305
 20
12.1366586164
 30
0.0
 10
14.5401593801
 20
12.089732898
 30
0.0
 10
14.5468585177
 20
12.0434389681
 30
0.0
 10
14.5542504539
 20
11.9978461202
 30
0.0
 10
14.5623240626
 20
11.9530227593
 30
0.0
 10
14.5710672149
 20
11.9090360823
 30
0.0
 10
14.5804667721
 20
11.8659520325
 30
0.0
 10
14.5905086133
 20
11.8238351844
 30
0.0
 10
14.6011776559
 20
11.7827486488
 30
0.0
 10
14.6124578804
 20
11.7427539749
 30
0.0
 10
14.6243323566
 20
11.7039110562
 30
0.0
 10
14.6367832715
 20
11.6662780381
 30
0.0
 10
14.6497919601
 20
11.6299112276
 30
0.0
 10
14.6633389384
 20
11.5948650065
 30
0.0
 10
14.677403939
 20
11.5611917466
 30
0.0
 10
14.6919659499
 20
11.5289417287
 30
0.0
 10
14.7070032573
 20
11.4981630653
 30
0.0
 10
14.7224934917
 20
11.4689016281
 30
0.0
 10
14.7384136802
 20
11.4412009813
 30
0.0
 10
14.7547403025
 20
11.4151023236
 30
0.0
 10
14.771449353
 20
11.3906444393
 30
0.0
 10
14.7885164078
 20
11.3678636649
 30
0.0
 10
14.8059166936
 20
11.3467938739
 30
0.0
 10
14.8236251549
 20
11.3274664862
 30
0.0
 10
14.8416165089
 20
11.3099105088
 30
0.0
 10
14.859865275
 20
11.2941526094
 30
0.0
 10
14.8783457544
 20
11.2802172213
 30
0.0
 10
14.8970319339
 20
11.2681266607
 30
0.0
 10
14.9158972888
 20
11.257901218
 30
0.0
 10
14.9349144812
 20
11.2495591554
 30
0.0
 10
14.9540549947
 20
11.2431165302
 30
0.0
 10
14.9732888139
 20
11.2385867787
 30
0.0
 10
14.9925843116
 20
11.2359800772
 30
0.0
 10
15.0119084947
 20
11.2353026229
 30
0.0
 10
15.0312276277
 20
11.2365560688
 30
0.0
 10
15.0505081384
 20
11.2397373798
 30
0.0
 10
15.0697173023
 20
11.2448390477
 30
0.0
 10
15.0888243048
 20
11.2518500539
 30
0.0
 10
15.1077982843
 20
11.2607553179
 30
0.0
 10
15.1201117763
 20
11.2678130517
 30
0.0
 10
15.1262293724
 20
11.2716285991
 30
0.0
  0
SPLINE
  5
2C2
100
AcDbEntity
  8
LAYER_FEATURE
100
AcDbSpline
 62
7
  6
CONTINUOUS
 70
0
 71
3
 72
15
 73
11
 74
0
 42
0.0000001
 43
0.0000001
 44
0.0000000001
 40
0.0
 40
0.0
 40
0.0
 40
0.0
 40
0.1205150496
 40
0.247035412
 40
0.3772792436
 40
0.5088279712
 40
0.6392257021
 40
0.7660538326
 40
0.8870076351
 40
1.0
 40
1.0
 40
1.0
 40
1.0
 10
14.607013129
 20
13.1959293359
 30
0.0
 10
14.6068873525
 20
13.1953712972
 30
0.0
 10
14.6066724822
 20
13.1942174437
 30
0.0
 10
14.6064589524
 20
13.1924383553
 30
0.0
 10
14.6063492495
 20
13.1905973748
 30
0.0
 10
14.6063458801
 20
13.1887347844
 30
0.0
 10
14.6064489073
 20
13.1868912576
 30
0.0
 10
14.6066560299
 20
13.1851069987
 30
0.0
 10
14.6069625436
 20
13.1834209892
 30
0.0
 10
14.6072395213
 20
13.1823442265
 30
0.0
 10
14.6073958205
 20
13.1818311761
 30
0.0
  0
SPLINE
  5
2C3
100
AcDbEntity
  8
LAYER_FEATURE
100
AcDbSpline
 62
7
  6
CONTINUOUS
 70
0
 71
3
 72
14
 73
10
 74
0
 42
0.0000001
 43
0.0000001
 44
0.0000000001
 40
0.0
 40
0.0
 40
0.0
 40
0.0
 40
0.2640806646
 40
0.3948426616
 40
0.5235074513
 40
0.6491828931
 40
0.7710150141
 40
0.8881988934
 40
1.0
 40
1.0
 40
1.0
 40
1.0
 10
14.6215264201
 20
13.1098475022
 30
0.0
 10
14.6216253047
 20
13.113598888
 30
0.0
 10
14.6215740593
 20
13.1192158333
 30
0.0
 10
14.6211063006
 20
13.1266414623
 30
0.0
 10
14.6205612497
 20
13.1320880985
 30
0.0
 10
14.6198256499
 20
13.1373841481
 30
0.0
 10
14.6189056089
 20
13.1424858034
 30
0.0
 10
14.6178089348
 20
13.1473505372
 30
0.0
 10
14.6169440765
 20
13.150489132
 30
0.0
 10
14.6164810813
 20
13.1520089086
 30
0.0
  0
SPLINE
  5
2C4
100
AcDbEntity
  8
LAYER_FEATURE
100
AcDbSpline
 62
7
  6
CONTINUOUS
 70
0
 71
3
 72
36
 73
32
 74
0
 42
0.0000001
 43
0.0000001
 44
0.0000000001
 40
0.0
 40
0.0
 40
0.0
 40
0.0
 40
0.021924186
 40
0.043932347
 40
0.0661072708
 40
0.088529451
 40
0.1112760948
 40
0.1344202774
 40
0.158030339
 40
0.1821694199
 40
0.2068951882
 40
0.2322597863
 40
0.2583098156
 40
0.2850864824
 40
0.3126258501
 40
0.3409590281
 40
0.3701125008
 40
0.4001084507
 40
0.4309649808
 40
0.462696477
 40
0.4953138792
 40
0.5288248785
 40
0.5632342431
 40
0.5985440051
 40
0.6347536258
 40
0.6718602683
 40
0.7098589055
 40
0.7487424477
 40
0.8291229043
 40
0.912913968
 40
1.0
 40
1.0
 40
1.0
 40
1.0
 10
15.0090252151
 20
13.749804986
 30
0.0
 10
15.0048077796
 20
13.7498049815
 30
0.0
 10
14.9963540096
 20
13.7495199702
 30
0.0
 10
14.9836929997
 20
13.7482385065
 30
0.0
 10
14.9710500476
 20
13.7461040253
 30
0.0
 10
14.9584350964
 20
13.7431183449
 30
0.0
 10
14.9458569937
 20
13.7392839572
 30
0.0
 10
14.9333246593
 20
13.7346040573
 30
0.0
 10
14.9208468014
 20
13.7290823436
 30
0.0
 10
14.9084319906
 20
13.7227230871
 30
0.0
 10
14.8960886284
 20
13.7155311203
 30
0.0
 10
14.8838250433
 20
13.7075117066
 30
0.0
 10
14.8716494409
 20
13.6986706531
 30
0.0
 10
14.8595699328
 20
13.6890142695
 30
0.0
 10
14.8475946053
 20
13.6785493092
 30
0.0
 10
14.8357314363
 20
13.667283082
 30
0.0
 10
14.8239883501
 20
13.6552233883
 30
0.0
 10
14.8123732459
 20
13.642378508
 30
0.0
 10
14.8008939019
 20
13.6287572833
 30
0.0
 10
14.789558054
 20
13.614369043
 30
0.0
 10
14.7783733808
 20
13.5992236177
 30
0.0
 10
14.7673474241
 20
13.5833313866
 30
0.0
 10
14.756487677
 20
13.5667032059
 30
0.0
 10
14.7458015347
 20
13.5493504393
 30
0.0
 10
14.7352962394
 20
13.5312849651
 30
0.0
 10
14.7249789958
 20
13.5125191441
 30
0.0
 10
14.7148567687
 20
13.4930657555
 30
0.0
 10
14.7014820905
 20
13.4659289317
 30
0.0
 10
14.6853261586
 20
13.430353279
 30
0.0
 10
14.6670345093
 20
13.3856043713
 30
0.0
 10
14.655676751
 20
13.3547502162
 30
0.0
 10
14.6501436134
 20
13.3389381105
 30
0.0
  0
SPLINE
  5
2C5
100
AcDbEntity
  8
LAYER_FEATURE
100
AcDbSpline
 62
7
  6
CONTINUOUS
 70
0
 71
3
 72
15
 73
11
 74
0
 42
0.0000001
 43
0.0000001
 44
0.0000000001
 40
0.0
 40
0.0
 40
0.0
 40
0.0
 40
0.1286119949
 40
0.261041787
 40
0.3948444662
 40
0.5275166831
 40
0.6565970901
 40
0.7797434986
 40
0.8948171456
 40
1.0
 40
1.0
 40
1.0
 40
1.0
 10
14.5724508344
 20
13.0383183255
 30
0.0
 10
14.5723589694
 20
13.0377252142
 30
0.0
 10
14.5722124518
 20
13.0365149206
 30
0.0
 10
14.5721010368
 20
13.0346747135
 30
0.0
 10
14.5720959001
 20
13.0328121419
 30
0.0
 10
14.5721971902
 20
13.0309679659
 30
0.0
 10
14.5724026152
 20
13.0291824426
 30
0.0
 10
14.5727075895
 20
13.0274943691
 30
0.0
 10
14.5731052091
 20
13.0259404871
 30
0.0
 10
14.5734429735
 20
13.0249678
 30
0.0
 10
14.57362881
 20
13.0245134905
 30
0.0
  0
SPLINE
  5
2C6
100
AcDbEntity
  8
LAYER_FEATURE
100
AcDbSpline
 62
7
  6
CONTINUOUS
 70
0
 71
3
 72
14
 73
10
 74
0
 42
0.0000001
 43
0.0000001
 44
0.0000000001
 40
0.0
 40
0.0
 40
0.0
 40
0.0
 40
0.2732980249
 40
0.4063049478
 40
0.5356390987
 40
0.6604366228
 40
0.7798958368
 40
0.8932914344
 40
1.0
 40
1.0
 40
1.0
 40
1.0
 10
14.5916902824
 20
12.9585802661
 30
0.0
 10
14.5915767087
 20
12.9622862859
 30
0.0
 10
14.5912142332
 20
12.9677931376
 30
0.0
 10
14.5903268873
 20
12.9750069236
 30
0.0
 10
14.5894800743
 20
12.9801919801
 30
0.0
 10
14.5884533573
 20
12.9851569063
 30
0.0
 10
14.5872552459
 20
12.9898607742
 30
0.0
 10
14.5858958839
 20
12.9942644684
 30
0.0
 10
14.5848562656
 20
12.9970660329
 30
0.0
 10
14.584308168
 20
12.9984059522
 30
0.0
  0
SPLINE
  5
2C7
100
AcDbEntity
  8
LAYER_FEATURE
100
AcDbSpline
 62
7
  6
CONTINUOUS
 70
0
 71
3
 72
17
 73
13
 74
0
 42
0.0000001
 43
0.0000001
 44
0.0000000001
 40
0.0
 40
0.0
 40
0.0
 40
0.0
 40
0.0462692949
 40
0.0931233675
 40
0.1410616333
 40
0.1905546344
 40
0.2956934843
 40
0.41124734
 40
0.538862333
 40
0.6794157448
 40
0.8331848715
 40
1.0
 40
1.0
 40
1.0
 40
1.0
 10
14.5699161111
 20
12.9054859931
 30
0.0
 10
14.5702826978
 20
12.905489479
 30
0.0
 10
14.5710208024
 20
12.9055401414
 30
0.0
 10
14.5721217039
 20
12.9057459755
 30
0.0
 10
14.5732170931
 20
12.9060812697
 30
0.0
 10
14.5746958972
 20
12.9067117383
 30
0.0
 10
14.5765278744
 20
12.9078446073
 30
0.0
 10
14.5786122081
 20
12.9096679592
 30
0.0
 10
14.5806164591
 20
12.9119642136
 30
0.0
 10
14.5825271354
 20
12.9147142815
 30
0.0
 10
14.5843310452
 20
12.917896373
 30
0.0
 10
14.5854106691
 20
12.920198351
 30
0.0
 10
14.5859334596
 20
12.9214122825
 30
0.0
  0
SPLINE
  5
2C8
100
AcDbEntity
  8
LAYER_FEATURE
100
AcDbSpline
 62
7
  6
CONTINUOUS
 70
0
 71
3
 72
17
 73
13
 74
0
 42
0.0000001
 43
0.0000001
 44
0.0000000001
 40
0.0
 40
0.0
 40
0.0
 40
0.0
 40
0.0376497649
 40
0.0764939535
 40
0.1175211362
 40
0.1615505708
 40
0.260671822
 40
0.3766941888
 40
0.5100549797
 40
0.6597810328
 40
0.8239488839
 40
1.0
 40
1.0
 40
1.0
 40
1.0
 10
14.5551713289
 20
12.9053457866
 30
0.0
 10
14.5550491191
 20
12.9053446245
 30
0.0
 10
14.5548004489
 20
12.905318118
 30
0.0
 10
14.5544333389
 20
12.9052074905
 30
0.0
 10
14.5540718562
 20
12.9050272199
 30
0.0
 10
14.553580925
 20
12.9046828041
 30
0.0
 10
14.5529946336
 20
12.9040688231
 30
0.0
 10
14.552371195
 20
12.9031201926
 30
0.0
 10
14.5518092059
 20
12.9019494257
 30
0.0
 10
14.5513200937
 20
12.9005802619
 30
0.0
 10
14.5509139264
 20
12.8990409553
 30
0.0
 10
14.5507103532
 20
12.8979544684
 30
0.0
 10
14.5506228813
 20
12.8973897209
 30
0.0
  0
SPLINE
  5
2C9
100
AcDbEntity
  8
LAYER_FEATURE
100
AcDbSpline
 62
7
  6
CONTINUOUS
 70
0
 71
3
 72
15
 73
11
 74
0
 42
0.0000001
 43
0.0000001
 44
0.0000000001
 40
0.0
 40
0.0
 40
0.0
 40
0.0
 40
0.1370522145
 40
0.275558153
 40
0.4129413871
 40
0.5466467887
 40
0.6742469668
 40
0.7935279375
 40
0.9025907017
 40
1.0
 40
1.0
 40
1.0
 40
1.0
 10
14.5471933647
 20
12.8694642842
 30
0.0
 10
14.5471366539
 20
12.8688490688
 30
0.0
 10
14.5470603266
 20
12.8676083578
 30
0.0
 10
14.5470534527
 20
12.865745887
 30
0.0
 10
14.5471529927
 20
12.8639010788
 30
0.0
 10
14.5473567399
 20
12.862114254
 30
0.0
 10
14.547660098
 20
12.8604243271
 30
0.0
 10
14.548056344
 20
12.8588677424
 30
0.0
 10
14.5485365582
 20
12.8574781174
 30
0.0
 10
14.5489294155
 20
12.8566314936
 30
0.0
 10
14.5491415179
 20
12.8562470002
 30
0.0
  0
SPLINE
  5
2CA
100
AcDbEntity
  8
LAYER_FEATURE
100
AcDbSpline
 62
7
  6
CONTINUOUS
 70
0
 71
3
 72
15
 73
11
 74
0
 42
0.0000001
 43
0.0000001
 44
0.0000000001
 40
0.0
 40
0.0
 40
0.0
 40
0.0
 40
0.1433412421
 40
0.2831449737
 40
0.4184696968
 40
0.5484277394
 40
0.6722111846
 40
0.7891071264
 40
0.8985186929
 40
1.0
 40
1.0
 40
1.0
 40
1.0
 10
14.5707489142
 20
12.7977694774
 30
0.0
 10
14.5705875037
 20
12.7995833473
 30
0.0
 10
14.5702028399
 20
12.8031608697
 30
0.0
 10
14.569430484
 20
12.8084221437
 30
0.0
 10
14.5684751225
 20
12.8134805711
 30
0.0
 10
14.5673447559
 20
12.8182941432
 30
0.0
 10
14.566048887
 20
12.8228230287
 30
0.0
 10
14.5645982493
 20
12.8270300186
 30
0.0
 10
14.5630050278
 20
12.8308803344
 30
0.0
 10
14.5618100921
 20
12.8332817586
 30
0.0
 10
14.5611873613
 20
12.8344106279
 30
0.0
  0
SPLINE
  5
2CB
100
AcDbEntity
  8
LAYER_FEATURE
100
AcDbSpline
 62
7
  6
CONTINUOUS
 70
0
 71
3
 72
15
 73
11
 74
0
 42
0.0000001
 43
0.0000001
 44
0.0000000001
 40
0.0
 40
0.0
 40
0.0
 40
0.0
 40
0.0890206132
 40
0.1863607048
 40
0.2937778364
 40
0.4122902502
 40
0.542336648
 40
0.6839122891
 40
0.836668639
 40
1.0
 40
1.0
 40
1.0
 40
1.0
 10
14.5522172151
 20
12.7370997794
 30
0.0
 10
14.5529679691
 20
12.7373908028
 30
0.0
 10
14.5544757477
 20
12.7381724506
 30
0.0
 10
14.5565889494
 20
12.7398007361
 30
0.0
 10
14.5586272273
 20
12.7419092187
 30
0.0
 10
14.5605769501
 20
12.744479303
 30
0.0
 10
14.5624254836
 20
12.7474906862
 30
0.0
 10
14.5641589332
 20
12.750919594
 30
0.0
 10
14.5657637197
 20
12.7547384836
 30
0.0
 10
14.5667092132
 20
12.7574385443
 30
0.0
 10
14.5671608557
 20
12.758845138
 30
0.0
  0
SPLINE
  5
2CC
100
AcDbEntity
  8
LAYER_FEATURE
100
AcDbSpline
 62
7
  6
CONTINUOUS
 70
0
 71
3
 72
17
 73
13
 74
0
 42
0.0000001
 43
0.0000001
 44
0.0000000001
 40
0.0
 40
0.0
 40
0.0
 40
0.0
 40
0.0764745973
 40
0.1194022115
 40
0.1659408807
 40
0.2163110037
 40
0.2706109577
 40
0.3908699624
 40
0.5259391651
 40
0.6740990988
 40
0.8330269774
 40
1.0
 40
1.0
 40
1.0
 40
1.0
 10
14.5376375123
 20
12.7314480819
 30
0.0
 10
14.5373813734
 20
12.7313487918
 30
0.0
 10
14.537008605
 20
12.7311203647
 30
0.0
 10
14.5365664019
 20
12.7307201837
 30
0.0
 10
14.5362318601
 20
12.7303440317
 30
0.0
 10
14.5359096986
 20
12.729905975
 30
0.0
 10
14.5354838256
 20
12.7292184918
 30
0.0
 10
14.5349994766
 20
12.7282138467
 30
0.0
 10
14.5345090451
 20
12.726847907
 30
0.0
 10
14.5341014569
 20
12.7253110332
 30
0.0
 10
14.5337856804
 20
12.7236363804
 30
0.0
 10
14.5336436989
 20
12.7224734282
 30
0.0
 10
14.5335886429
 20
12.721876164
 30
0.0
  0
SPLINE
  5
2CD
100
AcDbEntity
  8
LAYER_FEATURE
100
AcDbSpline
 62
7
  6
CONTINUOUS
 70
0
 71
3
 72
52
 73
48
 74
0
 42
0.0000001
 43
0.0000001
 44
0.0000000001
 40
0.0
 40
0.0
 40
0.0
 40
0.0
 40
0.0410281492
 40
0.082278491
 40
0.1236479454
 40
0.1650324438
 40
0.2063280086
 40
0.2474310342
 40
0.2882387463
 40
0.3286496661
 40
0.3685640658
 40
0.407884444
 40
0.4465160219
 40
0.4843672394
 40
0.5213502956
 40
0.5573817278
 40
0.5923830104
 40
0.6262812416
 40
0.659009908
 40
0.6905097227
 40
0.7207296361
 40
0.7353470411
 40
0.7496297193
 40
0.7635741704
 40
0.777177679
 40
0.7904383558
 40
0.8033552241
 40
0.8159282948
 40
0.8281586274
 40
0.840048438
 40
0.8516012
 40
0.8628217298
 40
0.8737163177
 40
0.8842928539
 40
0.8945609348
 40
0.904532006
 40
0.9142194939
 40
0.9236389034
 40
0.9328079295
 40
0.9417465334
 40
0.9504769565
 40
0.9590237042
 40
0.9674134583
 40
0.9756748923
 40
0.983838421
 40
0.9919358595
 40
1.0
 40
1.0
 40
1.0
 40
1.0
 10
14.5335886429
 20
12.721876164
 30
0.0
 10
14.5320918769
 20
12.6996438442
 30
0.0
 10
14.5295760608
 20
12.65502464
 30
0.0
 10
14.5272325905
 20
12.5879067316
 30
0.0
 10
14.5263128726
 20
12.5205603804
 30
0.0
 10
14.5268197032
 20
12.4531851892
 30
0.0
 10
14.5287515445
 20
12.385980495
 30
0.0
 10
14.5321026633
 20
12.3191451915
 30
0.0
 10
14.5368631159
 20
12.2528770375
 30
0.0
 10
14.5430187396
 20
12.1873721045
 30
0.0
 10
14.5505512521
 20
12.1228241786
 30
0.0
 10
14.5594382896
 20
12.0594241816
 30
0.0
 10
14.5696534365
 20
11.9973595906
 30
0.0
 10
14.5811663675
 20
11.9368138803
 30
0.0
 10
14.5939429173
 20
11.877965962
 30
0.0
 10
14.6079451561
 20
11.8209896387
 30
0.0
 10
14.6231315828
 20
11.7660530584
 30
0.0
 10
14.6394572109
 20
11.7133182807
 30
0.0
 10
14.6568737809
 20
11.6629404346
 30
0.0
 10
14.6753297348
 20
11.6150684098
 30
0.0
 10
14.6917074497
 20
11.5769680208
 30
0.0
 10
14.705309622
 20
11.5478807671
 30
0.0
 10
14.7156231616
 20
11.5270199031
 30
0.0
 10
14.7261538815
 20
11.506887185
 30
0.0
 10
14.7368940916
 20
11.4874973947
 30
0.0
 10
14.7478358863
 20
11.4688648593
 30
0.0
 10
14.7589712346
 20
11.4510033146
 30
0.0
 10
14.7702919492
 20
11.4339259152
 30
0.0
 10
14.7817897613
 20
11.4176452582
 30
0.0
 10
14.7934562766
 20
11.4021733471
 30
0.0
 10
14.805282975
 20
11.387521574
 30
0.0
 10
14.8172612798
 20
11.3737007647
 30
0.0
 10
14.8293825176
 20
11.3607211422
 30
0.0
 10
14.8416379111
 20
11.3485923075
 30
0.0
 10
14.8540186462
 20
11.337323303
 30
0.0
 10
14.8665158299
 20
11.326922579
 30
0.0
 10
14.8791204705
 20
11.3173979696
 30
0.0
 10
14.8918235325
 20
11.308756775
 30
0.0
 10
14.9046158832
 20
11.3010057247
 30
0.0
 10
14.9174882548
 20
11.2941509345
 30
0.0
 10
14.930431278
 20
11.2881979931
 30
0.0
 10
14.943435411
 20
11.2831518986
 30
0.0
 10
14.9564909286
 20
11.279016969
 30
0.0
 10
14.9695878462
 20
11.2757969075
 30
0.0
 10
14.9827162616
 20
11.2734946983
 30
0.0
 10
14.9958650014
 20
11.2721124672
 30
0.0
 10
15.0046455295
 20
11.2718049974
 30
0.0
 10
15.0090252151
 20
11.2718049936
 30
0.0
  0
SPLINE
  5
2CE
100
AcDbEntity
  8
LAYER_FEATURE
100
AcDbSpline
 62
7
  6
CONTINUOUS
 70
0
 71
3
 72
15
 73
11
 74
0
 42
0.0000001
 43
0.0000001
 44
0.0000000001
 40
0.0
 40
0.0
 40
0.0
 40
0.0
 40
0.1126204601
 40
0.233296856
 40
0.3599530997
 40
0.4902911285
 40
0.6218950407
 40
0.7523079002
 40
0.8791063589
 40
1.0
 40
1.0
 40
1.0
 40
1.0
 10
14.6501436134
 20
13.3389381105
 30
0.0
 10
14.6499858495
 20
13.3384275864
 30
0.0
 10
14.6497058757
 20
13.3373552387
 30
0.0
 10
14.6493948729
 20
13.3356747228
 30
0.0
 10
14.6491829883
 20
13.3338941938
 30
0.0
 10
14.6490750335
 20
13.3320525467
 30
0.0
 10
14.6490734203
 20
13.3301899405
 30
0.0
 10
14.6491781973
 20
13.3283470499
 30
0.0
 10
14.6493869693
 20
13.3265642002
 30
0.0
 10
14.6495986587
 20
13.3254070925
 30
0.0
 10
14.6497228643
 20
13.3248471035
 30
0.0
  0
SPLINE
  5
2CF
100
AcDbEntity
  8
LAYER_FEATURE
100
AcDbSpline
 62
7
  6
CONTINUOUS
 70
0
 71
3
 72
14
 73
10
 74
0
 42
0.0000001
 43
0.0000001
 44
0.0000000001
 40
0.0
 40
0.0
 40
0.0
 40
0.0
 40
0.2552898455
 40
0.3838708566
 40
0.5118478661
 40
0.6383178993
 40
0.7623964994
 40
0.8832269717
 40
1.0
 40
1.0
 40
1.0
 40
1.0
 10
14.6596214218
 20
13.2483471873
 30
0.0
 10
14.6599355173
 20
13.2520637706
 30
0.0
 10
14.6602002497
 20
13.2576723895
 30
0.0
 10
14.6601572452
 20
13.2651514431
 30
0.0
 10
14.6599256551
 20
13.2707440803
 30
0.0
 10
14.6594969616
 20
13.2762589766
 30
0.0
 10
14.6588747038
 20
13.2816504511
 30
0.0
 10
14.6580641753
 20
13.2868735059
 30
0.0
 10
14.6573898207
 20
13.2902801191
 30
0.0
 10
14.6570203912
 20
13.2919457168
 30
0.0
  0
SPLINE
  5
2D0
100
AcDbEntity
  8
LAYER_FEATURE
100
AcDbSpline
 62
7
  6
CONTINUOUS
 70
0
 71
3
 72
38
 73
34
 74
0
 42
0.0000001
 43
0.0000001
 44
0.0000000001
 40
0.0
 40
0.0
 40
0.0
 40
0.0
 40
0.0879640716
 40
0.1307307847
 40
0.1726592835
 40
0.2137306933
 40
0.2539278613
 40
0.2932354821
 40
0.331640013
 40
0.3691299341
 40
0.4056958476
 40
0.4413306462
 40
0.4760297484
 40
0.5097912612
 40
0.5426162009
 40
0.5745087936
 40
0.6054767306
 40
0.6355314471
 40
0.6646884872
 40
0.6929678677
 40
0.7203944107
 40
0.7469981459
 40
0.7728147257
 40
0.7978857495
 40
0.8222590824
 40
0.8459891342
 40
0.8691369629
 40
0.8917702321
 40
0.9139630012
 40
0.9357952498
 40
0.9573521255
 40
0.9787229532
 40
1.0
 40
1.0
 40
1.0
 40
1.0
 10
14.5875833012
 20
13.3437623504
 30
0.0
 10
14.5935577557
 20
13.363095692
 30
0.0
 10
14.6028968758
 20
13.3916904166
 30
0.0
 10
14.616223953
 20
13.4291083283
 30
0.0
 10
14.6264261939
 20
13.4561832898
 30
0.0
 10
14.6369206864
 20
13.4825109815
 30
0.0
 10
14.6476992183
 20
13.5080707401
 30
0.0
 10
14.6587532627
 20
13.5328423589
 30
0.0
 10
14.6700741257
 20
13.5568063227
 30
0.0
 10
14.6816528707
 20
13.5799437476
 30
0.0
 10
14.6934803909
 20
13.6022364041
 30
0.0
 10
14.7055474073
 20
13.6236667269
 30
0.0
 10
14.7178444328
 20
13.6442178562
 30
0.0
 10
14.7303618297
 20
13.663873623
 30
0.0
 10
14.7430898283
 20
13.6826185507
 30
0.0
 10
14.7560184886
 20
13.7004378994
 30
0.0
 10
14.7691377389
 20
13.7173176589
 30
0.0
 10
14.7824374125
 20
13.7332445276
 30
0.0
 10
14.7959072239
 20
13.7482059446
 30
0.0
 10
14.8095367697
 20
13.7621901036
 30
0.0
 10
14.8233155787
 20
13.7751859062
 30
0.0
 10
14.8372331028
 20
13.787182965
 30
0.0
 10
14.8512786758
 20
13.7981716466
 30
0.0
 10
14.8654415569
 20
13.8081430068
 30
0.0
 10
14.8797109159
 20
13.8170887673
 30
0.0
 10
14.894075764
 20
13.825001384
 30
0.0
 10
14.9085249585
 20
13.8318740121
 30
0.0
 10
14.9230471682
 20
13.8377004846
 30
0.0
 10
14.9376308405
 20
13.8424754109
 30
0.0
 10
14.9522640596
 20
13.8461942458
 30
0.0
 10
14.9669350072
 20
13.8488532935
 30
0.0
 10
14.9816303296
 20
13.8504498095
 30
0.0
 10
14.9914447909
 20
13.8508049902
 30
0.0
 10
14.9963394025
 20
13.8508049854
 30
0.0
  0
ENDSEC
  0
SECTION
  2
OBJECTS
  0
DICTIONARY
  5
C
100
AcDbDictionary
280
0
281
1
  3
ACAD_GROUP
350
D
  3
ACAD_MLINESTYLE
350
17
  3
ACAD_LAYOUT
350
1A
  3
ACAD_PLOTSETTINGS
350
19
  3
ACAD_PLOTSTYLENAME
350
E
  0
DICTIONARY
  5
D
102
{ACAD_REACTORS
330
C
102
}
100
AcDbDictionary
280
0
281
1
  0
ACDBDICTIONARYWDFLT
  5
E
102
{ACAD_REACTORS
330
C
102
}
100
AcDbDictionary
281
1
  3
Normal
350
F
100
AcDbDictionaryWithDefault
340
F
  0
DICTIONARY
  5
17
102
{ACAD_REACTORS
330
C
102
}
100
AcDbDictionary
280
0
281
1
  3
Standard
350
18
  0
DICTIONARY
  5
19
102
{ACAD_REACTORS
330
C
102
}
100
AcDbDictionary
281
1
  0
DICTIONARY
  5
1A
102
{ACAD_REACTORS
330
C
102
}
100
AcDbDictionary
281
1
  3
Model
350
2D1
  3
Layout1
350
2D2
  0
ACDBPLACEHOLDER
  5
F
102
{ACAD_REACTORS
330
E
102
}
  0
MLINESTYLE
  5
18
102
{ACAD_REACTORS
330
17
102
}
100
AcDbMlineStyle
  2
STANDARD
 70
0
  3

 62
256
 51
90.0
 52
90.0
 71
2
 49
0.5
 62
256
  6
BYLAYER
 49
-0.5
 62
256
  6
BYLAYER
  0
LAYOUT
  5
2D1
102
{ACAD_REACTORS
330
1A
102
}
100
AcDbPlotSettings
  1

  2
none_device
  4
ANSI_C_(22.00_x_17.00_Inches)
  6

 40
0.0
 41
0.0
 42
0.0
 43
0.0
 44
558.8
 45
431.8
 46
0.0
 47
0.0
 48
0.0
 49
0.0
140
0.0
141
0.0
142
1.0
143
1.0
 70
1024
 72
0
 73
0
 74
0
  7

 75
0
147
1.0
148
0.0
149
0.0
100
AcDbLayout
  1
Model
 70
0
 71
0
 10
0.0
 20
0.0
 11
22.0
 21
17.0
 12
0.0
 22
0.0
 32
0.0
 14
0.0
 24
0.0
 34
0.0
 15
0.0
 25
0.0
 35
0.0
146
0.0
 13
0.0
 23
0.0
 33
0.0
 16
1.0
 26
0.0
 36
0.0
 17
0.0
 27
1.0
 37
0.0
 76
0
330
222
345
0
346
0
  0
LAYOUT
  5
2D2
102
{ACAD_REACTORS
330
1A
102
}
100
AcDbPlotSettings
  1

  2
none_device
  4
ANSI_C_(22.00_x_17.00_Inches)
  6

 40
0.0
 41
0.0
 42
0.0
 43
0.0
 44
558.8
 45
431.8
 46
0.0
 47
0.0
 48
0.0
 49
0.0
140
0.0
141
0.0
142
1.0
143
1.0
 70
0
 72
0
 73
0
 74
0
  7

 75
0
147
1.0
148
0.0
149
0.0
100
AcDbLayout
  1
Layout1
 70
0
 71
1
 10
0.0
 20
0.0
 11
22.0
 21
17.0
 12
0.0
 22
0.0
 32
0.0
 14
0.0
 24
0.0
 34
0.0
 15
0.0
 25
0.0
 35
0.0
146
0.0
 13
0.0
 23
0.0
 33
0.0
 16
1.0
 26
0.0
 36
0.0
 17
0.0
 27
1.0
 37
0.0
 76
0
330
223
345
0
346
0
  0
ENDSEC
  0
EOF