999
DXF file: _cgs_temp_output.dxf
999
Pro/ENGINEER 2016360 by Parametric Technology Corporation
  0
SECTION
  2
HEADER
  9
$ACADVER
  1
AC1021
  9
$DWGCODEPAGE
  3
ANSI_1252
  9
$EXTMAX
 10
22.0
 20
17.0
 30
0.0
  9
$EXTMIN
 10
0.0
 20
0.0
 30
0.0
  9
$LIMMIN
 10
0.0
 20
0.0
  9
$LIMMAX
 10
22.0
 20
17.0
  9
$VIEWCTR
 10
11.0
 20
8.5
  9
$VIEWSIZE
 40
17.0
  9
$CLAYER
  8
0
  9
$LTSCALE
 40
1.21
  9
$CELTYPE
  6
BYLAYER
  9
$DIMSCALE
 40
1.0
  9
$DIMASZ
 40
0.1875
  9
$DIMEXO
 40
0.0625
  9
$DIMDLI
 40
0.836
  9
$DIMEXE
 40
0.125
  9
$DIMCEN
 40
0.198
  9
$DIMLFAC
 40
1.0
  9
$DIMBLK
  1
_CLOSED
  9
$DIMALT
 70
0
  9
$DIMALTF
 40
25.4
  9
$DIMTXT
 40
0.15625
  9
$DIMTOL
 70
0
  9
$DIMLIM
 70
0
  9
$DIMTFAC
 40
1.0
  9
$DIMGAP
 40
0.09
  9
$DIMDSEP
 70
46
  9
$AUNITS
 70
0
  9
$PDMODE
 70
3
  9
$PDSIZE
 40
0.3125
  9
$HANDSEED
  5
2FB
  9
$TILEMODE
 70
1
  9
$MEASUREMENT
 70
0
  9
$INSUNITS
 70
1
  0
ENDSEC
  0
SECTION
  2
CLASSES
  0
CLASS
  1
ACDBDICTIONARYWDFLT
  2
AcDbDictionaryWithDefault
  3
AutoCAD 2000
 90
0
 91
1
280
0
281
0
  0
CLASS
  1
ACDBPLACEHOLDER
  2
AcDbPlaceHolder
  3
AutoCAD 2000
 90
0
 91
1
280
0
281
0
  0
CLASS
  1
LAYOUT
  2
AcDbLayout
  3
AutoCAD 2000
 90
0
 91
0
280
0
281
0
  0
ENDSEC
  0
SECTION
  2
TABLES
  0
TABLE
  2
VPORT
  5
8
100
AcDbSymbolTable
 70
2
  0
VPORT
  5
1F4
100
AcDbSymbolTableRecord
100
AcDbViewportTableRecord
  2
*ACTIVE
 70
0
 10
0.0
 20
0.0
 11
1.0
 21
1.0
 12
11.0
 22
8.5
 13
0.0
 23
0.0
 14
1.0
 24
1.0
 15
0.0
 25
0.0
 16
0.0
 26
0.0
 36
1.0
 17
0.0
 27
0.0
 37
0.0
 40
17.0
 41
1.2941176471
 42
50.0
 43
0.0
 44
0.0
 50
0.0
 51
0.0
 71
0
 72
100
 73
1
 74
1
 75
0
 76
0
 77
0
 78
0
  0
ENDTAB
  0
TABLE
  2
LTYPE
  5
5
100
AcDbSymbolTable
 70
6
  0
LTYPE
  5
14
100
AcDbSymbolTableRecord
100
AcDbLinetypeTableRecord
  2
BYBLOCK
 70
0
  3

 72
65
 73
0
 40
0.0
  0
LTYPE
  5
15
100
AcDbSymbolTableRecord
100
AcDbLinetypeTableRecord
  2
BYLAYER
 70
0
  3

 72
65
 73
0
 40
0.0
  0
LTYPE
  5
16
100
AcDbSymbolTableRecord
100
AcDbLinetypeTableRecord
  2
CONTINUOUS
 70
64
  3
Solid line
 72
65
 73
0
 40
0.0
  0
LTYPE
  5
1F5
100
AcDbSymbolTableRecord
100
AcDbLinetypeTableRecord
  2
CENTER
 70
64
  3
____ _ ____ _ ____ _ ____ _ ____ _ ____ _ ____
 72
65
 73
4
 40
0.6
 49
0.375
 74
0
 49
-0.075
 74
0
 49
0.075
 74
0
 49
-0.075
 74
0
  0
LTYPE
  5
1F6
100
AcDbSymbolTableRecord
100
AcDbLinetypeTableRecord
  2
HIDDEN
 70
64
  3
- - - - - - - - - - - - - - - - - - - -
 72
65
 73
2
 40
0.2
 49
0.1
 74
0
 49
-0.1
 74
0
  0
LTYPE
  5
1F7
100
AcDbSymbolTableRecord
100
AcDbLinetypeTableRecord
  2
PHANTOM
 70
64
  3
_____ _ _ _____ _ _ _____ _ _ _____
 72
65
 73
6
 40
0.8
 49
0.45
 74
0
 49
-0.05
 74
0
 49
0.1
 74
0
 49
-0.05
 74
0
 49
0.1
 74
0
 49
-0.05
 74
0
  0
LTYPE
  5
1F8
100
AcDbSymbolTableRecord
100
AcDbLinetypeTableRecord
  2
DOT
 70
64
  3
. . . . . . . . . . . . . . . . . . . .
 72
65
 73
2
 40
0.2
 49
0.1
 74
0
 49
-0.1
 74
0
  0
LTYPE
  5
1F9
100
AcDbSymbolTableRecord
100
AcDbLinetypeTableRecord
  2
DASHED
 70
64
  3
- - - - - - - - - - - - - - - - - - - -
 72
65
 73
2
 40
0.2
 49
0.1
 74
0
 49
-0.1
 74
0
  0
ENDTAB
  0
TABLE
  2
LAYER
  5
2
100
AcDbSymbolTable
 70
36
  0
LAYER
  5
10
100
AcDbSymbolTableRecord
100
AcDbLayerTableRecord
  2
0
 70
0
 62
7
  6
CONTINUOUS
370
-3
390
F
  0
LAYER
  5
1FA
100
AcDbSymbolTableRecord
100
AcDbLayerTableRecord
  2
DEFAULT_1
 70
0
 62
7
  6
CENTER
370
-3
390
F
  0
LAYER
  5
1FB
100
AcDbSymbolTableRecord
100
AcDbLayerTableRecord
  2
DEFAULT_2
 70
0
 62
8
  6
HIDDEN
370
-3
390
F
  0
LAYER
  5
1FC
100
AcDbSymbolTableRecord
100
AcDbLayerTableRecord
  2
DEFAULT_3
 70
0
 62
7
  6
PHANTOM
370
-3
390
F
  0
LAYER
  5
1FD
100
AcDbSymbolTableRecord
100
AcDbLayerTableRecord
  2
01_ALL_DTM_PLN
 70
0
 62
7
  6
CONTINUOUS
370
-3
390
F
  0
LAYER
  5
1FE
100
AcDbSymbolTableRecord
100
AcDbLayerTableRecord
  2
01__ASM_ALL_DTM_PLN
 70
0
 62
7
  6
CONTINUOUS
370
-3
390
F
  0
LAYER
  5
1FF
100
AcDbSymbolTableRecord
100
AcDbLayerTableRecord
  2
01__ASM_DEF_DTM_PLN
 70
0
 62
7
  6
CONTINUOUS
370
-3
390
F
  0
LAYER
  5
200
100
AcDbSymbolTableRecord
100
AcDbLayerTableRecord
  2
01___PRT_ALL_DTM_PLN
 70
0
 62
7
  6
CONTINUOUS
370
-3
390
F
  0
LAYER
  5
201
100
AcDbSymbolTableRecord
100
AcDbLayerTableRecord
  2
01___PRT_DEF_DTM_PLN
 70
0
 62
7
  6
CONTINUOUS
370
-3
390
F
  0
LAYER
  5
202
100
AcDbSymbolTableRecord
100
AcDbLayerTableRecord
  2
02_ALL_AXES
 70
0
 62
7
  6
CONTINUOUS
370
-3
390
F
  0
LAYER
  5
203
100
AcDbSymbolTableRecord
100
AcDbLayerTableRecord
  2
02__ASM_ALL_AXES
 70
0
 62
7
  6
CONTINUOUS
370
-3
390
F
  0
LAYER
  5
204
100
AcDbSymbolTableRecord
100
AcDbLayerTableRecord
  2
02___PRT_ALL_AXES
 70
0
 62
7
  6
CONTINUOUS
370
-3
390
F
  0
LAYER
  5
205
100
AcDbSymbolTableRecord
100
AcDbLayerTableRecord
  2
03_ALL_CURVES
 70
0
 62
7
  6
CONTINUOUS
370
-3
390
F
  0
LAYER
  5
206
100
AcDbSymbolTableRecord
100
AcDbLayerTableRecord
  2
03__ASM_ALL_CURVES
 70
0
 62
7
  6
CONTINUOUS
370
-3
390
F
  0
LAYER
  5
207
100
AcDbSymbolTableRecord
100
AcDbLayerTableRecord
  2
03___PRT_ALL_CURVES
 70
0
 62
7
  6
CONTINUOUS
370
-3
390
F
  0
LAYER
  5
208
100
AcDbSymbolTableRecord
100
AcDbLayerTableRecord
  2
04_ALL_DTM_PNT
 70
0
 62
7
  6
CONTINUOUS
370
-3
390
F
  0
LAYER
  5
209
100
AcDbSymbolTableRecord
100
AcDbLayerTableRecord
  2
04__ASM_ALL_DTM_PNT
 70
0
 62
7
  6
CONTINUOUS
370
-3
390
F
  0
LAYER
  5
20A
100
AcDbSymbolTableRecord
100
AcDbLayerTableRecord
  2
04___PRT_ALL_DTM_PNT
 70
0
 62
7
  6
CONTINUOUS
370
-3
390
F
  0
LAYER
  5
20B
100
AcDbSymbolTableRecord
100
AcDbLayerTableRecord
  2
05_ALL_DTM_CSYS
 70
0
 62
7
  6
CONTINUOUS
370
-3
390
F
  0
LAYER
  5
20C
100
AcDbSymbolTableRecord
100
AcDbLayerTableRecord
  2
05__ASM_ALL_DTM_CSYS
 70
0
 62
7
  6
CONTINUOUS
370
-3
390
F
  0
LAYER
  5
20D
100
AcDbSymbolTableRecord
100
AcDbLayerTableRecord
  2
05__ASM_DEF_DTM_CSYS
 70
0
 62
7
  6
CONTINUOUS
370
-3
390
F
  0
LAYER
  5
20E
100
AcDbSymbolTableRecord
100
AcDbLayerTableRecord
  2
05___PRT_ALL_DTM_CSYS
 70
0
 62
7
  6
CONTINUOUS
370
-3
390
F
  0
LAYER
  5
20F
100
AcDbSymbolTableRecord
100
AcDbLayerTableRecord
  2
05___PRT_DEF_DTM_CSYS
 70
0
 62
7
  6
CONTINUOUS
370
-3
390
F
  0
LAYER
  5
210
100
AcDbSymbolTableRecord
100
AcDbLayerTableRecord
  2
06_ALL_SURFS
 70
0
 62
7
  6
CONTINUOUS
370
-3
390
F
  0
LAYER
  5
211
100
AcDbSymbolTableRecord
100
AcDbLayerTableRecord
  2
06__ASM_ALL_SURFS
 70
0
 62
7
  6
CONTINUOUS
370
-3
390
F
  0
LAYER
  5
212
100
AcDbSymbolTableRecord
100
AcDbLayerTableRecord
  2
06___PRT_ALL_SURFS
 70
0
 62
7
  6
CONTINUOUS
370
-3
390
F
  0
LAYER
  5
213
100
AcDbSymbolTableRecord
100
AcDbLayerTableRecord
  2
07__ASM_ALL_SKELETONS
 70
0
 62
7
  6
CONTINUOUS
370
-3
390
F
  0
LAYER
  5
214
100
AcDbSymbolTableRecord
100
AcDbLayerTableRecord
  2
LAYER_AXIS
 70
0
 62
7
  6
CONTINUOUS
370
-3
390
F
  0
LAYER
  5
215
100
AcDbSymbolTableRecord
100
AcDbLayerTableRecord
  2
LAYER_CHAMFER_FEAT
 70
0
 62
7
  6
CONTINUOUS
370
-3
390
F
  0
LAYER
  5
216
100
AcDbSymbolTableRecord
100
AcDbLayerTableRecord
  2
LAYER_CUT_FEAT
 70
0
 62
7
  6
CONTINUOUS
370
-3
390
F
  0
LAYER
  5
217
100
AcDbSymbolTableRecord
100
AcDbLayerTableRecord
  2
LAYER_DATUM
 70
0
 62
7
  6
CONTINUOUS
370
-3
390
F
  0
LAYER
  5
218
100
AcDbSymbolTableRecord
100
AcDbLayerTableRecord
  2
LAYER_DIM
 70
0
 62
7
  6
CONTINUOUS
370
-3
390
F
  0
LAYER
  5
219
100
AcDbSymbolTableRecord
100
AcDbLayerTableRecord
  2
LAYER_FEATURE
 70
0
 62
7
  6
CONTINUOUS
370
-3
390
F
  0
LAYER
  5
21A
100
AcDbSymbolTableRecord
100
AcDbLayerTableRecord
  2
LAYER_GEOM_FEAT
 70
0
 62
7
  6
CONTINUOUS
370
-3
390
F
  0
LAYER
  5
21B
100
AcDbSymbolTableRecord
100
AcDbLayerTableRecord
  2
LAYER_NOGEOM_FEAT
 70
0
 62
7
  6
CONTINUOUS
370
-3
390
F
  0
LAYER
  5
21C
100
AcDbSymbolTableRecord
100
AcDbLayerTableRecord
  2
LAYER_PARAMETER_DIM
 70
0
 62
7
  6
CONTINUOUS
370
-3
390
F
  0
LAYER
  5
21D
100
AcDbSymbolTableRecord
100
AcDbLayerTableRecord
  2
LAYER_PROTRUSION_FEAT
 70
0
 62
7
  6
CONTINUOUS
370
-3
390
F
  0
LAYER
  5
21E
100
AcDbSymbolTableRecord
100
AcDbLayerTableRecord
  2
LAYER_QUILT
 70
0
 62
7
  6
CONTINUOUS
370
-3
390
F
  0
LAYER
  5
21F
100
AcDbSymbolTableRecord
100
AcDbLayerTableRecord
  2
LAYER_ROUND_FEAT
 70
0
 62
7
  6
CONTINUOUS
370
-3
390
F
  0
ENDTAB
  0
TABLE
  2
STYLE
  5
3
100
AcDbSymbolTable
 70
1
  0
STYLE
  5
11
100
AcDbSymbolTableRecord
100
AcDbTextStyleTableRecord
  2
STANDARD
 70
0
 40
0.0
 41
0.8
 50
0.0
 71
0
 42
0.2
  3
txt
  4

  0
STYLE
  5
220
100
AcDbSymbolTableRecord
100
AcDbTextStyleTableRecord
  2
TEXTSTYLE_1
 70
0
 40
0.0
 41
0.8
 50
0.0
 71
0
 42
0.2
  3
gdt
  4

  0
ENDTAB
  0
TABLE
  2
VIEW
  5
6
100
AcDbSymbolTable
 70
0
  0
ENDTAB
  0
TABLE
  2
UCS
  5
7
100
AcDbSymbolTable
 70
0
  0
ENDTAB
  0
TABLE
  2
APPID
  5
9
100
AcDbSymbolTable
 70
1
  0
APPID
  5
221
100
AcDbSymbolTableRecord
100
AcDbRegAppTableRecord
  2
ACAD
 70
0
  0
ENDTAB
  0
TABLE
  2
BLOCK_RECORD
  5
1
100
AcDbSymbolTable
 70
0
  0
BLOCK_RECORD
  5
222
100
AcDbSymbolTableRecord
100
AcDbBlockTableRecord
  2
*Model_Space
  0
BLOCK_RECORD
  5
223
100
AcDbSymbolTableRecord
100
AcDbBlockTableRecord
  2
*Paper_Space
  0
ENDTAB
  0
TABLE
  2
DIMSTYLE
  5
A
100
AcDbSymbolTable
 70
1
100
AcDbDimStyleTable
 71
0
  0
DIMSTYLE
105
224
100
AcDbSymbolTableRecord
100
AcDbDimStyleTableRecord
  2
STANDARD
 70
0
  3

  4

 40
1.0
 41
0.1875
 42
0.0625
 43
0.38
 44
0.125
 45
0.0
 46
0.0
 47
0.0001
 48
0.0001
140
0.15625
141
0.09
142
0.0
143
25.4
144
1.0
145
0.0
146
1.0
147
0.09
 71
0.0
 72
0.0
 73
1
 74
1
 75
0
 76
0
 77
0
 78
4
 79
1
170
0
171
3
172
0
173
0
174
0
175
0
176
0
177
0
178
0
270
2
179
4
271
4
272
4
273
2
274
2
275
0
280
0
281
0
282
0
283
1
284
4
285
0
286
0
287
3
288
0
340
11
278
46
  0
ENDTAB
  0
ENDSEC
  0
SECTION
  2
BLOCKS
  0
BLOCK
  5
20
100
AcDbEntity
  8
0
100
AcDbBlockBegin
  2
*Model_Space
 70
0
 10
0.0
 20
0.0
 30
0.0
  3
*Model_Space
  1

  0
ENDBLK
  5
21
100
AcDbEntity
  8
0
100
AcDbBlockEnd
  0
BLOCK
  5
1C
100
AcDbEntity
  8
0
100
AcDbBlockBegin
  2
*Paper_Space
 70
0
 10
0.0
 20
0.0
 30
0.0
  3
*Paper_Space
  1

  0
ENDBLK
  5
1D
100
AcDbEntity
  8
0
100
AcDbBlockEnd
  0
ENDSEC
  0
SECTION
  2
ENTITIES
  0
MTEXT
  5
225
100
AcDbEntity
  8
0
100
AcDbMText
 62
7
  6
CONTINUOUS
  7
STANDARD
 71
1
 72
1
 10
15.9560215477
 20
0.9479130325
 30
0.0
 11
1.0
 21
0.0
 31
0.0
 44
0.9
  1
SCALE: 1:0.250
 40
0.3
 41
3.36
  0
LINE
  5
226
100
AcDbEntity
  8
0
100
AcDbLine
 62
7
  6
CONTINUOUS
 10
0.0
 20
0.0
 11
0.0
 21
17.0
  0
LINE
  5
227
100
AcDbEntity
  8
0
100
AcDbLine
 62
7
  6
CONTINUOUS
 10
0.0
 20
0.0
 11
22.0
 21
0.0
  0
LINE
  5
228
100
AcDbEntity
  8
0
100
AcDbLine
 62
7
  6
CONTINUOUS
 10
0.0
 20
17.0
 11
22.0
 21
17.0
  0
LINE
  5
229
100
AcDbEntity
  8
0
100
AcDbLine
 62
7
  6
CONTINUOUS
 10
22.0
 20
0.0
 11
22.0
 21
17.0
  0
LINE
  5
22A
100
AcDbEntity
  8
LAYER_FEATURE
100
AcDbLine
 62
7
  6
CONTINUOUS
 10
6.1653672762
 20
4.0713698968
 11
6.1346970583
 21
4.0713698968
  0
LINE
  5
22B
100
AcDbEntity
  8
LAYER_FEATURE
100
AcDbLine
 62
7
  6
CONTINUOUS
 10
5.8153672762
 20
4.0713698968
 11
5.846037494
 21
4.0713698968
  0
LINE
  5
22C
100
AcDbEntity
  8
02___PRT_ALL_AXES
100
AcDbLine
 62
7
  6
CONTINUOUS
 10
5.8603672762
 20
4.1522448968
 11
6.1203672762
 21
4.1522448968
  0
LINE
  5
22D
100
AcDbEntity
  8
02___PRT_ALL_AXES
100
AcDbLine
 62
7
  6
CONTINUOUS
 10
6.4296172762
 20
4.4263698968
 11
6.1653672762
 21
4.4263698968
  0
LINE
  5
22E
100
AcDbEntity
  8
LAYER_FEATURE
100
AcDbLine
 62
7
  6
CONTINUOUS
 10
5.8153672762
 20
6.9688698968
 11
5.8153672762
 21
4.0713698968
  0
LINE
  5
22F
100
AcDbEntity
  8
LAYER_FEATURE
100
AcDbLine
 62
7
  6
CONTINUOUS
 10
5.846037494
 20
6.9688698968
 11
5.846037494
 21
4.0713698968
  0
LINE
  5
230
100
AcDbEntity
  8
LAYER_FEATURE
100
AcDbLine
 62
7
  6
CONTINUOUS
 10
6.1346970583
 20
6.9688698968
 11
6.1203672762
 21
6.9014535722
  0
LINE
  5
231
100
AcDbEntity
  8
LAYER_FEATURE
100
AcDbLine
 62
7
  6
CONTINUOUS
 10
6.1346970583
 20
4.0713698968
 11
6.1203672762
 21
4.1387862213
  0
LINE
  5
232
100
AcDbEntity
  8
LAYER_FEATURE
100
AcDbLine
 62
7
  6
CONTINUOUS
 10
5.8603672762
 20
6.9014535722
 11
5.8603672762
 21
4.1387862213
  0
LINE
  5
233
100
AcDbEntity
  8
LAYER_FEATURE
100
AcDbLine
 62
7
  6
CONTINUOUS
 10
6.1203672762
 20
6.9014535722
 11
6.1203672762
 21
4.1387862213
  0
LINE
  5
234
100
AcDbEntity
  8
LAYER_FEATURE
100
AcDbLine
 62
7
  6
CONTINUOUS
 10
6.1346970583
 20
6.9688698968
 11
6.1346970583
 21
4.0713698968
  0
LINE
  5
235
100
AcDbEntity
  8
LAYER_FEATURE
100
AcDbLine
 62
7
  6
CONTINUOUS
 10
6.1653672762
 20
6.9688698968
 11
6.1653672762
 21
4.0713698968
  0
LINE
  5
236
100
AcDbEntity
  8
LAYER_FEATURE
100
AcDbLine
 62
7
  6
CONTINUOUS
 10
5.846037494
 20
4.0713698968
 11
5.8603672762
 21
4.1387862213
  0
LINE
  5
237
100
AcDbEntity
  8
LAYER_FEATURE
100
AcDbLine
 62
7
  6
CONTINUOUS
 10
5.846037494
 20
6.9688698968
 11
5.8603672762
 21
6.9014535722
  0
LINE
  5
238
100
AcDbEntity
  8
02___PRT_ALL_AXES
100
AcDbLine
 62
7
  6
CONTINUOUS
 10
6.4296172762
 20
6.6138698968
 11
6.4296172762
 21
4.4263698968
  0
LINE
  5
239
100
AcDbEntity
  8
02___PRT_ALL_AXES
100
AcDbLine
 62
7
  6
CONTINUOUS
 10
6.4453672762
 20
6.5981198968
 11
6.4453672762
 21
4.4421198968
  0
LINE
  5
23A
100
AcDbEntity
  8
02___PRT_ALL_AXES
100
AcDbLine
 62
7
  6
CONTINUOUS
 10
6.4453672762
 20
4.4421198968
 11
6.4296172762
 21
4.4263698968
  0
LINE
  5
23B
100
AcDbEntity
  8
02___PRT_ALL_AXES
100
AcDbLine
 62
7
  6
CONTINUOUS
 10
6.4453672762
 20
6.5981198968
 11
6.4296172762
 21
6.6138698968
  0
LINE
  5
23C
100
AcDbEntity
  8
02___PRT_ALL_AXES
100
AcDbLine
 62
7
  6
CONTINUOUS
 10
6.4296172762
 20
6.6138698968
 11
6.1653672762
 21
6.6138698968
  0
LINE
  5
23D
100
AcDbEntity
  8
LAYER_FEATURE
100
AcDbLine
 62
7
  6
CONTINUOUS
 10
5.8603672762
 20
6.8093294847
 11
6.1203672762
 21
6.8093294847
  0
LINE
  5
23E
100
AcDbEntity
  8
0
100
AcDbLine
 62
7
  6
CONTINUOUS
 10
5.8603672762
 20
6.8097352187
 11
6.1203672762
 21
6.8097352187
  0
LINE
  5
23F
100
AcDbEntity
  8
LAYER_FEATURE
100
AcDbLine
 62
7
  6
CONTINUOUS
 10
5.8603672762
 20
6.8428578858
 11
6.1203672762
 21
6.8428578858
  0
LINE
  5
240
100
AcDbEntity
  8
LAYER_FEATURE
100
AcDbLine
 62
7
  6
CONTINUOUS
 10
5.8603672762
 20
6.8484443141
 11
6.1203672762
 21
6.8484443141
  0
LINE
  5
241
100
AcDbEntity
  8
0
100
AcDbLine
 62
7
  6
CONTINUOUS
 10
5.8603672762
 20
6.84862539
 11
6.1203672762
 21
6.84862539
  0
LINE
  5
242
100
AcDbEntity
  8
LAYER_FEATURE
100
AcDbLine
 62
7
  6
CONTINUOUS
 10
5.8603672762
 20
6.8709834379
 11
6.1203672762
 21
6.8709834379
  0
LINE
  5
243
100
AcDbEntity
  8
LAYER_FEATURE
100
AcDbLine
 62
7
  6
CONTINUOUS
 10
5.8603672762
 20
6.8743576586
 11
6.1203672762
 21
6.8743576586
  0
LINE
  5
244
100
AcDbEntity
  8
0
100
AcDbLine
 62
7
  6
CONTINUOUS
 10
5.8603672762
 20
6.8744030403
 11
6.1203672762
 21
6.8744030403
  0
LINE
  5
245
100
AcDbEntity
  8
LAYER_FEATURE
100
AcDbLine
 62
7
  6
CONTINUOUS
 10
5.8603672762
 20
6.8856835012
 11
6.1203672762
 21
6.8856835012
  0
LINE
  5
246
100
AcDbEntity
  8
LAYER_FEATURE
100
AcDbLine
 62
7
  6
CONTINUOUS
 10
5.8603672762
 20
6.8868119798
 11
6.1203672762
 21
6.8868119798
  0
LINE
  5
247
100
AcDbEntity
  8
LAYER_FEATURE
100
AcDbLine
 62
7
  6
CONTINUOUS
 10
6.1653672762
 20
6.9688698968
 11
6.1346970583
 21
6.9688698968
  0
LINE
  5
248
100
AcDbEntity
  8
LAYER_FEATURE
100
AcDbLine
 62
7
  6
CONTINUOUS
 10
5.8153672762
 20
6.9688698968
 11
5.846037494
 21
6.9688698968
  0
LINE
  5
249
100
AcDbEntity
  8
LAYER_FEATURE
100
AcDbLine
 62
7
  6
CONTINUOUS
 10
5.7558720839
 20
11.1512977814
 11
5.7865423017
 21
11.1512977814
  0
LINE
  5
24A
100
AcDbEntity
  8
LAYER_FEATURE
100
AcDbLine
 62
7
  6
CONTINUOUS
 10
6.075201866
 20
11.1512977814
 11
6.1058720839
 21
11.1512977814
  0
LINE
  5
24B
100
AcDbEntity
  8
02___PRT_ALL_AXES
100
AcDbLine
 62
7
  6
CONTINUOUS
 10
5.8008720839
 20
11.2321727814
 11
6.0608720839
 21
11.2321727814
  0
LINE
  5
24C
100
AcDbEntity
  8
02___PRT_ALL_AXES
100
AcDbLine
 62
7
  6
CONTINUOUS
 10
6.1058720839
 20
11.5062977814
 11
6.3701220839
 21
11.5062977814
  0
LINE
  5
24D
100
AcDbEntity
  8
LAYER_FEATURE
100
AcDbLine
 62
7
  6
CONTINUOUS
 10
5.8008720839
 20
12.1428600147
 11
6.0608720839
 21
12.1428600147
  0
LINE
  5
24E
100
AcDbEntity
  8
LAYER_FEATURE
100
AcDbLine
 62
7
  6
CONTINUOUS
 10
6.0608720839
 20
12.1997028129
 11
5.8008720839
 21
12.1997028129
  0
LINE
  5
24F
100
AcDbEntity
  8
LAYER_FEATURE
100
AcDbLine
 62
7
  6
CONTINUOUS
 10
5.7558720839
 20
11.1512977814
 11
5.7558720839
 21
14.0487977814
  0
LINE
  5
250
100
AcDbEntity
  8
LAYER_FEATURE
100
AcDbLine
 62
7
  6
CONTINUOUS
 10
5.7865423017
 20
11.1512977814
 11
5.7865423017
 21
14.0487977814
  0
LINE
  5
251
100
AcDbEntity
  8
LAYER_FEATURE
100
AcDbLine
 62
7
  6
CONTINUOUS
 10
6.0608720839
 20
13.9813814568
 11
6.075201866
 21
14.0487977814
  0
LINE
  5
252
100
AcDbEntity
  8
LAYER_FEATURE
100
AcDbLine
 62
7
  6
CONTINUOUS
 10
6.0608720839
 20
12.228369997
 11
5.8008720839
 21
12.228369997
  0
LINE
  5
253
100
AcDbEntity
  8
LAYER_FEATURE
100
AcDbLine
 62
7
  6
CONTINUOUS
 10
5.8008720839
 20
12.2515564214
 11
6.0608720839
 21
12.2515564214
  0
LINE
  5
254
100
AcDbEntity
  8
LAYER_FEATURE
100
AcDbLine
 62
7
  6
CONTINUOUS
 10
5.8008720839
 20
12.2734957059
 11
6.0608720839
 21
12.2734957059
  0
LINE
  5
255
100
AcDbEntity
  8
LAYER_FEATURE
100
AcDbLine
 62
7
  6
CONTINUOUS
 10
6.0608720839
 20
11.218714106
 11
6.075201866
 21
11.1512977814
  0
LINE
  5
256
100
AcDbEntity
  8
LAYER_FEATURE
100
AcDbLine
 62
7
  6
CONTINUOUS
 10
5.8008720839
 20
11.2187141957
 11
5.8008720839
 21
13.9813813671
  0
LINE
  5
257
100
AcDbEntity
  8
LAYER_FEATURE
100
AcDbLine
 62
7
  6
CONTINUOUS
 10
6.0608720839
 20
12.3258530049
 11
5.8008720839
 21
12.3258530049
  0
LINE
  5
258
100
AcDbEntity
  8
LAYER_FEATURE
100
AcDbLine
 62
7
  6
CONTINUOUS
 10
6.0608720839
 20
12.3552581796
 11
5.8008720839
 21
12.3552581796
  0
LINE
  5
259
100
AcDbEntity
  8
LAYER_FEATURE
100
AcDbLine
 62
7
  6
CONTINUOUS
 10
5.8008720839
 20
12.3849903264
 11
6.0608720839
 21
12.3849903264
  0
LINE
  5
25A
100
AcDbEntity
  8
LAYER_FEATURE
100
AcDbLine
 62
7
  6
CONTINUOUS
 10
5.8008720839
 20
12.4073768183
 11
6.0608720839
 21
12.4073768183
  0
LINE
  5
25B
100
AcDbEntity
  8
LAYER_FEATURE
100
AcDbLine
 62
7
  6
CONTINUOUS
 10
6.0608720839
 20
12.4547282678
 11
5.8008720839
 21
12.4547282678
  0
LINE
  5
25C
100
AcDbEntity
  8
LAYER_FEATURE
100
AcDbLine
 62
7
  6
CONTINUOUS
 10
6.0608720839
 20
12.4845791911
 11
5.8008720839
 21
12.4845791911
  0
LINE
  5
25D
100
AcDbEntity
  8
LAYER_FEATURE
100
AcDbLine
 62
7
  6
CONTINUOUS
 10
6.0608720839
 20
11.218714106
 11
6.0608720839
 21
13.9813814568
  0
LINE
  5
25E
100
AcDbEntity
  8
LAYER_FEATURE
100
AcDbLine
 62
7
  6
CONTINUOUS
 10
6.075201866
 20
11.1512977814
 11
6.075201866
 21
14.0487977814
  0
LINE
  5
25F
100
AcDbEntity
  8
LAYER_FEATURE
100
AcDbLine
 62
7
  6
CONTINUOUS
 10
5.8008720839
 20
12.520561569
 11
6.0608720839
 21
12.520561569
  0
LINE
  5
260
100
AcDbEntity
  8
LAYER_FEATURE
100
AcDbLine
 62
7
  6
CONTINUOUS
 10
5.8008720839
 20
12.5431727814
 11
6.0608720839
 21
12.5431727814
  0
LINE
  5
261
100
AcDbEntity
  8
LAYER_FEATURE
100
AcDbLine
 62
7
  6
CONTINUOUS
 10
6.0608720839
 20
12.5850477814
 11
5.8008720839
 21
12.5850477814
  0
LINE
  5
262
100
AcDbEntity
  8
LAYER_FEATURE
100
AcDbLine
 62
7
  6
CONTINUOUS
 10
6.1058720839
 20
11.1512977814
 11
6.1058720839
 21
14.0487977814
  0
LINE
  5
263
100
AcDbEntity
  8
LAYER_FEATURE
100
AcDbLine
 62
7
  6
CONTINUOUS
 10
5.7865423017
 20
11.1512977814
 11
5.8008720839
 21
11.218714106
  0
LINE
  5
264
100
AcDbEntity
  8
LAYER_FEATURE
100
AcDbLine
 62
7
  6
CONTINUOUS
 10
6.0608720839
 20
12.6150477814
 11
5.8008720839
 21
12.6150477814
  0
LINE
  5
265
100
AcDbEntity
  8
LAYER_FEATURE
100
AcDbLine
 62
7
  6
CONTINUOUS
 10
5.8008720839
 20
12.6569227814
 11
6.0608720839
 21
12.6569227814
  0
LINE
  5
266
100
AcDbEntity
  8
LAYER_FEATURE
100
AcDbLine
 62
7
  6
CONTINUOUS
 10
5.7865423017
 20
14.0487977814
 11
5.8008720839
 21
13.9813814568
  0
LINE
  5
267
100
AcDbEntity
  8
02___PRT_ALL_AXES
100
AcDbLine
 62
7
  6
CONTINUOUS
 10
6.3701220839
 20
11.5062977814
 11
6.3701220839
 21
13.6937977814
  0
LINE
  5
268
100
AcDbEntity
  8
02___PRT_ALL_AXES
100
AcDbLine
 62
7
  6
CONTINUOUS
 10
6.3858720839
 20
11.5220478032
 11
6.3858720839
 21
13.6780477595
  0
LINE
  5
269
100
AcDbEntity
  8
02___PRT_ALL_AXES
100
AcDbLine
 62
7
  6
CONTINUOUS
 10
6.3701220839
 20
11.5062977814
 11
6.3858720839
 21
11.5220477814
  0
LINE
  5
26A
100
AcDbEntity
  8
02___PRT_ALL_AXES
100
AcDbLine
 62
7
  6
CONTINUOUS
 10
6.3701220839
 20
13.6937977814
 11
6.3858720839
 21
13.6780477814
  0
LINE
  5
26B
100
AcDbEntity
  8
02___PRT_ALL_AXES
100
AcDbLine
 62
7
  6
CONTINUOUS
 10
6.1058720839
 20
13.6937977814
 11
6.3701220839
 21
13.6937977814
  0
LINE
  5
26C
100
AcDbEntity
  8
02___PRT_ALL_AXES
100
AcDbLine
 62
7
  6
CONTINUOUS
 10
5.8008720839
 20
13.9679227814
 11
6.0608720839
 21
13.9679227814
  0
LINE
  5
26D
100
AcDbEntity
  8
LAYER_FEATURE
100
AcDbLine
 62
7
  6
CONTINUOUS
 10
5.7558720839
 20
14.0487977814
 11
5.7865423017
 21
14.0487977814
  0
LINE
  5
26E
100
AcDbEntity
  8
LAYER_FEATURE
100
AcDbLine
 62
7
  6
CONTINUOUS
 10
6.075201866
 20
14.0487977814
 11
6.1058720839
 21
14.0487977814
  0
LINE
  5
26F
100
AcDbEntity
  8
LAYER_FEATURE
100
AcDbLine
 62
7
  6
CONTINUOUS
 10
15.2531393971
 20
11.0620549929
 11
15.2813885385
 21
11.0620549929
  0
LINE
  5
270
100
AcDbEntity
  8
LAYER_FEATURE
100
AcDbLine
 62
7
  6
CONTINUOUS
 10
15.5472616037
 20
11.0620549929
 11
15.575510745
 21
11.0620549929
  0
LINE
  5
271
100
AcDbEntity
  8
02___PRT_ALL_AXES
100
AcDbLine
 62
7
  6
CONTINUOUS
 10
15.2945871419
 20
11.1429299929
 11
15.3614889744
 21
11.1429299929
  0
LINE
  5
272
100
AcDbEntity
  8
02___PRT_ALL_AXES
100
AcDbLine
 62
7
  6
CONTINUOUS
 10
15.5709054401
 20
11.4170549929
 11
15.8189011127
 21
11.4170549929
  0
LINE
  5
273
100
AcDbEntity
  8
02___PRT_ALL_AXES
100
AcDbLine
 62
7
  6
CONTINUOUS
 10
15.4491118779
 20
13.7189799214
 11
15.4410582722
 21
13.7136262456
  0
LINE
  5
274
100
AcDbEntity
  8
02___PRT_ALL_AXES
100
AcDbLine
 62
7
  6
CONTINUOUS
 10
15.4491118779
 20
11.3026300644
 11
15.4410582722
 21
11.3079837402
  0
LINE
  5
275
100
AcDbEntity
  8
LAYER_FEATURE
100
AcDbLine
 62
7
  6
CONTINUOUS
 10
14.8623680583
 20
13.2060590874
 11
14.8686827907
 21
13.2312988898
  0
LINE
  5
276
100
AcDbEntity
  8
LAYER_FEATURE
100
AcDbLine
 62
7
  6
CONTINUOUS
 10
14.8933716068
 20
13.319258367
 11
14.8987353082
 21
13.336615311
  0
LINE
  5
277
100
AcDbEntity
  8
LAYER_FEATURE
100
AcDbLine
 62
7
  6
CONTINUOUS
 10
14.8172908699
 20
12.9723496589
 11
14.8215328498
 21
13.0003021184
  0
LINE
  5
278
100
AcDbEntity
  8
LAYER_FEATURE
100
AcDbLine
 62
7
  6
CONTINUOUS
 10
14.8375583856
 20
13.0920929235
 11
14.842863102
 21
13.1188218766
  0
LINE
  5
279
100
AcDbEntity
  8
LAYER_FEATURE
100
AcDbLine
 62
7
  6
CONTINUOUS
 10
14.8159154643
 20
13.030071733
 11
14.8076181282
 21
13.0500752394
  0
LINE
  5
27A
100
AcDbEntity
  8
LAYER_FEATURE
100
AcDbLine
 62
7
  6
CONTINUOUS
 10
14.8384279041
 20
13.1498798321
 11
14.8309474062
 21
13.1719054285
  0
LINE
  5
27B
100
AcDbEntity
  8
LAYER_FEATURE
100
AcDbLine
 62
7
  6
CONTINUOUS
 10
14.8654738593
 20
13.2633365184
 11
14.8588845442
 21
13.2871653045
  0
LINE
  5
27C
100
AcDbEntity
  8
LAYER_FEATURE
100
AcDbLine
 62
7
  6
CONTINUOUS
 10
14.8967845352
 20
13.3693142082
 11
14.8911518904
 21
13.394709363
  0
LINE
  5
27D
100
AcDbEntity
  8
LAYER_FEATURE
100
AcDbLine
 62
7
  6
CONTINUOUS
 10
14.7906544809
 20
12.9540630436
 11
15.0101684168
 21
12.9540630436
  0
LINE
  5
27E
100
AcDbEntity
  8
LAYER_FEATURE
100
AcDbLine
 62
7
  6
CONTINUOUS
 10
14.793930225
 20
12.9598790163
 11
14.8053105147
 21
12.9601905845
  0
LINE
  5
27F
100
AcDbEntity
  8
LAYER_FEATURE
100
AcDbLine
 62
7
  6
CONTINUOUS
 10
15.0125837484
 20
12.9723496589
 11
14.8172908699
 21
12.9723496589
  0
LINE
  5
280
100
AcDbEntity
  8
LAYER_FEATURE
100
AcDbLine
 62
7
  6
CONTINUOUS
 10
15.0163460055
 20
13.0003021184
 11
14.8215328498
 21
13.0003021184
  0
LINE
  5
281
100
AcDbEntity
  8
LAYER_FEATURE
100
AcDbLine
 62
7
  6
CONTINUOUS
 10
14.8067386544
 20
13.0600494522
 11
15.0252468558
 21
13.0600494522
  0
LINE
  5
282
100
AcDbEntity
  8
LAYER_FEATURE
100
AcDbLine
 62
7
  6
CONTINUOUS
 10
14.8103453218
 20
13.0807076637
 11
15.0286782869
 21
13.0807076637
  0
LINE
  5
283
100
AcDbEntity
  8
0
100
AcDbLine
 62
7
  6
CONTINUOUS
 10
14.813513938
 20
13.0856933859
 11
15.0295274767
 21
13.0856933859
  0
LINE
  5
284
100
AcDbEntity
  8
LAYER_FEATURE
100
AcDbLine
 62
7
  6
CONTINUOUS
 10
15.0306174736
 20
13.0920929235
 11
14.8375583856
 21
13.0920929235
  0
LINE
  5
285
100
AcDbEntity
  8
LAYER_FEATURE
100
AcDbLine
 62
7
  6
CONTINUOUS
 10
15.0351923643
 20
13.1188218766
 11
14.842863102
 21
13.1188218766
  0
LINE
  5
286
100
AcDbEntity
  8
LAYER_FEATURE
100
AcDbLine
 62
7
  6
CONTINUOUS
 10
14.8304590383
 20
13.1820549442
 11
15.0473963328
 21
13.1820549442
  0
LINE
  5
287
100
AcDbEntity
  8
LAYER_FEATURE
100
AcDbLine
 62
7
  6
CONTINUOUS
 10
14.8348487755
 20
13.201688335
 11
15.0514925423
 21
13.201688335
  0
LINE
  5
288
100
AcDbEntity
  8
0
100
AcDbLine
 62
7
  6
CONTINUOUS
 10
14.8378408585
 20
13.2058845009
 11
15.0523680087
 21
13.2058845009
  0
LINE
  5
289
100
AcDbEntity
  8
LAYER_FEATURE
100
AcDbLine
 62
7
  6
CONTINUOUS
 10
15.0524044335
 20
13.2060590874
 11
14.8623680583
 21
13.2060590874
  0
LINE
  5
28A
100
AcDbEntity
  8
LAYER_FEATURE
100
AcDbLine
 62
7
  6
CONTINUOUS
 10
15.0578957522
 20
13.2312988898
 11
14.8686827907
 21
13.2312988898
  0
LINE
  5
28B
100
AcDbEntity
  8
LAYER_FEATURE
100
AcDbLine
 62
7
  6
CONTINUOUS
 10
14.8587921358
 20
13.2973892527
 11
15.0736182431
 21
13.2973892527
  0
LINE
  5
28C
100
AcDbEntity
  8
LAYER_FEATURE
100
AcDbLine
 62
7
  6
CONTINUOUS
 10
14.8639213156
 20
13.3158026973
 11
15.0782282906
 21
13.3158026973
  0
LINE
  5
28D
100
AcDbEntity
  8
0
100
AcDbLine
 62
7
  6
CONTINUOUS
 10
14.8667071287
 20
13.319258367
 11
15.0791138317
 21
13.319258367
  0
LINE
  5
28E
100
AcDbEntity
  8
LAYER_FEATURE
100
AcDbLine
 62
7
  6
CONTINUOUS
 10
15.0838494401
 20
13.336615311
 11
14.8987353082
 21
13.336615311
  0
LINE
  5
28F
100
AcDbEntity
  8
LAYER_FEATURE
100
AcDbLine
 62
7
  6
CONTINUOUS
 10
14.8914563599
 20
13.4049061333
 11
15.1034172681
 21
13.4049061333
  0
LINE
  5
290
100
AcDbEntity
  8
02___PRT_ALL_AXES
100
AcDbLine
 62
7
  6
CONTINUOUS
 10
15.9989798691
 20
11.5196201056
 11
16.0108934456
 21
11.533893168
  0
LINE
  5
291
100
AcDbEntity
  8
02___PRT_ALL_AXES
100
AcDbLine
 62
7
  6
CONTINUOUS
 10
15.5709054401
 20
13.6045549929
 11
15.8189011127
 21
13.6045549929
  0
LINE
  5
292
100
AcDbEntity
  8
02___PRT_ALL_AXES
100
AcDbLine
 62
7
  6
CONTINUOUS
 10
15.9989798691
 20
13.5019898802
 11
16.0108934456
 21
13.4877168178
  0
LINE
  5
293
100
AcDbEntity
  8
02___PRT_ALL_AXES
100
AcDbLine
 62
7
  6
CONTINUOUS
 10
15.2945871419
 20
13.8786799929
 11
15.3616166061
 21
13.8786799929
  0
LINE
  5
294
100
AcDbEntity
  8
LAYER_FEATURE
100
AcDbLine
 62
7
  6
CONTINUOUS
 10
15.2531393971
 20
13.9595549929
 11
15.2813885385
 21
13.9595549929
  0
LINE
  5
295
100
AcDbEntity
  8
LAYER_FEATURE
100
AcDbLine
 62
7
  6
CONTINUOUS
 10
15.5472616037
 20
13.9595549929
 11
15.575510745
 21
13.9595549929
  0
CIRCLE
  5
296
100
AcDbEntity
  8
LAYER_FEATURE
100
AcDbCircle
 62
7
  6
CONTINUOUS
 10
15.5603552569
 20
5.4606247044
 40
1.44875
  0
CIRCLE
  5
297
100
AcDbEntity
  8
LAYER_FEATURE
100
AcDbCircle
 62
7
  6
CONTINUOUS
 10
15.5603552569
 20
5.4606247044
 40
1.3813336754
  0
CIRCLE
  5
298
100
AcDbEntity
  8
02___PRT_ALL_AXES
100
AcDbCircle
 62
7
  6
CONTINUOUS
 10
15.5603552569
 20
5.4606247044
 40
1.248
  0
CIRCLE
  5
299
100
AcDbEntity
  8
02___PRT_ALL_AXES
100
AcDbCircle
 62
7
  6
CONTINUOUS
 10
15.5603552569
 20
5.4606247044
 40
1.09375
  0
CIRCLE
  5
29A
100
AcDbEntity
  8
02___PRT_ALL_AXES
100
AcDbCircle
 62
7
  6
CONTINUOUS
 10
15.5603552569
 20
5.4606247044
 40
1.078
  0
ARC
  5
29B
100
AcDbEntity
  8
02___PRT_ALL_AXES
100
AcDbCircle
 62
7
  6
CONTINUOUS
 10
15.5603552569
 20
5.4606247044
 40
0.625
100
AcDbArc
 50
61.4843384185
 51
139.5156615815
  0
ARC
  5
29C
100
AcDbEntity
  8
02___PRT_ALL_AXES
100
AcDbCircle
 62
7
  6
CONTINUOUS
 10
15.5603552569
 20
5.4606247044
 40
0.625
100
AcDbArc
 50
22.4843384185
 51
50.5156615815
  0
ARC
  5
29D
100
AcDbEntity
  8
02___PRT_ALL_AXES
100
AcDbCircle
 62
7
  6
CONTINUOUS
 10
15.5603552569
 20
5.4606247044
 40
0.625
100
AcDbArc
 50
231.4843384185
 51
259.5156615815
  0
ARC
  5
29E
100
AcDbEntity
  8
02___PRT_ALL_AXES
100
AcDbCircle
 62
7
  6
CONTINUOUS
 10
15.5603552569
 20
5.4606247044
 40
0.625
100
AcDbArc
 50
150.4843384185
 51
220.5156615815
  0
ARC
  5
29F
100
AcDbEntity
  8
02___PRT_ALL_AXES
100
AcDbCircle
 62
7
  6
CONTINUOUS
 10
15.5603552569
 20
5.4606247044
 40
0.625
100
AcDbArc
 50
270.4843384185
 51
11.5156615815
  0
ARC
  5
2A0
100
AcDbEntity
  8
02___PRT_ALL_AXES
100
AcDbCircle
 62
7
  6
CONTINUOUS
 10
15.5603552569
 20
5.4606247044
 40
0.6031478713
100
AcDbArc
 50
50.0634202313
 51
61.9365797687
  0
ARC
  5
2A1
100
AcDbEntity
  8
02___PRT_ALL_AXES
100
AcDbCircle
 62
7
  6
CONTINUOUS
 10
15.5603552569
 20
5.4606247044
 40
0.6031478713
100
AcDbArc
 50
220.0634202313
 51
231.9365797687
  0
ARC
  5
2A2
100
AcDbEntity
  8
02___PRT_ALL_AXES
100
AcDbCircle
 62
7
  6
CONTINUOUS
 10
15.5603552569
 20
5.4606247044
 40
0.5812957425
100
AcDbArc
 50
22.6434126524
 51
139.3565873476
  0
ARC
  5
2A3
100
AcDbEntity
  8
02___PRT_ALL_AXES
100
AcDbCircle
 62
7
  6
CONTINUOUS
 10
15.5603552569
 20
5.4606247044
 40
0.5812957425
100
AcDbArc
 50
150.6434126524
 51
259.3565873476
  0
ARC
  5
2A4
100
AcDbEntity
  8
02___PRT_ALL_AXES
100
AcDbCircle
 62
7
  6
CONTINUOUS
 10
15.5603552569
 20
5.4606247044
 40
0.5812957425
100
AcDbArc
 50
270.6434126524
 51
11.3565873476
  0
ARC
  5
2A5
100
AcDbEntity
  8
02___PRT_ALL_AXES
100
AcDbCircle
 62
7
  6
CONTINUOUS
 10
15.8979679724
 20
5.9611561389
 40
0.0625
100
AcDbArc
 50
322.4804512298
 51
149.5195487702
  0
ARC
  5
2A6
100
AcDbEntity
  8
02___PRT_ALL_AXES
100
AcDbCircle
 62
7
  6
CONTINUOUS
 10
15.1409552658
 20
5.0263233
 40
0.0625
100
AcDbArc
 50
132.4804512297
 51
319.5195487703
  0
ARC
  5
2A7
100
AcDbEntity
  8
02___PRT_ALL_AXES
100
AcDbCircle
 62
7
  6
CONTINUOUS
 10
16.1377242533
 20
5.6371441212
 40
0.0625
100
AcDbArc
 50
263.1497787953
 51
130.8502212047
  0
ARC
  5
2A8
100
AcDbEntity
  8
02___PRT_ALL_AXES
100
AcDbCircle
 62
7
  6
CONTINUOUS
 10
15.5077349773
 20
4.8591721555
 40
0.0625
100
AcDbArc
 50
151.1497787952
 51
18.8502212048
  0
ARC
  5
2A9
100
AcDbEntity
  8
02___PRT_ALL_AXES
100
AcDbCircle
 62
7
  6
CONTINUOUS
 10
15.0657922102
 20
5.8069214779
 40
0.0625
100
AcDbArc
 50
31.1497787952
 51
258.8502212048
  0
ARC
  5
2AA
100
AcDbEntity
  8
02___PRT_ALL_AXES
100
AcDbCircle
 62
7
  6
CONTINUOUS
 10
12.8172140589
 20
-25.7913761321
 40
37.8182318649
100
AcDbArc
 50
85.3419798202
 51
85.5310329765
  0
ARC
  5
2AB
100
AcDbEntity
  8
02___PRT_ALL_AXES
100
AcDbCircle
 62
7
  6
CONTINUOUS
 10
17.9787704434
 20
-19.7796203485
 40
32.9569722952
100
AcDbArc
 50
93.6158469204
 51
93.897267258
  0
ARC
  5
2AC
100
AcDbEntity
  8
02___PRT_ALL_AXES
100
AcDbCircle
 62
7
  6
CONTINUOUS
 10
14.2358201779
 20
34.0011347621
 40
21.002592618
100
AcDbArc
 50
274.0273142674
 51
274.6640109417
  0
ARC
  5
2AD
100
AcDbEntity
  8
LAYER_FEATURE
100
AcDbCircle
 62
7
  6
CONTINUOUS
 10
17.5544201992
 20
12.5909822878
 40
2.7874321295
100
AcDbArc
 50
169.8811559092
 51
170.3122102587
  0
ARC
  5
2AE
100
AcDbEntity
  8
LAYER_FEATURE
100
AcDbCircle
 62
7
  6
CONTINUOUS
 10
17.2334935078
 20
12.6550792425
 40
2.4601378116
100
AcDbArc
 50
167.1625183846
 51
167.6310645386
  0
ARC
  5
2AF
100
AcDbEntity
  8
LAYER_FEATURE
100
AcDbCircle
 62
7
  6
CONTINUOUS
 10
16.8931166874
 20
12.7406365734
 40
2.1091348765
100
AcDbArc
 50
164.1748616484
 51
164.6941185809
  0
ARC
  5
2B0
100
AcDbEntity
  8
02___PRT_ALL_AXES
100
AcDbCircle
 62
7
  6
CONTINUOUS
 10
15.676487427
 20
13.2089007459
 40
0.4353915327
100
AcDbArc
 50
39.820168085
 51
42.2713250915
  0
ARC
  5
2B1
100
AcDbEntity
  8
02___PRT_ALL_AXES
100
AcDbCircle
 62
7
  6
CONTINUOUS
 10
15.6764906088
 20
11.8127064841
 40
0.435387324
100
AcDbArc
 50
317.7283295822
 51
320.1798423252
  0
ARC
  5
2B2
100
AcDbEntity
  8
02___PRT_ALL_AXES
100
AcDbCircle
 62
7
  6
CONTINUOUS
 10
15.83340898
 20
11.9807413842
 40
0.0949363607
100
AcDbArc
 50
265.6524473321
 51
275.3430997865
  0
ARC
  5
2B3
100
AcDbEntity
  8
LAYER_FEATURE
100
AcDbCircle
 62
7
  6
CONTINUOUS
 10
14.8394891617
 20
13.2208330944
 40
0.0272344487
100
AcDbArc
 50
326.6763040128
 51
327.1477189347
  0
SPLINE
  5
2B4
100
AcDbEntity
  8
02___PRT_ALL_AXES
100
AcDbSpline
 62
7
  6
CONTINUOUS
 70
0
 71
3
 72
33
 73
29
 74
0
 42
0.0000001
 43
0.0000001
 44
0.0000000001
 40
0.0
 40
0.0
 40
0.0
 40
0.0
 40
0.0264982366
 40
0.0548840202
 40
0.0850824987
 40
0.1169907315
 40
0.1504808726
 40
0.1854053707
 40
0.2588743619
 40
0.3359467931
 40
0.4150132917
 40
0.4943891004
 40
0.5723779875
 40
0.6473355941
 40
0.6832006006
 40
0.7177492338
 40
0.7508214468
 40
0.7822747069
 40
0.8119875492
 40
0.8398639506
 40
0.865838911
 40
0.8898857646
 40
0.9120258975
 40
0.9323414834
 40
0.9509914339
 40
0.9682283159
 40
0.9844111834
 40
1.0
 40
1.0
 40
1.0
 40
1.0
 10
15.5945596512
 20
12.3906729112
 30
0.0
 10
15.5940028178
 20
12.3897201018
 30
0.0
 10
15.5929256009
 20
12.3877015358
 30
0.0
 10
15.5914615595
 20
12.3844724748
 30
0.0
 10
15.5901015167
 20
12.3809556599
 30
0.0
 10
15.5888540781
 20
12.377173174
 30
0.0
 10
15.5877269774
 20
12.373148453
 30
0.0
 10
15.5863715128
 20
12.3673954547
 30
0.0
 10
15.5850409989
 20
12.3597790664
 30
0.0
 10
15.5840369362
 20
12.3502628111
 30
0.0
 10
15.5836257718
 20
12.3404564303
 30
0.0
 10
15.5838179871
 20
12.3306052258
 30
0.0
 10
15.5846087488
 20
12.3209556332
 30
0.0
 10
15.585765669
 20
12.3131705393
 30
0.0
 10
15.5869872373
 20
12.3072393757
 30
0.0
 10
15.5880222881
 20
12.3030542978
 30
0.0
 10
15.5891829361
 20
12.2990932842
 30
0.0
 10
15.5904619241
 20
12.2953810462
 30
0.0
 10
15.5918512217
 20
12.2919406905
 30
0.0
 10
15.5933422145
 20
12.288793493
 30
0.0
 10
15.5949258102
 20
12.2859587659
 30
0.0
 10
15.5965926284
 20
12.2834537432
 30
0.0
 10
15.5983332355
 20
12.2812935712
 30
0.0
 10
15.6001384751
 20
12.2794914762
 30
0.0
 10
15.6019994967
 20
12.2780593387
 30
0.0
 10
15.6039078963
 20
12.2770085719
 30
0.0
 10
15.6058522578
 20
12.2763510219
 30
0.0
 10
15.607175291
 20
12.2761806494
 30
0.0
 10
15.6078243351
 20
12.2761648015
 30
0.0
  0
SPLINE
  5
2B5
100
AcDbEntity
  8
02___PRT_ALL_AXES
100
AcDbSpline
 62
7
  6
CONTINUOUS
 70
0
 71
3
 72
22
 73
18
 74
0
 42
0.0000001
 43
0.0000001
 44
0.0000000001
 40
0.0
 40
0.0
 40
0.0
 40
0.0
 40
0.1761132572
 40
0.2596599601
 40
0.3397839432
 40
0.416216264
 40
0.4887311164
 40
0.5571493218
 40
0.6213489097
 40
0.6812768487
 40
0.7369644443
 40
0.7885471506
 40
0.8362890035
 40
0.8806102107
 40
0.9221122669
 40
0.9615881604
 40
1.0
 40
1.0
 40
1.0
 40
1.0
 10
15.8422494139
 20
11.8862175284
 30
0.0
 10
15.8427177909
 20
11.8835997945
 30
0.0
 10
15.843529585
 20
11.8797595992
 30
0.0
 10
15.8448703328
 20
11.8748061401
 30
0.0
 10
15.8459566604
 20
11.8713460167
 30
0.0
 10
15.8471358036
 20
11.8680929712
 30
0.0
 10
15.8484018645
 20
11.8650632439
 30
0.0
 10
15.8497485228
 20
11.8622719457
 30
0.0
 10
15.851169148
 20
11.859732901
 30
0.0
 10
15.8526568878
 20
11.8574586034
 30
0.0
 10
15.854204798
 20
11.8554601928
 30
0.0
 10
15.855805973
 20
11.853747517
 30
0.0
 10
15.8574536962
 20
11.8523293307
 30
0.0
 10
15.8591412785
 20
11.8512136824
 30
0.0
 10
15.8608619584
 20
11.8504083706
 30
0.0
 10
15.8626065143
 20
11.8499209813
 30
0.0
 10
15.8637853027
 20
11.8498116178
 30
0.0
 10
15.8643653206
 20
11.8498116199
 30
0.0
  0
SPLINE
  5
2B6
100
AcDbEntity
  8
02___PRT_ALL_AXES
100
AcDbSpline
 62
7
  6
CONTINUOUS
 70
0
 71
3
 72
14
 73
10
 74
0
 42
0.0000001
 43
0.0000001
 44
0.0000000001
 40
0.0
 40
0.0
 40
0.0
 40
0.0
 40
0.2923362662
 40
0.42550925
 40
0.5509150329
 40
0.6696032459
 40
0.782905771
 40
0.8924290403
 40
1.0
 40
1.0
 40
1.0
 40
1.0
 10
15.9933459948
 20
12.0396978396
 30
0.0
 10
15.9941308164
 20
12.0387007837
 30
0.0
 10
15.995371799
 20
12.0373185149
 30
0.0
 10
15.9972012189
 20
12.0357738306
 30
0.0
 10
15.9985558993
 20
12.0348480588
 30
0.0
 10
15.9999314315
 20
12.0341228554
 30
0.0
 10
16.0013238336
 20
12.0336016234
 30
0.0
 10
16.0027277984
 20
12.0332874322
 30
0.0
 10
16.0036715229
 20
12.0332172173
 30
0.0
 10
16.0041384339
 20
12.0332172198
 30
0.0
  0
SPLINE
  5
2B7
100
AcDbEntity
  8
02___PRT_ALL_AXES
100
AcDbSpline
 62
7
  6
CONTINUOUS
 70
0
 71
3
 72
30
 73
26
 74
0
 42
0.0000001
 43
0.0000001
 44
0.0000000001
 40
0.0
 40
0.0
 40
0.0
 40
0.0
 40
0.0805983925
 40
0.1572582952
 40
0.2300974973
 40
0.2992901125
 40
0.3650743167
 40
0.4277598749
 40
0.487734188
 40
0.5168579437
 40
0.5454860388
 40
0.5736889192
 40
0.6015412639
 40
0.6291213658
 40
0.6565104797
 40
0.6837919945
 40
0.7110505237
 40
0.7383709465
 40
0.7658374371
 40
0.793532504
 40
0.8215361456
 40
0.8499250727
 40
0.878772073
 40
0.9380897366
 40
1.0
 40
1.0
 40
1.0
 40
1.0
 10
15.8048295755
 20
11.4168845935
 30
0.0
 10
15.7982875913
 20
11.40765959
 30
0.0
 10
15.7850572924
 20
11.3899836466
 30
0.0
 10
15.7642288446
 20
11.3652889696
 30
0.0
 10
15.7429609849
 20
11.3431360833
 30
0.0
 10
15.7212982752
 20
11.3235756715
 30
0.0
 10
15.6992838999
 20
11.3066524697
 30
0.0
 10
15.6769645396
 20
11.2924084321
 30
0.0
 10
15.6579603822
 20
11.2827070247
 30
0.0
 10
15.6426945933
 20
11.2763784623
 30
0.0
 10
15.6313140187
 20
11.2723664293
 30
0.0
 10
15.6198984318
 20
11.2690459519
 30
0.0
 10
15.6084541148
 20
11.2664189405
 30
0.0
 10
15.5969877321
 20
11.2644872329
 30
0.0
 10
15.5855059643
 20
11.2632520973
 30
0.0
 10
15.5740155675
 20
11.2627143607
 30
0.0
 10
15.5625233308
 20
11.2628744484
 30
0.0
 10
15.551036049
 20
11.2637321707
 30
0.0
 10
15.5395605089
 20
11.265287022
 30
0.0
 10
15.5281034139
 20
11.2675378869
 30
0.0
 10
15.5166714863
 20
11.2704832608
 30
0.0
 10
15.5052710677
 20
11.274121357
 30
0.0
 10
15.4899813909
 20
11.2799455696
 30
0.0
 10
15.4709345715
 20
11.2890183573
 30
0.0
 10
15.4563462498
 20
11.2978209739
 30
0.0
 10
15.4491118784
 20
11.3026300698
 30
0.0
  0
SPLINE
  5
2B8
100
AcDbEntity
  8
02___PRT_ALL_AXES
100
AcDbSpline
 62
7
  6
CONTINUOUS
 70
0
 71
3
 72
30
 73
26
 74
0
 42
0.0000001
 43
0.0000001
 44
0.0000000001
 40
0.0
 40
0.0
 40
0.0
 40
0.0
 40
0.0619121733
 40
0.1212318624
 40
0.1500798972
 40
0.1784698478
 40
0.2064745024
 40
0.2341705473
 40
0.2616379731
 40
0.2889592728
 40
0.316218606
 40
0.3435008393
 40
0.3708905764
 40
0.3984711905
 40
0.4263239338
 40
0.4545270871
 40
0.4831553227
 40
0.5122790905
 40
0.5722530088
 40
0.6349376225
 40
0.7007203508
 40
0.7699109913
 40
0.8427477624
 40
0.9194048204
 40
1.0
 40
1.0
 40
1.0
 40
1.0
 10
15.4491118781
 20
13.7189799191
 30
0.0
 10
15.456345615
 20
13.723788593
 30
0.0
 10
15.4709326421
 20
13.7325905063
 30
0.0
 10
15.4899777091
 20
13.7416627598
 30
0.0
 10
15.5052659752
 20
13.7474868328
 30
0.0
 10
15.5166653557
 20
13.7511249279
 30
0.0
 10
15.5280962338
 20
13.7540704553
 30
0.0
 10
15.5395522856
 20
13.7563215743
 30
0.0
 10
15.5510267801
 20
13.7578768202
 30
0.0
 10
15.5625130207
 20
13.7587350633
 30
0.0
 10
15.574004221
 20
13.7588957828
 30
0.0
 10
15.5854935896
 20
13.7583588305
 30
0.0
 10
15.5969743354
 20
13.7571245727
 30
0.0
 10
15.6084397107
 20
13.755193896
 30
0.0
 10
15.6198830295
 20
13.7525680179
 30
0.0
 10
15.6312976331
 20
13.7492488025
 30
0.0
 10
15.6426772437
 20
13.74523816
 30
0.0
 10
15.6579417148
 20
13.7389116252
 30
0.0
 10
15.6769442869
 20
13.7292130921
 30
0.0
 10
15.6992619038
 20
13.7149728927
 30
0.0
 10
15.7212746396
 20
13.6980539722
 30
0.0
 10
15.7429358234
 20
13.6784982644
 30
0.0
 10
15.7642022795
 20
13.6563504872
 30
0.0
 10
15.7850294598
 20
13.6316613089
 30
0.0
 10
15.7982590426
 20
13.6139891603
 30
0.0
 10
15.8048006917
 20
13.6047661156
 30
0.0
  0
SPLINE
  5
2B9
100
AcDbEntity
  8
02___PRT_ALL_AXES
100
AcDbSpline
 62
7
  6
CONTINUOUS
 70
0
 71
3
 72
24
 73
20
 74
0
 42
0.0000001
 43
0.0000001
 44
0.0000000001
 40
0.0
 40
0.0
 40
0.0
 40
0.0
 40
0.0167012561
 40
0.0336272056
 40
0.0509916209
 40
0.068988744
 40
0.1074847742
 40
0.1501896076
 40
0.1977129569
 40
0.2503376692
 40
0.3081005099
 40
0.3708540753
 40
0.438310787
 40
0.5100740772
 40
0.5856612454
 40
0.6645211418
 40
0.7460485579
 40
0.8295974991
 40
1.0
 40
1.0
 40
1.0
 40
1.0
 10
15.7624494491
 20
13.1489014395
 30
0.0
 10
15.7620485549
 20
13.1489014366
 30
0.0
 10
15.7612404575
 20
13.1488499262
 30
0.0
 10
15.7600354571
 20
13.1486189261
 30
0.0
 10
15.7588373775
 20
13.1482351215
 30
0.0
 10
15.7572180033
 20
13.1475055777
 30
0.0
 10
15.7552170038
 20
13.1461852613
 30
0.0
 10
15.7529570045
 20
13.1440617569
 30
0.0
 10
15.7507967157
 20
13.1413874954
 30
0.0
 10
15.7487530343
 20
13.1381877243
 30
0.0
 10
15.7468425346
 20
13.1344914078
 30
0.0
 10
15.7450825301
 20
13.1303326759
 30
0.0
 10
15.7434895018
 20
13.1257505191
 30
0.0
 10
15.7420787486
 20
13.1207884447
 30
0.0
 10
15.7408639549
 20
13.1154939265
 30
0.0
 10
15.7398570007
 20
13.1099179443
 30
0.0
 10
15.7390676605
 20
13.1041141055
 30
0.0
 10
15.738311177
 20
13.0960954162
 30
0.0
 10
15.7380989155
 20
13.0899951842
 30
0.0
 10
15.7381115708
 20
13.0859048902
 30
0.0
  0
SPLINE
  5
2BA
100
AcDbEntity
  8
02___PRT_ALL_AXES
100
AcDbSpline
 62
7
  6
CONTINUOUS
 70
0
 71
3
 72
20
 73
16
 74
0
 42
0.0000001
 43
0.0000001
 44
0.0000000001
 40
0.0
 40
0.0
 40
0.0
 40
0.0
 40
0.0426723891
 40
0.0860852177
 40
0.1309332325
 40
0.1778304262
 40
0.227290993
 40
0.2797237337
 40
0.3354379716
 40
0.3946544157
 40
0.4575160419
 40
0.5241003726
 40
0.6684352403
 40
0.8273678702
 40
1.0
 40
1.0
 40
1.0
 40
1.0
 10
15.9193236012
 20
13.1352998857
 30
0.0
 10
15.918867292
 20
13.1352998831
 30
0.0
 10
15.9179454197
 20
13.1352328901
 30
0.0
 10
15.9165734052
 20
13.1349329229
 30
0.0
 10
15.9152121082
 20
13.1344351864
 30
0.0
 10
15.913866466
 20
13.1337424251
 30
0.0
 10
15.9125403963
 20
13.1328577578
 30
0.0
 10
15.9112376032
 20
13.131784626
 30
0.0
 10
15.9099616315
 20
13.1305267237
 30
0.0
 10
15.9087160709
 20
13.1290880795
 30
0.0
 10
15.9075043934
 20
13.1274732087
 30
0.0
 10
15.9058955116
 20
13.12502543
 30
0.0
 10
15.9040081099
 20
13.1215413412
 30
0.0
 10
15.9019914778
 20
13.1168635592
 30
0.0
 10
15.9008348374
 20
13.1135083818
 30
0.0
 10
15.9002878268
 20
13.1117452796
 30
0.0
  0
SPLINE
  5
2BB
100
AcDbEntity
  8
LAYER_FEATURE
100
AcDbSpline
 62
7
  6
CONTINUOUS
 70
0
 71
3
 72
54
 73
50
 74
0
 42
0.0000001
 43
0.0000001
 44
0.0000000001
 40
0.0
 40
0.0
 40
0.0
 40
0.0
 40
0.033050083
 40
0.0673809185
 40
0.1028689289
 40
0.1393805316
 40
0.1767738169
 40
0.214899975
 40
0.25360464
 40
0.2927291642
 40
0.332111844
 40
0.3715891171
 40
0.410996745
 40
0.4501709878
 40
0.4889497822
 40
0.5271739364
 40
0.5646883543
 40
0.6013432993
 40
0.6369957232
 40
0.6544041331
 40
0.6715120654
 40
0.6883041813
 40
0.7047658546
 40
0.7208832311
 40
0.736643294
 40
0.752033935
 40
0.7670440316
 40
0.7816635337
 40
0.7958835599
 40
0.8096965037
 40
0.823096154
 40
0.8360778312
 40
0.8486385411
 40
0.8607771508
 40
0.8724945867
 40
0.88379406
 40
0.8946813196
 40
0.905164933
 40
0.915256592
 40
0.9249714402
 40
0.9343284073
 40
0.9433505317
 40
0.9520652404
 40
0.9605045434
 40
0.9687050901
 40
0.9767080295
 40
0.9845586187
 40
0.9923055502
 40
1.0
 40
1.0
 40
1.0
 40
1.0
 10
15.1053321994
 20
13.4113624344
 30
0.0
 10
15.0969723907
 20
13.3843100836
 30
0.0
 10
15.0810667274
 20
13.3288000978
 30
0.0
 10
15.0599632655
 20
13.2432161883
 30
0.0
 10
15.0412366114
 20
13.154048705
 30
0.0
 10
15.0249793998
 20
13.0617347456
 30
0.0
 10
15.011271514
 20
12.9667247997
 30
0.0
 10
15.0001805047
 20
12.869483553
 30
0.0
 10
14.9917609996
 20
12.7704866515
 30
0.0
 10
14.9860544926
 20
12.6702185555
 30
0.0
 10
14.9830891145
 20
12.5691700482
 30
0.0
 10
14.982879479
 20
12.4678358062
 30
0.0
 10
14.9854266133
 20
12.3667119258
 30
0.0
 10
14.9907179633
 20
12.266293462
 30
0.0
 10
14.9987274569
 20
12.1670719338
 30
0.0
 10
15.0094156243
 20
12.0695329779
 30
0.0
 10
15.0227298013
 20
11.9741535256
 30
0.0
 10
15.0386043946
 20
11.8814008228
 30
0.0
 10
15.0540216296
 20
11.806085692
 30
0.0
 10
15.0676070117
 20
11.7475233578
 30
0.0
 10
15.0783030641
 20
11.7048851116
 30
0.0
 10
15.0895734562
 20
11.6632347256
 30
0.0
 10
15.1014044553
 20
11.6226230765
 30
0.0
 10
15.1137815299
 20
11.583099904
 30
0.0
 10
15.1266895161
 20
11.5447135618
 30
0.0
 10
15.1401125996
 20
11.5075110063
 30
0.0
 10
15.1540343487
 20
11.4715377236
 30
0.0
 10
15.1684377354
 20
11.4368376757
 30
0.0
 10
15.1833051591
 20
11.4034532421
 30
0.0
 10
15.198618477
 20
11.3714251688
 30
0.0
 10
15.2143590335
 20
11.3407925184
 30
0.0
 10
15.2305076924
 20
11.311592623
 30
0.0
 10
15.247044872
 20
11.283861042
 30
0.0
 10
15.2639505828
 20
11.2576315234
 30
0.0
 10
15.2812044675
 20
11.2329359723
 30
0.0
 10
15.2987858455
 20
11.2098044285
 30
0.0
 10
15.3166737527
 20
11.1882650509
 30
0.0
 10
15.3348469858
 20
11.1683441197
 30
0.0
 10
15.3532841385
 20
11.150066056
 30
0.0
 10
15.3719636233
 20
11.133453457
 30
0.0
 10
15.3908636705
 20
11.1185271477
 30
0.0
 10
15.4099622899
 20
11.1053062426
 30
0.0
 10
15.4292371911
 20
11.0938082011
 30
0.0
 10
15.4486656233
 20
11.0840488519
 30
0.0
 10
15.4682242614
 20
11.0760423464
 30
0.0
 10
15.4878887421
 20
11.0698010063
 30
0.0
 10
15.5076344592
 20
11.0653350522
 30
0.0
 10
15.5274330975
 20
11.0626522341
 30
0.0
 10
15.5406696323
 20
11.0620549956
 30
0.0
 10
15.5472616037
 20
11.0620550011
 30
0.0
  0
SPLINE
  5
2BC
100
AcDbEntity
  8
02___PRT_ALL_AXES
100
AcDbSpline
 62
7
  6
CONTINUOUS
 70
0
 71
3
 72
33
 73
29
 74
0
 42
0.0000001
 43
0.0000001
 44
0.0000000001
 40
0.0
 40
0.0
 40
0.0
 40
0.0
 40
0.0187276723
 40
0.0376987832
 40
0.0570394723
 40
0.0768670898
 40
0.0972881792
 40
0.1183973258
 40
0.140276802
 40
0.1629966928
 40
0.1866154613
 40
0.2111807377
 40
0.2367302097
 40
0.2632925167
 40
0.2908881445
 40
0.3195302712
 40
0.3492255198
 40
0.379974612
 40
0.411772952
 40
0.4446111755
 40
0.4784756106
 40
0.5133486712
 40
0.5860273694
 40
0.6624467719
 40
0.7423563178
 40
0.8254685071
 40
0.9114645199
 40
1.0
 40
1.0
 40
1.0
 40
1.0
 10
15.8262122043
 20
11.886078197
 30
0.0
 10
15.8232705955
 20
11.8863016233
 30
0.0
 10
15.8173665944
 20
11.8870269577
 30
0.0
 10
15.8085735854
 20
11.8889297882
 30
0.0
 10
15.799816017
 20
11.8916486271
 30
0.0
 10
15.7911069216
 20
11.8951785378
 30
0.0
 10
15.7824575101
 20
11.8995136561
 30
0.0
 10
15.7738789264
 20
11.9046472264
 30
0.0
 10
15.7653818975
 20
11.910571691
 30
0.0
 10
15.7569769445
 20
11.9172786894
 30
0.0
 10
15.7486744364
 20
11.9247590702
 30
0.0
 10
15.7404846435
 20
11.9330028605
 30
0.0
 10
15.7324177578
 20
11.9419992321
 30
0.0
 10
15.724483877
 20
11.9517364546
 30
0.0
 10
15.7166929974
 20
11.9622018869
 30
0.0
 10
15.7090550037
 20
11.9733819791
 30
0.0
 10
15.701579645
 20
11.9852622707
 30
0.0
 10
15.6942765092
 20
11.9978273869
 30
0.0
 10
15.6871549823
 20
12.0110610525
 30
0.0
 10
15.6802242844
 20
12.0249461
 30
0.0
 10
15.6734932921
 20
12.0394645761
 30
0.0
 10
15.6646753413
 20
12.0599241369
 30
0.0
 10
15.6542450522
 20
12.0869758197
 30
0.0
 10
15.642824925
 20
12.1212066006
 30
0.0
 10
15.6323934716
 20
12.1574640882
 30
0.0
 10
15.623005164
 20
12.1955599329
 30
0.0
 10
15.6147091283
 20
12.2352963422
 30
0.0
 10
15.609997331
 20
12.2623885518
 30
0.0
 10
15.6078243351
 20
12.2761648015
 30
0.0
  0
SPLINE
  5
2BD
100
AcDbEntity
  8
LAYER_FEATURE
100
AcDbSpline
 62
7
  6
CONTINUOUS
 70
0
 71
3
 72
15
 73
11
 74
0
 42
0.0000001
 43
0.0000001
 44
0.0000000001
 40
0.0
 40
0.0
 40
0.0
 40
0.0
 40
0.1191412315
 40
0.2388695783
 40
0.3597615465
 40
0.4823731744
 40
0.6072316144
 40
0.7348284963
 40
0.8656151712
 40
1.0
 40
1.0
 40
1.0
 40
1.0
 10
15.2813885385
 20
13.9595549848
 30
0.0
 10
15.2869856163
 20
13.9595549793
 30
0.0
 10
15.2982120385
 20
13.9591252153
 30
0.0
 10
15.3150177965
 20
13.9571935493
 30
0.0
 10
15.3317921027
 20
13.9539766878
 30
0.0
 10
15.3485178215
 20
13.9494783853
 30
0.0
 10
15.3651797771
 20
13.9437037322
 30
0.0
 10
15.3817629586
 20
13.9366588478
 30
0.0
 10
15.3982519996
 20
13.9283514861
 30
0.0
 10
15.4090181852
 20
13.9220670989
 30
0.0
 10
15.414376874
 20
13.9187292941
 30
0.0
  0
SPLINE
  5
2BE
100
AcDbEntity
  8
LAYER_FEATURE
100
AcDbSpline
 62
7
  6
CONTINUOUS
 70
0
 71
3
 72
15
 73
11
 74
0
 42
0.0000001
 43
0.0000001
 44
0.0000000001
 40
0.0
 40
0.0
 40
0.0
 40
0.0
 40
0.1191445028
 40
0.2388757677
 40
0.3597699782
 40
0.4823828842
 40
0.6072413361
 40
0.7348366941
 40
0.8656201744
 40
1.0
 40
1.0
 40
1.0
 40
1.0
 10
15.2813885385
 20
11.062055001
 30
0.0
 10
15.2869838854
 20
11.0620549956
 30
0.0
 10
15.2982068149
 20
11.0624845232
 30
0.0
 10
15.3150073682
 20
11.0644149665
 30
0.0
 10
15.3317765021
 20
11.0676298278
 30
0.0
 10
15.3484970907
 20
11.0721253592
 30
0.0
 10
15.3651539763
 20
11.0778964525
 30
0.0
 10
15.381732171
 20
11.0849369771
 30
0.0
 10
15.3982163129
 20
11.093239222
 30
0.0
 10
15.4089794011
 20
11.0995198178
 30
0.0
 10
15.414336571
 20
11.102855596
 30
0.0
  0
SPLINE
  5
2BF
100
AcDbEntity
  8
LAYER_FEATURE
100
AcDbSpline
 62
7
  6
CONTINUOUS
 70
0
 71
3
 72
27
 73
23
 74
0
 42
0.0000001
 43
0.0000001
 44
0.0000000001
 40
0.0
 40
0.0
 40
0.0
 40
0.0
 40
0.0224157125
 40
0.0449085804
 40
0.0675547837
 40
0.0904285894
 40
0.1136015376
 40
0.1371417082
 40
0.1611131677
 40
0.1855755804
 40
0.236172427
 40
0.2893321638
 40
0.3453608656
 40
0.4044939534
 40
0.4669034978
 40
0.532706045
 40
0.6019700355
 40
0.6747224366
 40
0.7509544717
 40
0.8306264318
 40
0.9136716762
 40
1.0
 40
1.0
 40
1.0
 40
1.0
 10
15.575510745
 20
13.9595549847
 30
0.0
 10
15.580184568
 20
13.9595549886
 30
0.0
 10
15.5895510351
 20
13.9592557185
 30
0.0
 10
15.6035812451
 20
13.9579101542
 30
0.0
 10
15.6175935943
 20
13.9556686632
 30
0.0
 10
15.631578226
 20
13.9525330218
 30
0.0
 10
15.6455263643
 20
13.948505497
 30
0.0
 10
15.6594290252
 20
13.9435891045
 30
0.0
 10
15.6732778411
 20
13.9377871641
 30
0.0
 10
15.6918660086
 20
13.9287760285
 30
0.0
 10
15.7149638699
 20
13.9152157715
 30
0.0
 10
15.741993921
 20
13.8956641516
 30
0.0
 10
15.7685903904
 20
13.8727050675
 30
0.0
 10
15.794691614
 20
13.8463994452
 30
0.0
 10
15.8202397304
 20
13.816812725
 30
0.0
 10
15.8451760512
 20
13.7840175051
 30
0.0
 10
15.8694425674
 20
13.7480934875
 30
0.0
 10
15.8929818993
 20
13.7091278398
 30
0.0
 10
15.9157377133
 20
13.6672152294
 30
0.0
 10
15.9376551168
 20
13.6224574652
 30
0.0
 10
15.9586805847
 20
13.57496439
 30
0.0
 10
15.9718203951
 20
13.5421756194
 30
0.0
 10
15.9782440618
 20
13.525360826
 30
0.0
  0
SPLINE
  5
2C0
100
AcDbEntity
  8
LAYER_FEATURE
100
AcDbSpline
 62
7
  6
CONTINUOUS
 70
0
 71
3
 72
27
 73
23
 74
0
 42
0.0000001
 43
0.0000001
 44
0.0000000001
 40
0.0
 40
0.0
 40
0.0
 40
0.0
 40
0.0224157414
 40
0.0449086392
 40
0.0675548678
 40
0.0904287016
 40
0.1136016761
 40
0.137141865
 40
0.1611133521
 40
0.1855757801
 40
0.2361726615
 40
0.2893324128
 40
0.3453611171
 40
0.4044942085
 40
0.4669037467
 40
0.5327062659
 40
0.601970219
 40
0.6747225888
 40
0.7509545874
 40
0.8306264924
 40
0.9136716764
 40
1.0
 40
1.0
 40
1.0
 40
1.0
 10
15.575510745
 20
11.0620550011
 30
0.0
 10
15.5801845527
 20
11.0620550049
 30
0.0
 10
15.5895509901
 20
11.0623542478
 30
0.0
 10
15.6035811507
 20
11.0636998378
 30
0.0
 10
15.6175934578
 20
11.0659412863
 30
0.0
 10
15.6315780424
 20
11.0690769184
 30
0.0
 10
15.6455261316
 20
11.0731044254
 30
0.0
 10
15.659428757
 20
11.0780207625
 30
0.0
 10
15.6732775177
 20
11.0838226902
 30
0.0
 10
15.6918656354
 20
11.092833748
 30
0.0
 10
15.714963413
 20
11.106393934
 30
0.0
 10
15.7419933883
 20
11.1259454145
 30
0.0
 10
15.7685897843
 20
11.1489043454
 30
0.0
 10
15.7946909307
 20
11.1752098057
 30
0.0
 10
15.8202389751
 20
11.204796343
 30
0.0
 10
15.8451752389
 20
11.2375913506
 30
0.0
 10
15.8694417045
 20
11.2735151391
 30
0.0
 10
15.8929809832
 20
11.3124805503
 30
0.0
 10
15.9157367514
 20
11.3543929081
 30
0.0
 10
15.9376541266
 20
11.3991503971
 30
0.0
 10
15.9586795749
 20
11.4466431949
 30
0.0
 10
15.9718193819
 20
11.4794317795
 30
0.0
 10
15.9782430395
 20
11.4962464882
 30
0.0
  0
SPLINE
  5
2C1
100
AcDbEntity
  8
LAYER_FEATURE
100
AcDbSpline
 62
7
  6
CONTINUOUS
 70
0
 71
3
 72
35
 73
31
 74
0
 42
0.0000001
 43
0.0000001
 44
0.0000000001
 40
0.0
 40
0.0
 40
0.0
 40
0.0
 40
0.0879660256
 40
0.1726596292
 40
0.2539260382
 40
0.2932345385
 40
0.3316399259
 40
0.3691306809
 40
0.4056974107
 40
0.4413330071
 40
0.4760328805
 40
0.5097951444
 40
0.5426208216
 40
0.5745141239
 40
0.6054827476
 40
0.6355381388
 40
0.6646958309
 40
0.6929758371
 40
0.7204029924
 40
0.7728096573
 40
0.7978812372
 40
0.82225512
 40
0.8459856999
 40
0.8691340408
 40
0.8917678177
 40
0.9139610836
 40
0.9357938166
 40
0.9573511729
 40
0.9787224787
 40
1.0
 40
1.0
 40
1.0
 40
1.0
 10
15.1053321994
 20
13.4113624344
 30
0.0
 10
15.1117915204
 20
13.4322648047
 30
0.0
 10
15.1251264857
 20
13.4730934172
 30
0.0
 10
15.146823459
 20
13.5324157569
 30
0.0
 10
15.1661646722
 20
13.5796776967
 30
0.0
 10
15.1822780281
 20
13.6157875154
 30
0.0
 10
15.1945177206
 20
13.6416963676
 30
0.0
 10
15.2070361439
 20
13.6667115348
 30
0.0
 10
15.2198235509
 20
13.690813394
 30
0.0
 10
15.2328698823
 20
13.7139829327
 30
0.0
 10
15.246164897
 20
13.7362019222
 30
0.0
 10
15.2596981677
 20
13.757452885
 30
0.0
 10
15.2734591218
 20
13.7777190932
 30
0.0
 10
15.2874370348
 20
13.7969846035
 30
0.0
 10
15.301620994
 20
13.8152342533
 30
0.0
 10
15.3160000604
 20
13.8324537388
 30
0.0
 10
15.3305628926
 20
13.8486292358
 30
0.0
 10
15.345299084
 20
13.863748801
 30
0.0
 10
15.3648635483
 20
13.8822013751
 30
0.0
 10
15.3850198316
 20
13.8988421728
 30
0.0
 10
15.4057402949
 20
13.9134305592
 30
0.0
 10
15.4211679868
 20
13.9231025104
 30
0.0
 10
15.4366985674
 20
13.9316572429
 30
0.0
 10
15.4523204353
 20
13.9390876293
 30
0.0
 10
15.4680212104
 20
13.9453869667
 30
0.0
 10
15.4837884454
 20
13.9505494188
 30
0.0
 10
15.4996092521
 20
13.9545700472
 30
0.0
 10
15.5154708449
 20
13.9574448905
 30
0.0
 10
15.5313587896
 20
13.9591710037
 30
0.0
 10
15.5419697615
 20
13.9595549804
 30
0.0
 10
15.5472616037
 20
13.9595549847
 30
0.0
  0
SPLINE
  5
2C2
100
AcDbEntity
  8
02___PRT_ALL_AXES
100
AcDbSpline
 62
7
  6
CONTINUOUS
 70
0
 71
3
 72
19
 73
15
 74
0
 42
0.0000001
 43
0.0000001
 44
0.0000000001
 40
0.0
 40
0.0
 40
0.0
 40
0.0
 40
0.0543193713
 40
0.1088640919
 40
0.163856077
 40
0.2195105819
 40
0.2760333639
 40
0.3336183565
 40
0.3924459222
 40
0.4526816894
 40
0.5779199714
 40
0.7104007488
 40
0.8509048995
 40
1.0
 40
1.0
 40
1.0
 40
1.0
 10
15.8189011127
 20
13.6045549904
 30
0.0
 10
15.8227765005
 20
13.6045549905
 30
0.0
 10
15.8305460851
 20
13.6042822748
 30
0.0
 10
15.8421808547
 20
13.6030563014
 30
0.0
 10
15.8537975466
 20
13.6010143308
 30
0.0
 10
15.8653862275
 20
13.5981583039
 30
0.0
 10
15.8769381101
 20
13.5944908479
 30
0.0
 10
15.8884442391
 20
13.5900152931
 30
0.0
 10
15.8998962575
 20
13.5847353517
 30
0.0
 10
15.9152796084
 20
13.5765235532
 30
0.0
 10
15.934359604
 20
13.5641682281
 30
0.0
 10
15.9565853952
 20
13.5464061879
 30
0.0
 10
15.9783796396
 20
13.525576776
 30
0.0
 10
15.9921636181
 20
13.5101560851
 30
0.0
 10
15.9989798689
 20
13.5019898794
 30
0.0
  0
SPLINE
  5
2C3
100
AcDbEntity
  8
02___PRT_ALL_AXES
100
AcDbSpline
 62
7
  6
CONTINUOUS
 70
0
 71
3
 72
39
 73
35
 74
0
 42
0.0000001
 43
0.0000001
 44
0.0000000001
 40
0.0
 40
0.0
 40
0.0
 40
0.0
 40
0.0202790419
 40
0.0417769558
 40
0.0645047724
 40
0.0884573927
 40
0.1136160194
 40
0.1399501428
 40
0.1674191634
 40
0.1959737298
 40
0.2255568556
 40
0.2561048679
 40
0.2875482257
 40
0.3198122422
 40
0.3528177317
 40
0.3864816023
 40
0.4207174052
 40
0.4554358538
 40
0.4905453179
 40
0.5259523011
 40
0.5615619049
 40
0.5972782848
 40
0.6330051004
 40
0.6686459631
 40
0.7041048832
 40
0.739286719
 40
0.7740976316
 40
0.8084455467
 40
0.842240629
 40
0.8753957731
 40
0.9078271152
 40
0.939454575
 40
0.9702024342
 40
1.0
 40
1.0
 40
1.0
 40
1.0
 10
16.0108934455
 20
13.4877168171
 30
0.0
 10
16.0182634583
 20
13.4788871771
 30
0.0
 10
16.0327735182
 20
13.460128147
 30
0.0
 10
16.0532697425
 20
13.4297999614
 30
0.0
 10
16.0730659707
 20
13.3965618403
 30
0.0
 10
16.092099875
 20
13.3605194587
 30
0.0
 10
16.1103129634
 20
13.3217848543
 30
0.0
 10
16.1276481265
 20
13.2804796611
 30
0.0
 10
16.1440508479
 20
13.2367337187
 30
0.0
 10
16.1594692672
 20
13.1906849345
 30
0.0
 10
16.1738545036
 20
13.1424787293
 30
0.0
 10
16.1871608527
 20
13.0922675662
 30
0.0
 10
16.1993459788
 20
13.0402104286
 30
0.0
 10
16.2103710749
 20
12.98647229
 30
0.0
 10
16.2202010045
 20
12.9312235661
 30
0.0
 10
16.2288044267
 20
12.8746395545
 30
0.0
 10
16.2361539025
 20
12.8168998613
 30
0.0
 10
16.242225987
 20
12.7581878162
 30
0.0
 10
16.2470013073
 20
12.698689879
 30
0.0
 10
16.2504646263
 20
12.6385950373
 30
0.0
 10
16.2526048921
 20
12.5780941976
 30
0.0
 10
16.2534152748
 20
12.5173795713
 30
0.0
 10
16.252893189
 20
12.4566440567
 30
0.0
 10
16.2510403009
 20
12.3960806189
 30
0.0
 10
16.2478625234
 20
12.3358816702
 30
0.0
 10
16.2433699965
 20
12.2762384516
 30
0.0
 10
16.2375770552
 20
12.2173404186
 30
0.0
 10
16.2305021809
 20
12.1593746284
 30
0.0
 10
16.2221679452
 20
12.1025251432
 30
0.0
 10
16.2126009262
 20
12.0469724086
 30
0.0
 10
16.2018316462
 20
11.9928927607
 30
0.0
 10
16.1898943712
 20
11.9404575179
 30
0.0
 10
16.1768273361
 20
11.8898336045
 30
0.0
 10
16.1672325573
 20
11.8568558042
 30
0.0
 10
16.1622429556
 20
11.8407094471
 30
0.0
  0
SPLINE
  5
2C4
100
AcDbEntity
  8
LAYER_FEATURE
100
AcDbSpline
 62
7
  6
CONTINUOUS
 70
0
 71
3
 72
54
 73
50
 74
0
 42
0.0000001
 43
0.0000001
 44
0.0000000001
 40
0.0
 40
0.0
 40
0.0
 40
0.0
 40
0.0330500869
 40
0.0673809189
 40
0.1028689286
 40
0.1393805316
 40
0.1767738172
 40
0.214899975
 40
0.2536046397
 40
0.2927291642
 40
0.332111844
 40
0.3715891169
 40
0.4109967451
 40
0.4501709878
 40
0.4889497815
 40
0.5271739361
 40
0.5646883551
 40
0.6013432992
 40
0.6369957215
 40
0.6544041318
 40
0.6715120649
 40
0.6883041821
 40
0.7047658562
 40
0.7208832323
 40
0.736643294
 40
0.7520339335
 40
0.7670440292
 40
0.7816635318
 40
0.7958835594
 40
0.8096965048
 40
0.823096156
 40
0.8360778326
 40
0.8486385411
 40
0.8607771491
 40
0.8724945842
 40
0.8837940579
 40
0.894681319
 40
0.9051649339
 40
0.9152565937
 40
0.9249714414
 40
0.9343284073
 40
0.9433505306
 40
0.9520652387
 40
0.9605045419
 40
0.9687050894
 40
0.9767080294
 40
0.9845586188
 40
0.9923055502
 40
1.0
 40
1.0
 40
1.0
 40
1.0
 10
14.8112099929
 20
13.4113624344
 30
0.0
 10
14.8028501832
 20
13.3843100804
 30
0.0
 10
14.7869445198
 20
13.3288000942
 30
0.0
 10
14.7658410587
 20
13.2432161848
 30
0.0
 10
14.7471144037
 20
13.1540487051
 30
0.0
 10
14.730857193
 20
13.0617347455
 30
0.0
 10
14.7171493094
 20
12.9667247991
 30
0.0
 10
14.7060582985
 20
12.8694835529
 30
0.0
 10
14.6976387906
 20
12.7704866519
 30
0.0
 10
14.6919322858
 20
12.6702185556
 30
0.0
 10
14.6889669113
 20
12.5691700481
 30
0.0
 10
14.6887572728
 20
12.4678358061
 30
0.0
 10
14.691304403
 20
12.3667119256
 30
0.0
 10
14.6965957563
 20
12.2662934623
 30
0.0
 10
14.7046052548
 20
12.1670719348
 30
0.0
 10
14.7152934183
 20
12.0695329778
 30
0.0
 10
14.7286075899
 20
11.9741535241
 30
0.0
 10
14.7444821875
 20
11.8814008231
 30
0.0
 10
14.7598994275
 20
11.8060856953
 30
0.0
 10
14.7734848076
 20
11.7475233609
 30
0.0
 10
14.7841808578
 20
11.7048851121
 30
0.0
 10
14.7954512476
 20
11.6632347229
 30
0.0
 10
14.8072822451
 20
11.6226230718
 30
0.0
 10
14.8196593207
 20
11.5830999002
 30
0.0
 10
14.8325673094
 20
11.5447135617
 30
0.0
 10
14.8459903954
 20
11.5075110104
 30
0.0
 10
14.8599121458
 20
11.47153773
 30
0.0
 10
14.8743155313
 20
11.4368376806
 30
0.0
 10
14.8891829528
 20
11.4034532428
 30
0.0
 10
14.9044962684
 20
11.3714251647
 30
0.0
 10
14.9202368235
 20
11.3407925116
 30
0.0
 10
14.9363854836
 20
11.311592618
 30
0.0
 10
14.9529226654
 20
11.2838610418
 30
0.0
 10
14.969828378
 20
11.2576315284
 30
0.0
 10
14.987082264
 20
11.2329359804
 30
0.0
 10
15.0046636411
 20
11.209804435
 30
0.0
 10
15.0225515463
 20
11.1882650518
 30
0.0
 10
15.0407247774
 20
11.1683441144
 30
0.0
 10
15.0591619293
 20
11.1500660477
 30
0.0
 10
15.0778414154
 20
11.1334534512
 30
0.0
 10
15.0967414639
 20
11.1185271474
 30
0.0
 10
15.1158400844
 20
11.1053062481
 30
0.0
 10
15.1351149861
 20
11.0938082101
 30
0.0
 10
15.1545434179
 20
11.0840488595
 30
0.0
 10
15.1741020546
 20
11.0760423475
 30
0.0
 10
15.1937665345
 20
11.0698009995
 30
0.0
 10
15.213512252
 20
11.0653350454
 30
0.0
 10
15.233310891
 20
11.0626522225
 30
0.0
 10
15.2465474258
 20
11.0620550075
 30
0.0
 10
15.2531393971
 20
11.062055001
 30
0.0
  0
SPLINE
  5
2C5
100
AcDbEntity
  8
02___PRT_ALL_AXES
100
AcDbSpline
 62
7
  6
CONTINUOUS
 70
0
 71
3
 72
19
 73
15
 74
0
 42
0.0000001
 43
0.0000001
 44
0.0000000001
 40
0.0
 40
0.0
 40
0.0
 40
0.0
 40
0.0543193713
 40
0.1088640919
 40
0.1638560769
 40
0.2195105819
 40
0.276033364
 40
0.3336183566
 40
0.3924459223
 40
0.4526816894
 40
0.5779199712
 40
0.7104007483
 40
0.8509048992
 40
1.0
 40
1.0
 40
1.0
 40
1.0
 10
15.8189011127
 20
11.4170549954
 30
0.0
 10
15.8227765005
 20
11.4170549955
 30
0.0
 10
15.8305460851
 20
11.4173277109
 30
0.0
 10
15.8421808547
 20
11.4185536844
 30
0.0
 10
15.8537975466
 20
11.4205956549
 30
0.0
 10
15.8653862275
 20
11.4234516819
 30
0.0
 10
15.8769381101
 20
11.427119138
 30
0.0
 10
15.8884442391
 20
11.4315946928
 30
0.0
 10
15.8998962575
 20
11.4368746343
 30
0.0
 10
15.9152796084
 20
11.4450864327
 30
0.0
 10
15.934359604
 20
11.4574417577
 30
0.0
 10
15.9565853953
 20
11.4752037979
 30
0.0
 10
15.9783796396
 20
11.4960332097
 30
0.0
 10
15.992163618
 20
11.5114539008
 30
0.0
 10
15.9989798689
 20
11.5196201065
 30
0.0
  0
SPLINE
  5
2C6
100
AcDbEntity
  8
02___PRT_ALL_AXES
100
AcDbSpline
 62
7
  6
CONTINUOUS
 70
0
 71
3
 72
18
 73
14
 74
0
 42
0.0000001
 43
0.0000001
 44
0.0000000001
 40
0.0
 40
0.0
 40
0.0
 40
0.0
 40
0.0507395142
 40
0.1030531684
 40
0.1569573149
 40
0.2124617941
 40
0.2695704758
 40
0.3282817503
 40
0.4504714172
 40
0.5789349118
 40
0.7135018721
 40
0.8539474991
 40
1.0
 40
1.0
 40
1.0
 40
1.0
 10
16.0108934455
 20
11.5338931688
 30
0.0
 10
16.0146238733
 20
11.5383624059
 30
0.0
 10
16.0220297816
 20
11.5475832358
 30
0.0
 10
16.0328112359
 20
11.5620114998
 30
0.0
 10
16.0434251821
 20
11.5772348537
 30
0.0
 10
16.0538626063
 20
11.5932403194
 30
0.0
 10
16.0641150425
 20
11.610014684
 30
0.0
 10
16.0777075557
 20
11.633702502
 30
0.0
 10
16.0941438076
 20
11.665180519
 30
0.0
 10
16.1127402049
 20
11.7052911028
 30
0.0
 10
16.1304030026
 20
11.7480955106
 30
0.0
 10
16.1470730442
 20
11.7934501392
 30
0.0
 10
16.1572954577
 20
11.8246993381
 30
0.0
 10
16.1622429556
 20
11.8407094471
 30
0.0
  0
SPLINE
  5
2C7
100
AcDbEntity
  8
LAYER_FEATURE
100
AcDbSpline
 62
7
  6
CONTINUOUS
 70
0
 71
3
 72
36
 73
32
 74
0
 42
0.0000001
 43
0.0000001
 44
0.0000000001
 40
0.0
 40
0.0
 40
0.0
 40
0.0
 40
0.0879647301
 40
0.1726570648
 40
0.2539222764
 40
0.2932301914
 40
0.3316350098
 40
0.3691252116
 40
0.4056913988
 40
0.4413264641
 40
0.4760258261
 40
0.5097875916
 40
0.542612777
 40
0.5745056085
 40
0.6054737773
 40
0.6355287187
 40
0.6646859772
 40
0.6929655693
 40
0.7203923177
 40
0.746996252
 40
0.7728130251
 40
0.7978842365
 40
0.8222577519
 40
0.8459879813
 40
0.8691359833
 40
0.8917694219
 40
0.9139623571
 40
0.9357947692
 40
0.9573518063
 40
0.9787227939
 40
1.0
 40
1.0
 40
1.0
 40
1.0
 10
14.8112099929
 20
13.4113624344
 30
0.0
 10
14.8176693144
 20
13.4322648066
 30
0.0
 10
14.8310042785
 20
13.4730934181
 30
0.0
 10
14.852701255
 20
13.5324157569
 30
0.0
 10
14.8720424632
 20
13.5796776963
 30
0.0
 10
14.8881558223
 20
13.6157875147
 30
0.0
 10
14.9003955153
 20
13.6416963666
 30
0.0
 10
14.9129139362
 20
13.6667115356
 30
0.0
 10
14.9257013434
 20
13.6908133943
 30
0.0
 10
14.9387476782
 20
13.7139829309
 30
0.0
 10
14.9520426902
 20
13.7362019225
 30
0.0
 10
14.9655759579
 20
13.7574528869
 30
0.0
 10
14.979336919
 20
13.7777190913
 30
0.0
 10
14.9933148269
 20
13.7969845999
 30
0.0
 10
15.0074987925
 20
13.8152342652
 30
0.0
 10
15.0218778239
 20
13.8324537063
 30
0.0
 10
15.036440801
 20
13.8486293428
 30
0.0
 10
15.051176476
 20
13.8637484102
 30
0.0
 10
15.0660735279
 20
13.8777989094
 30
0.0
 10
15.0811205526
 20
13.8907696101
 30
0.0
 10
15.0963060182
 20
13.9026500971
 30
0.0
 10
15.1116183122
 20
13.9134307001
 30
0.0
 10
15.1270457255
 20
13.9231024692
 30
0.0
 10
15.1425763775
 20
13.9316572478
 30
0.0
 10
15.1581982212
 20
13.9390876359
 30
0.0
 10
15.1738990057
 20
13.9453869657
 30
0.0
 10
15.189666241
 20
13.9505494093
 30
0.0
 10
15.2054870441
 20
13.9545700527
 30
0.0
 10
15.2213486377
 20
13.9574449
 30
0.0
 10
15.2372365842
 20
13.959170984
 30
0.0
 10
15.2478475549
 20
13.95955499
 30
0.0
 10
15.2531393971
 20
13.9595549848
 30
0.0
  0
SPLINE
  5
2C8
100
AcDbEntity
  8
02___PRT_ALL_AXES
100
AcDbSpline
 62
7
  6
CONTINUOUS
 70
0
 71
3
 72
11
 73
7
 74
0
 42
0.0000001
 43
0.0000001
 44
0.0000000001
 40
0.0
 40
0.0
 40
0.0
 40
0.0
 40
0.2614547493
 40
0.5137409167
 40
0.7590938597
 40
1.0
 40
1.0
 40
1.0
 40
1.0
 10
15.7824648369
 20
13.1219609567
 30
0.0
 10
15.7859883936
 20
13.123897739
 30
0.0
 10
15.7930919245
 20
13.1273889155
 30
0.0
 10
15.8040550296
 20
13.1314598699
 30
0.0
 10
15.8150880945
 20
13.1342482359
 30
0.0
 10
15.8225180815
 20
13.1352512122
 30
0.0
 10
15.8262122043
 20
13.1355317874
 30
0.0
  0
SPLINE
  5
2C9
100
AcDbEntity
  8
02___PRT_ALL_AXES
100
AcDbSpline
 62
7
  6
CONTINUOUS
 70
0
 71
3
 72
30
 73
26
 74
0
 42
0.0000001
 43
0.0000001
 44
0.0000000001
 40
0.0
 40
0.0
 40
0.0
 40
0.0
 40
0.0726691907
 40
0.14591019
 40
0.2192739659
 40
0.2923099995
 40
0.3645712693
 40
0.4356190381
 40
0.5050277784
 40
0.5723903093
 40
0.6373232635
 40
0.6687688182
 40
0.699477226
 40
0.7294100855
 40
0.7585317742
 40
0.7868097382
 40
0.8142148154
 40
0.840721602
 40
0.86630887
 40
0.8909600556
 40
0.9146638011
 40
0.9374146659
 40
0.959213723
 40
0.9800698532
 40
1.0
 40
1.0
 40
1.0
 40
1.0
 10
15.5945596512
 20
12.3906729112
 30
0.0
 10
15.5932243978
 20
12.4081791877
 30
0.0
 10
15.5911472599
 20
12.4433783017
 30
0.0
 10
15.5897935413
 20
12.4963475588
 30
0.0
 10
15.5901929524
 20
12.5494218433
 30
0.0
 10
15.5923426375
 20
12.6022171293
 30
0.0
 10
15.5962269069
 20
12.6543524851
 30
0.0
 10
15.6018174483
 20
12.7054515218
 30
0.0
 10
15.6090735096
 20
12.7551459019
 30
0.0
 10
15.617942243
 20
12.8030767296
 30
0.0
 10
15.6267141945
 20
12.8416657559
 30
0.0
 10
15.6345156267
 20
12.8713651011
 30
0.0
 10
15.6406638287
 20
12.8927494412
 30
0.0
 10
15.6471602593
 20
12.9134429222
 30
0.0
 10
15.6539932573
 20
12.9334082844
 30
0.0
 10
15.6611504509
 20
12.9526095039
 30
0.0
 10
15.6686189283
 20
12.9710119903
 30
0.0
 10
15.6763852321
 20
12.988582617
 30
0.0
 10
15.6844354022
 20
13.0052897953
 30
0.0
 10
15.6927550098
 20
13.0211035182
 30
0.0
 10
15.7013292109
 20
13.035995451
 30
0.0
 10
15.7101427422
 20
13.0499388601
 30
0.0
 10
15.7191801862
 20
13.0629090009
 30
0.0
 10
15.728425242
 20
13.0748820796
 30
0.0
 10
15.7348607235
 20
13.0823526993
 30
0.0
 10
15.7381115708
 20
13.0859048902
 30
0.0
  0
SPLINE
  5
2CA
100
AcDbEntity
  8
02___PRT_ALL_AXES
100
AcDbSpline
 62
7
  6
CONTINUOUS
 70
0
 71
3
 72
10
 73
6
 74
0
 42
0.0000001
 43
0.0000001
 44
0.0000000001
 40
0.0
 40
0.0
 40
0.0
 40
0.0
 40
0.250731671
 40
0.5009614401
 40
1.0
 40
1.0
 40
1.0
 40
1.0
 10
15.9933459948
 20
12.0396978396
 30
0.0
 10
15.9660527387
 20
12.0406652904
 30
0.0
 10
15.9115265606
 20
12.0427629421
 30
0.0
 10
15.8027085986
 20
12.047548253
 30
0.0
 10
15.7212026266
 20
12.0517486847
 30
0.0
 10
15.6669318783
 20
12.0548039353
 30
0.0
  0
LINE
  5
2CB
100
AcDbEntity
  8
02___PRT_ALL_AXES
100
AcDbLine
 62
7
  6
CONTINUOUS
 10
15.8422494139
 20
11.8862175284
 11
15.8114150722
 21
11.8884952365
  0
LINE
  5
2CC
100
AcDbEntity
  8
02___PRT_ALL_AXES
100
AcDbLine
 62
7
  6
CONTINUOUS
 10
15.7824648369
 20
13.1219609567
 11
15.7417818546
 21
13.1191396791
  0
SPLINE
  5
2CD
100
AcDbEntity
  8
02___PRT_ALL_AXES
100
AcDbSpline
 62
7
  6
CONTINUOUS
 70
0
 71
3
 72
23
 73
19
 74
0
 42
0.0000001
 43
0.0000001
 44
0.0000000001
 40
0.0
 40
0.0
 40
0.0
 40
0.0
 40
0.0174888405
 40
0.0351642968
 40
0.0717309766
 40
0.1110090463
 40
0.1539428288
 40
0.20116057
 40
0.2530211015
 40
0.3096706618
 40
0.3710915029
 40
0.4371387881
 40
0.5075676402
 40
0.5820530739
 40
0.6602052003
 40
0.741581049
 40
0.825695022
 40
1.0
 40
1.0
 40
1.0
 40
1.0
 10
15.8643653206
 20
11.8498116199
 30
0.0
 10
15.8647217763
 20
11.8498116212
 30
0.0
 10
15.8654391794
 20
11.8498522797
 30
0.0
 10
15.8668829881
 20
11.8500977871
 30
0.0
 10
15.8686982976
 20
11.8507269264
 30
0.0
 10
15.8708005351
 20
11.851952182
 30
0.0
 10
15.8728416507
 20
11.8536387056
 30
0.0
 10
15.8748099411
 20
11.8557706216
 30
0.0
 10
15.876694413
 20
11.8583313747
 30
0.0
 10
15.8784828723
 20
11.8613022266
 30
0.0
 10
15.8801629088
 20
11.8646614502
 30
0.0
 10
15.8817222602
 20
11.8683841927
 30
0.0
 10
15.8831492403
 20
11.8724425918
 30
0.0
 10
15.8844329938
 20
11.8768060237
 30
0.0
 10
15.8855636487
 20
11.8814413278
 30
0.0
 10
15.8865325569
 20
11.8863133018
 30
0.0
 10
15.8876112215
 20
11.8931557422
 30
0.0
 10
15.888134901
 20
11.8984028813
 30
0.0
 10
15.8883670298
 20
11.9019479561
 30
0.0
  0
SPLINE
  5
2CE
100
AcDbEntity
  8
02___PRT_ALL_AXES
100
AcDbSpline
 62
7
  6
CONTINUOUS
 70
0
 71
3
 72
29
 73
25
 74
0
 42
0.0000001
 43
0.0000001
 44
0.0000000001
 40
0.0
 40
0.0
 40
0.0
 40
0.0
 40
0.0155183102
 40
0.0313974719
 40
0.0479690116
 40
0.0655143786
 40
0.0842562143
 40
0.1043592221
 40
0.125936256
 40
0.1490560133
 40
0.1737506654
 40
0.2000223659
 40
0.2278484704
 40
0.2571855742
 40
0.3201218929
 40
0.3881961438
 40
0.4605809332
 40
0.5363204067
 40
0.6143669827
 40
0.6936134354
 40
0.7729224331
 40
0.8511550796
 40
0.9271989018
 40
1.0
 40
1.0
 40
1.0
 40
1.0
 10
16.0041384339
 20
12.0332172198
 30
0.0
 10
16.0046684824
 20
12.0332172226
 30
0.0
 10
16.0057429737
 20
12.033308147
 30
0.0
 10
16.0073371506
 20
12.0337142279
 30
0.0
 10
16.0089136555
 20
12.0343865089
 30
0.0
 10
16.0104651074
 20
12.0353197601
 30
0.0
 10
16.0119859535
 20
12.0365083717
 30
0.0
 10
16.0134708235
 20
12.0379464815
 30
0.0
 10
16.0149144371
 20
12.0396277615
 30
0.0
 10
16.0163114335
 20
12.0415451573
 30
0.0
 10
16.0176564158
 20
12.0436907552
 30
0.0
 10
16.0189439973
 20
12.0460557105
 30
0.0
 10
16.0201689817
 20
12.048630247
 30
0.0
 10
16.0217489677
 20
12.052417383
 30
0.0
 10
16.023515168
 20
12.0576087456
 30
0.0
 10
16.0252658019
 20
12.0643370071
 30
0.0
 10
16.0266648112
 20
12.0715925118
 30
0.0
 10
16.0276882551
 20
12.0792535368
 30
0.0
 10
16.0283185274
 20
12.0871917142
 30
0.0
 10
16.0285447845
 20
12.095273468
 30
0.0
 10
16.0283631132
 20
12.1033626723
 30
0.0
 10
16.0277766518
 20
12.11132319
 30
0.0
 10
16.0267955444
 20
12.1190206799
 30
0.0
 10
16.0258651704
 20
12.1240225732
 30
0.0
 10
16.0253310751
 20
12.1264511553
 30
0.0
  0
SPLINE
  5
2CF
100
AcDbEntity
  8
LAYER_FEATURE
100
AcDbSpline
 62
7
  6
CONTINUOUS
 70
0
 71
3
 72
23
 73
19
 74
0
 42
0.0000001
 43
0.0000001
 44
0.0000000001
 40
0.0
 40
0.0
 40
0.0
 40
0.0
 40
0.0796432477
 40
0.1571993418
 40
0.2325913126
 40
0.3057502584
 40
0.3766159763
 40
0.4451379908
 40
0.5112765793
 40
0.5750040136
 40
0.6363059736
 40
0.6951831914
 40
0.7516533467
 40
0.8057532416
 40
0.8575412611
 40
0.9071000973
 40
0.9545396584
 40
1.0
 40
1.0
 40
1.0
 40
1.0
 10
15.1833068191
 20
13.2831366376
 30
0.0
 10
15.1873077504
 20
13.2960836561
 30
0.0
 10
15.1955002461
 20
13.3215483782
 30
0.0
 10
15.2085454652
 20
13.3589156493
 30
0.0
 10
15.222167436
 20
13.3948998351
 30
0.0
 10
15.2363438972
 20
13.4294421645
 30
0.0
 10
15.2510518309
 20
13.4624866051
 30
0.0
 10
15.2662673711
 20
13.4939795179
 30
0.0
 10
15.2819659023
 20
13.5238698627
 30
0.0
 10
15.2981221101
 20
13.5521092486
 30
0.0
 10
15.3147100534
 20
13.5786520116
 30
0.0
 10
15.3317032452
 20
13.6034552733
 30
0.0
 10
15.3490747182
 20
13.6264789681
 30
0.0
 10
15.3667971755
 20
13.6476858971
 30
0.0
 10
15.3848428481
 20
13.6670415633
 30
0.0
 10
15.4031843473
 20
13.6845146109
 30
0.0
 10
15.4217919397
 20
13.7000749623
 30
0.0
 10
15.4346167128
 20
13.7093441745
 30
0.0
 10
15.4410582724
 20
13.7136262434
 30
0.0
  0
SPLINE
  5
2D0
100
AcDbEntity
  8
LAYER_FEATURE
100
AcDbSpline
 62
7
  6
CONTINUOUS
 70
0
 71
3
 72
23
 73
19
 74
0
 42
0.0000001
 43
0.0000001
 44
0.0000000001
 40
0.0
 40
0.0
 40
0.0
 40
0.0
 40
0.054784872
 40
0.1112082807
 40
0.1691583837
 40
0.228515099
 40
0.2891518693
 40
0.3509362364
 40
0.4137306453
 40
0.4773931604
 40
0.5417781587
 40
0.6067370108
 40
0.672118725
 40
0.7377705839
 40
0.8035387795
 40
0.8692690343
 40
0.9348072239
 40
1.0
 40
1.0
 40
1.0
 40
1.0
 10
15.1409475389
 20
13.3694557751
 30
0.0
 10
15.1349927731
 20
13.350186146
 30
0.0
 10
15.1235088893
 20
13.3108816885
 30
0.0
 10
15.1077578097
 20
13.2506241032
 30
0.0
 10
15.0932596694
 20
13.1883235061
 30
0.0
 10
15.0800548492
 20
13.124152281
 30
0.0
 10
15.0681798588
 20
13.0582872742
 30
0.0
 10
15.057667613
 20
12.9909102736
 30
0.0
 10
15.0485472559
 20
12.9222072329
 30
0.0
 10
15.0408440737
 20
12.8523678383
 30
0.0
 10
15.0345794106
 20
12.781584948
 30
0.0
 10
15.0297706445
 20
12.7100540537
 30
0.0
 10
15.0264311194
 20
12.6379727374
 30
0.0
 10
15.0245700817
 20
12.5655401084
 30
0.0
 10
15.0241926915
 20
12.4929562936
 30
0.0
 10
15.0253000176
 20
12.4204216982
 30
0.0
 10
15.0278889473
 20
12.3481371238
 30
0.0
 10
15.030607209
 20
12.3000819637
 30
0.0
 10
15.0322147933
 20
12.2761355197
 30
0.0
  0
SPLINE
  5
2D1
100
AcDbEntity
  8
LAYER_FEATURE
100
AcDbSpline
 62
7
  6
CONTINUOUS
 70
0
 71
3
 72
63
 73
59
 74
0
 42
0.0000001
 43
0.0000001
 44
0.0000000001
 40
0.0
 40
0.0
 40
0.0
 40
0.0
 40
0.0482948952
 40
0.0959594458
 40
0.142826774
 40
0.1887351745
 40
0.2335293298
 40
0.2770615922
 40
0.3191934008
 40
0.3597967965
 40
0.3794896338
 40
0.3987581527
 40
0.4175901705
 40
0.435974547
 40
0.4539012702
 40
0.4713615561
 40
0.4883479513
 40
0.5048544489
 40
0.5208766207
 40
0.536411766
 40
0.5514590838
 40
0.5660198599
 40
0.5800976744
 40
0.5936986362
 40
0.6068316426
 40
0.619508664
 40
0.6317450451
 40
0.6435598098
 40
0.6549759661
 40
0.6660207843
 40
0.6767260215
 40
0.6871280488
 40
0.697267834
 40
0.7071907401
 40
0.7169460985
 40
0.7265865365
 40
0.7361670682
 40
0.7457439938
 40
0.7553736913
 40
0.7651114027
 40
0.7750101162
 40
0.7851196266
 40
0.7954858312
 40
0.806150273
 40
0.8171499128
 40
0.8285170941
 40
0.8402796498
 40
0.8524611156
 40
0.8650810056
 40
0.8781551151
 40
0.8916958305
 40
0.9057124268
 40
0.9202113524
 40
0.9351964946
 40
0.9506694183
 40
0.9666295794
 40
0.9830745128
 40
1.0
 40
1.0
 40
1.0
 40
1.0
 10
15.0322147933
 20
12.2761355197
 30
0.0
 10
15.0341849085
 20
12.2467888441
 30
0.0
 10
15.0388516953
 20
12.1885259902
 30
0.0
 10
15.0480934313
 20
12.1020234003
 30
0.0
 10
15.0595000593
 20
12.0172447359
 30
0.0
 10
15.0730231299
 20
11.9345481311
 30
0.0
 10
15.0886052962
 20
11.8542818955
 30
0.0
 10
15.1061805692
 20
11.7767837833
 30
0.0
 10
15.1256744192
 20
11.7023806937
 30
0.0
 10
15.1436277498
 20
11.6426223683
 30
0.0
 10
15.1589199912
 20
11.5966389594
 30
0.0
 10
15.1706984005
 20
11.5634679541
 30
0.0
 10
15.182890091
 20
11.531297336
 30
0.0
 10
15.1954823127
 20
11.5001609081
 30
0.0
 10
15.2084617735
 20
11.4700914924
 30
0.0
 10
15.2218148127
 20
11.4411207343
 30
0.0
 10
15.2355273845
 20
11.4132791121
 30
0.0
 10
15.2495850914
 20
11.3865958988
 30
0.0
 10
15.2639731995
 20
11.3610991361
 30
0.0
 10
15.2786766668
 20
11.3368156054
 30
0.0
 10
15.2936801552
 20
11.3137707948
 30
0.0
 10
15.3089680602
 20
11.2919888791
 30
0.0
 10
15.3245245442
 20
11.2714927117
 30
0.0
 10
15.3403335594
 20
11.2523038156
 30
0.0
 10
15.3563788783
 20
11.2344423812
 30
0.0
 10
15.3726441092
 20
11.2179272642
 30
0.0
 10
15.3891127109
 20
11.2027759959
 30
0.0
 10
15.4057680086
 20
11.189004821
 30
0.0
 10
15.4225931778
 20
11.1766287288
 30
0.0
 10
15.4395712126
 20
11.1656614877
 30
0.0
 10
15.4566848592
 20
11.1561156608
 30
0.0
 10
15.4739165195
 20
11.1480025877
 30
0.0
 10
15.4912481527
 20
11.1413323565
 30
0.0
 10
15.508661164
 20
11.1361136934
 30
0.0
 10
15.5261363347
 20
11.1323537901
 30
0.0
 10
15.5436538259
 20
11.1300580791
 30
0.0
 10
15.561193285
 20
11.1292299805
 30
0.0
 10
15.5787340644
 20
11.1298707512
 30
0.0
 10
15.5962554978
 20
11.1319794132
 30
0.0
 10
15.6137371841
 20
11.1355528092
 30
0.0
 10
15.6311592073
 20
11.1405857692
 30
0.0
 10
15.6485022669
 20
11.1470713104
 30
0.0
 10
15.6657476922
 20
11.1550008859
 30
0.0
 10
15.6828773776
 20
11.16436457
 30
0.0
 10
15.699873679
 20
11.1751511739
 30
0.0
 10
15.7167192985
 20
11.1873483024
 30
0.0
 10
15.7333972016
 20
11.2009423437
 30
0.0
 10
15.7498905458
 20
11.2159184607
 30
0.0
 10
15.7661826384
 20
11.2322605669
 30
0.0
 10
15.7822569254
 20
11.249951293
 30
0.0
 10
15.7980969906
 20
11.2689719607
 30
0.0
 10
15.8136865808
 20
11.2893025553
 30
0.0
 10
15.8290096273
 20
11.3109217188
 30
0.0
 10
15.8440502662
 20
11.3338067674
 30
0.0
 10
15.858792858
 20
11.3579336758
 30
0.0
 10
15.8732220556
 20
11.3832771866
 30
0.0
 10
15.8873226608
 20
11.4098104513
 30
0.0
 10
15.8963652741
 20
11.4280144537
 30
0.0
 10
15.9008326322
 20
11.4373041259
 30
0.0
  0
SPLINE
  5
2D2
100
AcDbEntity
  8
LAYER_FEATURE
100
AcDbSpline
 62
7
  6
CONTINUOUS
 70
0
 71
3
 72
54
 73
50
 74
0
 42
0.0000001
 43
0.0000001
 44
0.0000000001
 40
0.0
 40
0.0
 40
0.0
 40
0.0
 40
0.033050083
 40
0.0673809185
 40
0.1028689289
 40
0.1393805316
 40
0.1767738169
 40
0.214899975
 40
0.25360464
 40
0.2927291642
 40
0.332111844
 40
0.3715891171
 40
0.410996745
 40
0.4501709878
 40
0.4889497822
 40
0.5271739364
 40
0.5646883543
 40
0.6013432993
 40
0.6369957232
 40
0.6544041331
 40
0.6715120654
 40
0.6883041813
 40
0.7047658546
 40
0.7208832311
 40
0.736643294
 40
0.752033935
 40
0.7670440316
 40
0.7816635337
 40
0.7958835599
 40
0.8096965037
 40
0.823096154
 40
0.8360778312
 40
0.8486385411
 40
0.8607771508
 40
0.8724945867
 40
0.88379406
 40
0.8946813196
 40
0.905164933
 40
0.915256592
 40
0.9249714402
 40
0.9343284073
 40
0.9433505317
 40
0.9520652404
 40
0.9605045434
 40
0.9687050901
 40
0.9767080295
 40
0.9845586187
 40
0.9923055502
 40
1.0
 40
1.0
 40
1.0
 40
1.0
 10
15.1335813408
 20
13.4113624344
 30
0.0
 10
15.1252215321
 20
13.3843100836
 30
0.0
 10
15.1093158687
 20
13.3288000978
 30
0.0
 10
15.0882124069
 20
13.2432161883
 30
0.0
 10
15.0694857527
 20
13.154048705
 30
0.0
 10
15.0532285411
 20
13.0617347456
 30
0.0
 10
15.0395206553
 20
12.9667247997
 30
0.0
 10
15.028429646
 20
12.869483553
 30
0.0
 10
15.0200101409
 20
12.7704866515
 30
0.0
 10
15.014303634
 20
12.6702185555
 30
0.0
 10
15.0113382559
 20
12.5691700482
 30
0.0
 10
15.0111286203
 20
12.4678358062
 30
0.0
 10
15.0136757546
 20
12.3667119258
 30
0.0
 10
15.0189671046
 20
12.266293462
 30
0.0
 10
15.0269765982
 20
12.1670719338
 30
0.0
 10
15.0376647656
 20
12.0695329779
 30
0.0
 10
15.0509789426
 20
11.9741535256
 30
0.0
 10
15.0668535359
 20
11.8814008228
 30
0.0
 10
15.0822707709
 20
11.806085692
 30
0.0
 10
15.095856153
 20
11.7475233578
 30
0.0
 10
15.1065522055
 20
11.7048851116
 30
0.0
 10
15.1178225975
 20
11.6632347256
 30
0.0
 10
15.1296535966
 20
11.6226230765
 30
0.0
 10
15.1420306713
 20
11.583099904
 30
0.0
 10
15.1549386574
 20
11.5447135618
 30
0.0
 10
15.1683617409
 20
11.5075110063
 30
0.0
 10
15.18228349
 20
11.4715377236
 30
0.0
 10
15.1966868768
 20
11.4368376757
 30
0.0
 10
15.2115543005
 20
11.4034532421
 30
0.0
 10
15.2268676183
 20
11.3714251688
 30
0.0
 10
15.2426081748
 20
11.3407925184
 30
0.0
 10
15.2587568337
 20
11.311592623
 30
0.0
 10
15.2752940134
 20
11.283861042
 30
0.0
 10
15.2921997241
 20
11.2576315234
 30
0.0
 10
15.3094536089
 20
11.2329359723
 30
0.0
 10
15.3270349868
 20
11.2098044285
 30
0.0
 10
15.344922894
 20
11.1882650509
 30
0.0
 10
15.3630961271
 20
11.1683441197
 30
0.0
 10
15.3815332799
 20
11.150066056
 30
0.0
 10
15.4002127646
 20
11.133453457
 30
0.0
 10
15.4191128118
 20
11.1185271477
 30
0.0
 10
15.4382114312
 20
11.1053062426
 30
0.0
 10
15.4574863324
 20
11.0938082011
 30
0.0
 10
15.4769147647
 20
11.0840488519
 30
0.0
 10
15.4964734028
 20
11.0760423464
 30
0.0
 10
15.5161378835
 20
11.0698010063
 30
0.0
 10
15.5358836005
 20
11.0653350522
 30
0.0
 10
15.5556822389
 20
11.0626522341
 30
0.0
 10
15.5689187736
 20
11.0620549956
 30
0.0
 10
15.575510745
 20
11.0620550011
 30
0.0
  0
SPLINE
  5
2D3
100
AcDbEntity
  8
02___PRT_ALL_AXES
100
AcDbSpline
 62
7
  6
CONTINUOUS
 70
0
 71
3
 72
41
 73
37
 74
0
 42
0.0000001
 43
0.0000001
 44
0.0000000001
 40
0.0
 40
0.0
 40
0.0
 40
0.0
 40
0.0475917526
 40
0.0939247649
 40
0.1389525614
 40
0.1826332281
 40
0.2249303574
 40
0.2658134978
 40
0.3052588244
 40
0.3432499184
 40
0.3797786374
 40
0.4148461426
 40
0.4484640972
 40
0.4806560106
 40
0.5114587805
 40
0.5409244029
 40
0.5691217644
 40
0.5827737517
 40
0.5961432242
 40
0.6220871449
 40
0.6470876516
 40
0.6712958251
 40
0.6948834765
 40
0.7180404872
 40
0.7409703582
 40
0.7638841625
 40
0.7869935182
 40
0.8105034934
 40
0.8346063569
 40
0.8594768645
 40
0.8852693352
 40
0.8985561149
 40
0.9121212766
 40
0.940134053
 40
0.9694030951
 40
1.0
 40
1.0
 40
1.0
 40
1.0
 10
15.5045726911
 20
13.1809005387
 30
0.0
 10
15.5080737389
 20
13.1922299333
 30
0.0
 10
15.5152439805
 20
13.2145096478
 30
0.0
 10
15.5266670146
 20
13.2471962997
 30
0.0
 10
15.5385988163
 20
13.2786611487
 30
0.0
 10
15.5510195786
 20
13.3088519462
 30
0.0
 10
15.563908766
 20
13.3377188507
 30
0.0
 10
15.5772451074
 20
13.3652141992
 30
0.0
 10
15.5910066634
 20
13.3912926595
 30
0.0
 10
15.6051708599
 20
13.4159112883
 30
0.0
 10
15.6197145747
 20
13.4390295945
 30
0.0
 10
15.6346141992
 20
13.4606095807
 30
0.0
 10
15.6498457224
 20
13.4806158098
 30
0.0
 10
15.6653847406
 20
13.4990153285
 30
0.0
 10
15.6812068445
 20
13.5157778938
 30
0.0
 10
15.6972865538
 20
13.5308750518
 30
0.0
 10
15.7110263303
 20
13.5421669292
 30
0.0
 10
15.7221188169
 20
13.5503112636
 30
0.0
 10
15.7330444435
 20
13.557717766
 30
0.0
 10
15.746825004
 20
13.5659330415
 30
0.0
 10
15.7636840804
 20
13.5741360308
 30
0.0
 10
15.7806720794
 20
13.5805675351
 30
0.0
 10
15.7977594743
 20
13.5852124854
 30
0.0
 10
15.8149155771
 20
13.588059322
 30
0.0
 10
15.8321078311
 20
13.5891003525
 30
0.0
 10
15.849302641
 20
13.588332677
 30
0.0
 10
15.8664663333
 20
13.5857584426
 30
0.0
 10
15.8835661328
 20
13.5813846518
 30
0.0
 10
15.9005710786
 20
13.5752223277
 30
0.0
 10
15.9174513703
 20
13.5672861261
 30
0.0
 10
15.9312545315
 20
13.5592876679
 30
0.0
 10
15.9421992104
 20
13.5520532891
 30
0.0
 10
15.9533105333
 20
13.5440850706
 30
0.0
 10
15.9670774722
 20
13.5330107338
 30
0.0
 10
15.9831936299
 20
13.5181679753
 30
0.0
 10
15.9935341789
 20
13.5074037305
 30
0.0
 10
15.9986631529
 20
13.5017634926
 30
0.0
  0
SPLINE
  5
2D4
100
AcDbEntity
  8
02___PRT_ALL_AXES
100
AcDbSpline
 62
7
  6
CONTINUOUS
 70
0
 71
3
 72
14
 73
10
 74
0
 42
0.0000001
 43
0.0000001
 44
0.0000000001
 40
0.0
 40
0.0
 40
0.0
 40
0.0
 40
0.1179235004
 40
0.2360731774
 40
0.3554157795
 40
0.4768825775
 40
0.6013453452
 40
0.7295966886
 40
1.0
 40
1.0
 40
1.0
 40
1.0
 10
15.8262122043
 20
13.1355317874
 30
0.0
 10
15.8293268174
 20
13.1357683477
 30
0.0
 10
15.835589817
 20
13.1359351526
 30
0.0
 10
15.8449939141
 20
13.1352517594
 30
0.0
 10
15.854379135
 20
13.1336362361
 30
0.0
 10
15.8637284745
 20
13.1310923466
 30
0.0
 10
15.8730281617
 20
13.1276250463
 30
0.0
 10
15.8855579577
 20
13.1216784943
 30
0.0
 10
15.8945134876
 20
13.1159830209
 30
0.0
 10
15.9002878268
 20
13.1117452796
 30
0.0
  0
SPLINE
  5
2D5
100
AcDbEntity
  8
02___PRT_ALL_AXES
100
AcDbSpline
 62
7
  6
CONTINUOUS
 70
0
 71
3
 72
28
 73
24
 74
0
 42
0.0000001
 43
0.0000001
 44
0.0000000001
 40
0.0
 40
0.0
 40
0.0
 40
0.0
 40
0.0879709016
 40
0.17266953
 40
0.2539405737
 40
0.3316543601
 40
0.4057108254
 40
0.4760441955
 40
0.5426287119
 40
0.605485647
 40
0.6646918351
 40
0.720389833
 40
0.7469956897
 40
0.7728143237
 40
0.8222449464
 40
0.8459768883
 40
0.8691265548
 40
0.8917616236
 40
0.9139561601
 40
0.9357901439
 40
0.9573487327
 40
0.9787212609
 40
1.0
 40
1.0
 40
1.0
 40
1.0
 10
15.4852615711
 20
13.1906908957
 30
0.0
 10
15.4901380989
 20
13.2064713454
 30
0.0
 10
15.5002054608
 20
13.2372952718
 30
0.0
 10
15.5165859167
 20
13.2820817439
 30
0.0
 10
15.5339191564
 20
13.3244363512
 30
0.0
 10
15.5521506966
 20
13.3642259536
 30
0.0
 10
15.5712237732
 20
13.4013265324
 30
0.0
 10
15.5910794768
 20
13.4356226787
 30
0.0
 10
15.611657046
 20
13.4670079266
 30
0.0
 10
15.6328950551
 20
13.4953855889
 30
0.0
 10
15.6547295808
 20
13.520666185
 30
0.0
 10
15.6736524249
 20
13.5393657832
 30
0.0
 10
15.6890338528
 20
13.5526249297
 30
0.0
 10
15.7040993253
 20
13.5644116982
 30
0.0
 10
15.7195836744
 20
13.5747645137
 30
0.0
 10
15.735430118
 20
13.583493161
 30
0.0
 10
15.7472242651
 20
13.5891029669
 30
0.0
 10
15.7590776809
 20
13.5938586741
 30
0.0
 10
15.7709813462
 20
13.5977561376
 30
0.0
 10
15.7829254354
 20
13.6007915594
 30
0.0
 10
15.7949003247
 20
13.6029619495
 30
0.0
 10
15.8068951058
 20
13.6042650895
 30
0.0
 10
15.8149059772
 20
13.6045549904
 30
0.0
 10
15.8189011127
 20
13.6045549904
 30
0.0
  0
SPLINE
  5
2D6
100
AcDbEntity
  8
LAYER_FEATURE
100
AcDbSpline
 62
7
  6
CONTINUOUS
 70
0
 71
3
 72
47
 73
43
 74
0
 42
0.0000001
 43
0.0000001
 44
0.0000000001
 40
0.0
 40
0.0
 40
0.0
 40
0.0
 40
0.0173869031
 40
0.0265241632
 40
0.035974874
 40
0.0457507008
 40
0.055860993
 40
0.0663129704
 40
0.0771119108
 40
0.0882613259
 40
0.0997631191
 40
0.1116177218
 40
0.123824222
 40
0.1363804861
 40
0.1492832618
 40
0.1625282654
 40
0.176110261
 40
0.1900231419
 40
0.2042599969
 40
0.2336729181
 40
0.2642812338
 40
0.2960060002
 40
0.3287599475
 40
0.3624486294
 40
0.3969713866
 40
0.4322222701
 40
0.4680908527
 40
0.5044630262
 40
0.5412217358
 40
0.5782477088
 40
0.6154201522
 40
0.6526174483
 40
0.6897178385
 40
0.7266001112
 40
0.7631442875
 40
0.7992323241
 40
0.8347488187
 40
0.8695817546
 40
0.9036232532
 40
0.9367703957
 40
0.9689260274
 40
1.0
 40
1.0
 40
1.0
 40
1.0
 10
15.4410582727
 20
11.3079837455
 30
0.0
 10
15.4310443492
 20
11.3146405669
 30
0.0
 10
15.4163735568
 20
11.3257343346
 30
0.0
 10
15.397728004
 20
11.3422150268
 30
0.0
 10
15.3836705888
 20
11.3559083794
 30
0.0
 10
15.3697885876
 20
11.3707133771
 30
0.0
 10
15.3560935458
 20
11.3866168837
 30
0.0
 10
15.3425987028
 20
11.4036032655
 30
0.0
 10
15.3293166484
 20
11.4216562992
 30
0.0
 10
15.3162599721
 20
11.4407586479
 30
0.0
 10
15.3034410602
 20
11.4608920144
 30
0.0
 10
15.2908721144
 20
11.4820370929
 30
0.0
 10
15.2785651195
 20
11.5041735962
 30
0.0
 10
15.2665318439
 20
11.5272802831
 30
0.0
 10
15.2547838229
 20
11.5513349738
 30
0.0
 10
15.2433323254
 20
11.5763145684
 30
0.0
 10
15.2321883695
 20
11.6021950319
 30
0.0
 10
15.2213625723
 20
11.6289515572
 30
0.0
 10
15.2072130542
 20
11.6661646215
 30
0.0
 10
15.190431557
 20
11.7147167614
 30
0.0
 10
15.1719349776
 20
11.7754252153
 30
0.0
 10
15.1549380132
 20
11.8389647395
 30
0.0
 10
15.1395063337
 20
11.9050906666
 30
0.0
 10
15.1256995923
 20
11.9735491946
 30
0.0
 10
15.1135711657
 20
12.0440770132
 30
0.0
 10
15.10316803
 20
12.1164027672
 30
0.0
 10
15.0945304352
 20
12.1902480168
 30
0.0
 10
15.0876918593
 20
12.2653283779
 30
0.0
 10
15.0826787709
 20
12.3413546292
 30
0.0
 10
15.0795106049
 20
12.4180338523
 30
0.0
 10
15.0781996257
 20
12.4950705768
 30
0.0
 10
15.0787509157
 20
12.5721679358
 30
0.0
 10
15.0811623415
 20
12.649028826
 30
0.0
 10
15.0854245528
 20
12.7253570674
 30
0.0
 10
15.0915210517
 20
12.8008585604
 30
0.0
 10
15.0994282037
 20
12.8752424399
 30
0.0
 10
15.1091154059
 20
12.9482222031
 30
0.0
 10
15.1205451233
 20
13.0195168806
 30
0.0
 10
15.1336731183
 20
13.0888519908
 30
0.0
 10
15.1484486413
 20
13.1559611314
 30
0.0
 10
15.1648142834
 20
13.2205853111
 30
0.0
 10
15.1769618046
 20
13.2626041631
 30
0.0
 10
15.1833068191
 20
13.2831366376
 30
0.0
  0
SPLINE
  5
2D7
100
AcDbEntity
  8
02___PRT_ALL_AXES
100
AcDbSpline
 62
7
  6
CONTINUOUS
 70
0
 71
3
 72
47
 73
43
 74
0
 42
0.0000001
 43
0.0000001
 44
0.0000000001
 40
0.0
 40
0.0
 40
0.0
 40
0.0
 40
0.0173869031
 40
0.0265241632
 40
0.035974874
 40
0.0457507008
 40
0.055860993
 40
0.0663129704
 40
0.0771119108
 40
0.0882613259
 40
0.0997631191
 40
0.1116177218
 40
0.123824222
 40
0.1363804861
 40
0.1492832618
 40
0.1625282654
 40
0.176110261
 40
0.1900231419
 40
0.2042599969
 40
0.2336729181
 40
0.2642812338
 40
0.2960060002
 40
0.3287599475
 40
0.3624486294
 40
0.3969713866
 40
0.4322222701
 40
0.4680908527
 40
0.5044630262
 40
0.5412217358
 40
0.5782477088
 40
0.6154201522
 40
0.6526174483
 40
0.6897178385
 40
0.7266001112
 40
0.7631442875
 40
0.7992323241
 40
0.8347488187
 40
0.8695817546
 40
0.9036232532
 40
0.9367703957
 40
0.9689260274
 40
1.0
 40
1.0
 40
1.0
 40
1.0
 10
15.4491118784
 20
11.3026300698
 30
0.0
 10
15.4390533836
 20
11.3093165202
 30
0.0
 10
15.4243172925
 20
11.3204596655
 30
0.0
 10
15.4055887496
 20
11.3370137122
 30
0.0
 10
15.3914687658
 20
11.3507680129
 30
0.0
 10
15.3775249767
 20
11.3656389066
 30
0.0
 10
15.3637689792
 20
11.3816131987
 30
0.0
 10
15.3502140716
 20
11.3986751857
 30
0.0
 10
15.3368728997
 20
11.4168085723
 30
0.0
 10
15.323758109
 20
11.4359959442
 30
0.0
 10
15.310882141
 20
11.456218923
 30
0.0
 10
15.2982572517
 20
11.4774581167
 30
0.0
 10
15.2858954792
 20
11.4996931481
 30
0.0
 10
15.2738086443
 20
11.5229026813
 30
0.0
 10
15.2620083336
 20
11.5470644378
 30
0.0
 10
15.2505058663
 20
11.5721552149
 30
0.0
 10
15.2393123094
 20
11.5981508706
 30
0.0
 10
15.2284383274
 20
11.6250264874
 30
0.0
 10
15.2142258307
 20
11.6624051845
 30
0.0
 10
15.1973696402
 20
11.7111734266
 30
0.0
 10
15.1787907337
 20
11.7721520898
 30
0.0
 10
15.161718117
 20
11.8359744241
 30
0.0
 10
15.1462177521
 20
11.9023946732
 30
0.0
 10
15.1323495579
 20
11.9711579055
 30
0.0
 10
15.1201671485
 20
12.0419996386
 30
0.0
 10
15.1097177092
 20
12.1146473097
 30
0.0
 10
15.101041669
 20
12.1888212394
 30
0.0
 10
15.094172655
 20
12.2642357781
 30
0.0
 10
15.0891372538
 20
12.3406004172
 30
0.0
 10
15.0859549864
 20
12.4176209342
 30
0.0
 10
15.0846381721
 20
12.495000544
 30
0.0
 10
15.0851919159
 20
12.5724410581
 30
0.0
 10
15.0876140748
 20
12.6496440509
 30
0.0
 10
15.0918952569
 20
12.7263120241
 30
0.0
 10
15.0980188909
 20
12.8021495691
 30
0.0
 10
15.1059612371
 20
12.8768645263
 30
0.0
 10
15.1156915564
 20
12.9501691175
 30
0.0
 10
15.1271721467
 20
13.0217811227
 30
0.0
 10
15.1403585735
 20
13.0914248388
 30
0.0
 10
15.1551998614
 20
13.1588326776
 30
0.0
 10
15.1716383458
 20
13.2237444952
 30
0.0
 10
15.1838399348
 20
13.2659503702
 30
0.0
 10
15.1902131905
 20
13.2865742333
 30
0.0
  0
SPLINE
  5
2D8
100
AcDbEntity
  8
02___PRT_ALL_AXES
100
AcDbSpline
 62
7
  6
CONTINUOUS
 70
0
 71
3
 72
25
 73
21
 74
0
 42
0.0000001
 43
0.0000001
 44
0.0000000001
 40
0.0
 40
0.0
 40
0.0
 40
0.0
 40
0.084304458
 40
0.1684052607
 40
0.251552671
 40
0.3330069909
 40
0.4120575446
 40
0.4880328443
 40
0.5603150087
 40
0.6283553421
 40
0.691693191
 40
0.7499800967
 40
0.8030127273
 40
0.85077943
 40
0.8935269308
 40
0.9318505382
 40
0.9496873001
 40
0.9668505605
 40
0.9835455006
 40
1.0
 40
1.0
 40
1.0
 40
1.0
 10
15.9435930091
 20
13.0680889102
 30
0.0
 10
15.9436560375
 20
13.07023008
 30
0.0
 10
15.9436958788
 20
13.0745102677
 30
0.0
 10
15.9435000226
 20
13.0809006156
 30
0.0
 10
15.9430507973
 20
13.087205729
 30
0.0
 10
15.9423529703
 20
13.0933591437
 30
0.0
 10
15.9414140046
 20
13.0992961526
 30
0.0
 10
15.9402439049
 20
13.1049544328
 30
0.0
 10
15.9388551245
 20
13.1102747654
 30
0.0
 10
15.9372623565
 20
13.115201732
 30
0.0
 10
15.9354822999
 20
13.1196843945
 30
0.0
 10
15.9335331827
 20
13.1236769796
 30
0.0
 10
15.9314343832
 20
13.1271393738
 30
0.0
 10
15.9292046044
 20
13.1300376456
 30
0.0
 10
15.9268629247
 20
13.1323424713
 30
0.0
 10
15.9247799118
 20
13.1337802103
 30
0.0
 10
15.9230907241
 20
13.1345747801
 30
0.0
 10
15.9218418607
 20
13.1349923838
 30
0.0
 10
15.9205850255
 20
13.135243783
 30
0.0
 10
15.9197416946
 20
13.1352998881
 30
0.0
 10
15.9193236012
 20
13.1352998857
 30
0.0
  0
SPLINE
  5
2D9
100
AcDbEntity
  8
LAYER_FEATURE
100
AcDbSpline
 62
7
  6
CONTINUOUS
 70
0
 71
3
 72
11
 73
7
 74
0
 42
0.0000001
 43
0.0000001
 44
0.0000000001
 40
0.0
 40
0.0
 40
0.0
 40
0.0
 40
0.2221057691
 40
0.4624484853
 40
0.7217073982
 40
1.0
 40
1.0
 40
1.0
 40
1.0
 10
14.8329283818
 20
13.0856634703
 30
0.0
 10
14.8333587986
 20
13.0860657647
 30
0.0
 10
14.8342059943
 20
13.0869566397
 30
0.0
 10
14.8353869058
 20
13.0884663419
 30
0.0
 10
14.8365209699
 20
13.0901925775
 30
0.0
 10
14.8372175911
 20
13.0914381067
 30
0.0
 10
14.8375583856
 20
13.0920929235
 30
0.0
  0
SPLINE
  5
2DA
100
AcDbEntity
  8
LAYER_FEATURE
100
AcDbSpline
 62
7
  6
CONTINUOUS
 70
0
 71
3
 72
16
 73
12
 74
0
 42
0.0000001
 43
0.0000001
 44
0.0000000001
 40
0.0
 40
0.0
 40
0.0
 40
0.0
 40
0.0390682438
 40
0.0791365604
 40
0.1655947211
 40
0.2650943232
 40
0.3804550253
 40
0.5125275613
 40
0.6608360249
 40
0.8239968482
 40
1.0
 40
1.0
 40
1.0
 40
1.0
 10
14.813513938
 20
13.0856933717
 30
0.0
 10
14.8134322092
 20
13.0856933771
 30
0.0
 10
14.8132662996
 20
13.0856785489
 30
0.0
 10
14.8129303256
 20
13.0855881933
 30
0.0
 10
14.8125113312
 20
13.0853536065
 30
0.0
 10
14.8120512416
 20
13.0849164178
 30
0.0
 10
14.8116220192
 20
13.0843274736
 30
0.0
 10
14.8112292328
 20
13.0835965166
 30
0.0
 10
14.810878758
 20
13.0827358668
 30
0.0
 10
14.8105768725
 20
13.0817607381
 30
0.0
 10
14.810416996
 20
13.0810688096
 30
0.0
 10
14.8103453218
 20
13.0807076637
 30
0.0
  0
SPLINE
  5
2DB
100
AcDbEntity
  8
02___PRT_ALL_AXES
100
AcDbSpline
 62
7
  6
CONTINUOUS
 70
0
 71
3
 72
63
 73
59
 74
0
 42
0.0000001
 43
0.0000001
 44
0.0000000001
 40
0.0
 40
0.0
 40
0.0
 40
0.0
 40
0.0175793938
 40
0.0355793579
 40
0.0539781469
 40
0.0727526542
 40
0.0918786708
 40
0.1113309597
 40
0.1511072062
 40
0.1918644119
 40
0.2333733235
 40
0.2753969119
 40
0.3176929306
 40
0.3600164051
 40
0.4021220876
 40
0.443766907
 40
0.4847124478
 40
0.5247274911
 40
0.5443173018
 40
0.5635924357
 40
0.5825272266
 40
0.6010969925
 40
0.6192781368
 40
0.63704826
 40
0.6543862847
 40
0.6712725835
 40
0.6876891262
 40
0.7036196466
 40
0.7190498198
 40
0.7339674753
 40
0.7483628368
 40
0.7622287932
 40
0.7755612236
 40
0.7883593675
 40
0.8006262515
 40
0.812369192
 40
0.823600357
 40
0.8343373957
 40
0.844604124
 40
0.8495712505
 40
0.8544329288
 40
0.8638585442
 40
0.8729288401
 40
0.8816981424
 40
0.8902286829
 40
0.8985897168
 40
0.9068559438
 40
0.9151052935
 40
0.9234162846
 40
0.9318653049
 40
0.9405241772
 40
0.949458292
 40
0.9587254322
 40
0.9635006587
 40
0.9683770664
 40
0.978451114
 40
0.9889832023
 40
1.0
 40
1.0
 40
1.0
 40
1.0
 10
15.5045726911
 20
13.1809005387
 30
0.0
 10
15.5009313218
 20
13.1691170631
 30
0.0
 10
15.4938501255
 20
13.1451780896
 30
0.0
 10
15.4839374412
 20
13.1086256366
 30
0.0
 10
15.4746208559
 20
13.0710522385
 30
0.0
 10
15.4659164134
 20
13.0325222584
 30
0.0
 10
15.4578388802
 20
12.9931012405
 30
0.0
 10
15.4478496699
 20
12.9390418804
 30
0.0
 10
15.4370590736
 20
12.8697118154
 30
0.0
 10
15.4268956179
 20
12.7846784633
 30
0.0
 10
15.4194932209
 20
12.6977780888
 30
0.0
 10
15.4149027666
 20
12.609603604
 30
0.0
 10
15.4131558491
 20
12.5207556486
 30
0.0
 10
15.4142644815
 20
12.4318398669
 30
0.0
 10
15.4182210387
 20
12.3434623736
 30
0.0
 10
15.424998292
 20
12.2562252348
 30
0.0
 10
15.4345496583
 20
12.1707236908
 30
0.0
 10
15.4448373796
 20
12.1009170974
 30
0.0
 10
15.454432521
 20
12.0464121289
 30
0.0
 10
15.4622250586
 20
12.0066142997
 30
0.0
 10
15.4706508363
 20
11.9676775882
 30
0.0
 10
15.4796955263
 20
11.9296682955
 30
0.0
 10
15.4893436345
 20
11.8926512917
 30
0.0
 10
15.4995786782
 20
11.8566896898
 30
0.0
 10
15.5103831596
 20
11.8218447866
 30
0.0
 10
15.5217386307
 20
11.7881759443
 30
0.0
 10
15.5336257208
 20
11.7557404887
 30
0.0
 10
15.5460241646
 20
11.7245936017
 30
0.0
 10
15.5589128685
 20
11.6947882311
 30
0.0
 10
15.5722699441
 20
11.6663749926
 30
0.0
 10
15.5860727579
 20
11.6394020785
 30
0.0
 10
15.6002980118
 20
11.6139151869
 30
0.0
 10
15.6149217896
 20
11.5899574381
 30
0.0
 10
15.6299196301
 20
11.5675693232
 30
0.0
 10
15.6452666502
 20
11.5467886518
 30
0.0
 10
15.6609375132
 20
11.5276505934
 30
0.0
 10
15.6769068455
 20
11.5101874402
 30
0.0
 10
15.6931482102
 20
11.4944295904
 30
0.0
 10
15.70703863
 20
11.4826135726
 30
0.0
 10
15.718259128
 20
11.4740723267
 30
0.0
 10
15.7293080459
 20
11.4662961623
 30
0.0
 10
15.743248451
 20
11.4576454058
 30
0.0
 10
15.7603173065
 20
11.4489572632
 30
0.0
 10
15.7775248556
 20
11.4420879534
 30
0.0
 10
15.7948406485
 20
11.437053861
 30
0.0
 10
15.8122329377
 20
11.4338677898
 30
0.0
 10
15.82966791
 20
11.4325385993
 30
0.0
 10
15.8471104783
 20
11.4330701439
 30
0.0
 10
15.864525306
 20
11.4354608622
 30
0.0
 10
15.8818779053
 20
11.4397039561
 30
0.0
 10
15.8991356897
 20
11.4457882302
 30
0.0
 10
15.9162673648
 20
11.4536985399
 30
0.0
 10
15.9302744717
 20
11.4617174551
 30
0.0
 10
15.941379594
 20
11.4689920682
 30
0.0
 10
15.9526559644
 20
11.4770200967
 30
0.0
 10
15.9666266719
 20
11.4882022456
 30
0.0
 10
15.9829765041
 20
11.5032201671
 30
0.0
 10
15.9934614263
 20
11.5141263202
 30
0.0
 10
15.9986614553
 20
11.5198446266
 30
0.0
  0
SPLINE
  5
2DC
100
AcDbEntity
  8
LAYER_FEATURE
100
AcDbSpline
 62
7
  6
CONTINUOUS
 70
0
 71
3
 72
15
 73
11
 74
0
 42
0.0000001
 43
0.0000001
 44
0.0000000001
 40
0.0
 40
0.0
 40
0.0
 40
0.0
 40
0.0821284159
 40
0.1709215602
 40
0.2713726457
 40
0.386383084
 40
0.5171516275
 40
0.6636699445
 40
0.8251034249
 40
1.0
 40
1.0
 40
1.0
 40
1.0
 10
14.8378408585
 20
13.2058845014
 30
0.0
 10
14.8376912112
 20
13.2058844993
 30
0.0
 10
14.8373779548
 20
13.2058319631
 30
0.0
 10
14.836931708
 20
13.205605984
 30
0.0
 10
14.8365070226
 20
13.2052434663
 30
0.0
 10
14.836106903
 20
13.2047524424
 30
0.0
 10
14.8357347942
 20
13.2041400859
 30
0.0
 10
14.8353953302
 20
13.2034149657
 30
0.0
 10
14.8350933575
 20
13.2025876413
 30
0.0
 10
14.8349261222
 20
13.2019974876
 30
0.0
 10
14.8348487755
 20
13.201688335
 30
0.0
  0
SPLINE
  5
2DD
100
AcDbEntity
  8
LAYER_FEATURE
100
AcDbSpline
 62
7
  6
CONTINUOUS
 70
0
 71
3
 72
15
 73
11
 74
0
 42
0.0000001
 43
0.0000001
 44
0.0000000001
 40
0.0
 40
0.0
 40
0.0
 40
0.0
 40
0.085851709
 40
0.1774225667
 40
0.2792248012
 40
0.3941414306
 40
0.5236377513
 40
0.6681055709
 40
0.8272097206
 40
1.0
 40
1.0
 40
1.0
 40
1.0
 10
14.8667071287
 20
13.319258362
 30
0.0
 10
14.8665726605
 20
13.3192583532
 30
0.0
 10
14.8662933651
 20
13.3192165714
 30
0.0
 10
14.8658908341
 20
13.3190346482
 30
0.0
 10
14.8655039201
 20
13.3187403418
 30
0.0
 10
14.8651354715
 20
13.31833953
 30
0.0
 10
14.8647880931
 20
13.3178373572
 30
0.0
 10
14.8644651305
 20
13.317239622
 30
0.0
 10
14.8641702533
 20
13.3165533771
 30
0.0
 10
14.864001221
 20
13.3160612713
 30
0.0
 10
14.8639213156
 20
13.3158026973
 30
0.0
  0
SPLINE
  5
2DE
100
AcDbEntity
  8
02___PRT_ALL_AXES
100
AcDbSpline
 62
7
  6
CONTINUOUS
 70
0
 71
3
 72
9
 73
5
 74
0
 42
0.0000001
 43
0.0000001
 44
0.0000000001
 40
0.0
 40
0.0
 40
0.0
 40
0.0
 40
0.490475481
 40
1.0
 40
1.0
 40
1.0
 40
1.0
 10
15.4852615711
 20
13.1906908957
 30
0.0
 10
15.47893448
 20
13.1702164214
 30
0.0
 10
15.4668980644
 20
13.1282019251
 30
0.0
 10
15.4564410633
 20
13.0857691837
 30
0.0
 10
15.4514850463
 20
13.0640657666
 30
0.0
  0
SPLINE
  5
2DF
100
AcDbEntity
  8
02___PRT_ALL_AXES
100
AcDbSpline
 62
7
  6
CONTINUOUS
 70
0
 71
3
 72
51
 73
47
 74
0
 42
0.0000001
 43
0.0000001
 44
0.0000000001
 40
0.0
 40
0.0
 40
0.0
 40
0.0
 40
0.0356465352
 40
0.0722651363
 40
0.1097310517
 40
0.1479136789
 40
0.1866776169
 40
0.2258836643
 40
0.2653897803
 40
0.3050520205
 40
0.3447254574
 40
0.384265093
 40
0.4235267712
 40
0.4623680971
 40
0.5006493691
 40
0.538234536
 40
0.5749921879
 40
0.6107965983
 40
0.6455288369
 40
0.679077982
 40
0.7113424696
 40
0.7269649913
 40
0.7422333535
 40
0.7571382285
 40
0.7716712153
 40
0.7858249173
 40
0.7995930296
 40
0.8129704364
 40
0.8259533207
 40
0.8385392872
 40
0.8507275009
 40
0.8625188435
 40
0.873916088
 40
0.8849240946
 40
0.8955500264
 40
0.9058035845
 40
0.9156972594
 40
0.9252465905
 40
0.934470422
 40
0.9520254792
 40
0.9604221299
 40
0.9686054863
 40
0.9766129655
 40
0.9844852723
 40
0.9922658281
 40
1.0
 40
1.0
 40
1.0
 40
1.0
 10
15.4514850463
 20
13.0640657666
 30
0.0
 10
15.4466990948
 20
13.0431071009
 30
0.0
 10
15.4376990296
 20
13.0004550603
 30
0.0
 10
15.4260312324
 20
12.935304301
 30
0.0
 10
15.4160492152
 20
12.8683271553
 30
0.0
 10
15.4077963461
 20
12.7998123879
 30
0.0
 10
15.4013082769
 20
12.7300543039
 30
0.0
 10
15.3966130979
 20
12.6593529835
 30
0.0
 10
15.393731125
 20
12.5880125405
 30
0.0
 10
15.3926748329
 20
12.5163399066
 30
0.0
 10
15.3934487934
 20
12.4446434575
 30
0.0
 10
15.3960496575
 20
12.3732316753
 30
0.0
 10
15.4004661677
 20
12.3024117976
 30
0.0
 10
15.4066792094
 20
12.2324884766
 30
0.0
 10
15.4146618963
 20
12.1637624421
 30
0.0
 10
15.4243796895
 20
12.0965291895
 30
0.0
 10
15.4357905577
 20
12.0310776488
 30
0.0
 10
15.4488451608
 20
11.9676890063
 30
0.0
 10
15.4634871219
 20
11.9066350777
 30
0.0
 10
15.4796531707
 20
11.8481784011
 30
0.0
 10
15.4944921267
 20
11.8013459347
 30
0.0
 10
15.5071004087
 20
11.7654022702
 30
0.0
 10
15.5167908576
 20
11.7395366343
 30
0.0
 10
15.5268064038
 20
11.7145014351
 30
0.0
 10
15.5371363782
 20
11.6903234808
 30
0.0
 10
15.547769666
 20
11.6670287448
 30
0.0
 10
15.5586948711
 20
11.6446422134
 30
0.0
 10
15.5699002936
 20
11.6231878902
 30
0.0
 10
15.5813739571
 20
11.602688763
 30
0.0
 10
15.5931036248
 20
11.5831667823
 30
0.0
 10
15.6050768202
 20
11.5646428405
 30
0.0
 10
15.617280849
 20
11.5471367542
 30
0.0
 10
15.6297028169
 20
11.5306672524
 30
0.0
 10
15.6423296693
 20
11.5152519594
 30
0.0
 10
15.6551481534
 20
11.5009074261
 30
0.0
 10
15.6681450477
 20
11.4876490131
 30
0.0
 10
15.6813064363
 20
11.4754913372
 30
0.0
 10
15.6946203307
 20
11.4644467567
 30
0.0
 10
15.7122598936
 20
11.4514392723
 30
0.0
 10
15.7304619239
 20
11.4404024524
 30
0.0
 10
15.7491069805
 20
11.4316397434
 30
0.0
 10
15.7629672067
 20
11.4263284581
 30
0.0
 10
15.7768922614
 20
11.4221897379
 30
0.0
 10
15.7908674682
 20
11.4192290086
 30
0.0
 10
15.8048751221
 20
11.4174507637
 30
0.0
 10
15.8142366906
 20
11.4170549953
 30
0.0
 10
15.8189011127
 20
11.4170549954
 30
0.0
  0
SPLINE
  5
2E0
100
AcDbEntity
  8
LAYER_FEATURE
100
AcDbSpline
 62
7
  6
CONTINUOUS
 70
0
 71
3
 72
47
 73
43
 74
0
 42
0.0000001
 43
0.0000001
 44
0.0000000001
 40
0.0
 40
0.0
 40
0.0
 40
0.0
 40
0.0461940409
 40
0.090891534
 40
0.1340283225
 40
0.1755484564
 40
0.2154062025
 40
0.253567086
 40
0.2900095453
 40
0.3247268226
 40
0.3577292391
 40
0.3890469021
 40
0.4187328636
 40
0.4468666685
 40
0.4735581471
 40
0.498951052
 40
0.5112196525
 40
0.5232344965
 40
0.5350240048
 40
0.5466188076
 40
0.5580516
 40
0.5693568768
 40
0.5805706263
 40
0.5917299509
 40
0.6028726264
 40
0.6140366398
 40
0.6252597092
 40
0.6365788222
 40
0.6480297991
 40
0.6596469337
 40
0.671462671
 40
0.6835073789
 40
0.7083858723
 40
0.7344884872
 40
0.7619747996
 40
0.7909690925
 40
0.8215637171
 40
0.853822873
 40
0.8877863025
 40
0.9234726411
 40
0.9608823165
 40
1.0
 40
1.0
 40
1.0
 40
1.0
 10
15.1409475389
 20
13.3694557751
 30
0.0
 10
15.1463682153
 20
13.3869970905
 30
0.0
 10
15.1575202061
 20
13.4213638574
 30
0.0
 10
15.175498841
 20
13.4715166114
 30
0.0
 10
15.194418473
 20
13.5193311829
 30
0.0
 10
15.2142331422
 20
13.5646913616
 30
0.0
 10
15.2348949762
 20
13.6074876065
 30
0.0
 10
15.2563542817
 20
13.647616685
 30
0.0
 10
15.2785597658
 20
13.6849820417
 30
0.0
 10
15.3014588156
 20
13.7194939442
 30
0.0
 10
15.3249977645
 20
13.7510695939
 30
0.0
 10
15.349122311
 20
13.7796331706
 30
0.0
 10
15.3737774652
 20
13.8051155229
 30
0.0
 10
15.3989089531
 20
13.8274543018
 30
0.0
 10
15.4244590939
 20
13.8465914513
 30
0.0
 10
15.4463046058
 20
13.859980894
 30
0.0
 10
15.4638947616
 20
13.8689651913
 30
0.0
 10
15.4769998271
 20
13.8747979871
 30
0.0
 10
15.4901588758
 20
13.8797976823
 30
0.0
 10
15.5033641117
 20
13.8839609145
 30
0.0
 10
15.5166072029
 20
13.887284732
 30
0.0
 10
15.5298798136
 20
13.8897666948
 30
0.0
 10
15.5431734518
 20
13.8914049283
 30
0.0
 10
15.5564795301
 20
13.8921982533
 30
0.0
 10
15.5697894079
 20
13.8921459894
 30
0.0
 10
15.5830944161
 20
13.8912482273
 30
0.0
 10
15.596385921
 20
13.8895056503
 30
0.0
 10
15.6096553338
 20
13.8869195337
 30
0.0
 10
15.6228942181
 20
13.8834918563
 30
0.0
 10
15.6360941281
 20
13.8792251037
 30
0.0
 10
15.649247157
 20
13.8741221356
 30
0.0
 10
15.6668989416
 20
13.8661232035
 30
0.0
 10
15.6888499906
 20
13.8539558566
 30
0.0
 10
15.714566733
 20
13.8362378908
 30
0.0
 10
15.73988937
 20
13.8152950569
 30
0.0
 10
15.7647597921
 20
13.7911830114
 30
0.0
 10
15.7891236834
 20
13.7639615226
 30
0.0
 10
15.8129259507
 20
13.7336968703
 30
0.0
 10
15.8361120602
 20
13.7004619265
 30
0.0
 10
15.858628081
 20
13.664336232
 30
0.0
 10
15.8804205301
 20
13.6254072799
 30
0.0
 10
15.894130322
 20
13.5982454137
 30
0.0
 10
15.9008673706
 20
13.5842336218
 30
0.0
  0
SPLINE
  5
2E1
100
AcDbEntity
  8
LAYER_FEATURE
100
AcDbSpline
 62
7
  6
CONTINUOUS
 70
0
 71
3
 72
35
 73
31
 74
0
 42
0.0000001
 43
0.0000001
 44
0.0000000001
 40
0.0
 40
0.0
 40
0.0
 40
0.0
 40
0.0879660256
 40
0.1726596292
 40
0.2539260382
 40
0.2932345385
 40
0.3316399259
 40
0.3691306809
 40
0.4056974107
 40
0.4413330071
 40
0.4760328805
 40
0.5097951444
 40
0.5426208216
 40
0.5745141239
 40
0.6054827476
 40
0.6355381388
 40
0.6646958309
 40
0.6929758371
 40
0.7204029924
 40
0.7728096573
 40
0.7978812372
 40
0.82225512
 40
0.8459856999
 40
0.8691340408
 40
0.8917678177
 40
0.9139610836
 40
0.9357938166
 40
0.9573511729
 40
0.9787224787
 40
1.0
 40
1.0
 40
1.0
 40
1.0
 10
15.1335813408
 20
13.4113624344
 30
0.0
 10
15.1400406617
 20
13.4322648047
 30
0.0
 10
15.153375627
 20
13.4730934172
 30
0.0
 10
15.1750726004
 20
13.5324157569
 30
0.0
 10
15.1944138136
 20
13.5796776967
 30
0.0
 10
15.2105271694
 20
13.6157875154
 30
0.0
 10
15.222766862
 20
13.6416963676
 30
0.0
 10
15.2352852853
 20
13.6667115348
 30
0.0
 10
15.2480726923
 20
13.690813394
 30
0.0
 10
15.2611190236
 20
13.7139829327
 30
0.0
 10
15.2744140383
 20
13.7362019222
 30
0.0
 10
15.287947309
 20
13.757452885
 30
0.0
 10
15.3017082631
 20
13.7777190932
 30
0.0
 10
15.3156861761
 20
13.7969846035
 30
0.0
 10
15.3298701354
 20
13.8152342533
 30
0.0
 10
15.3442492018
 20
13.8324537388
 30
0.0
 10
15.358812034
 20
13.8486292358
 30
0.0
 10
15.3735482253
 20
13.863748801
 30
0.0
 10
15.3931126896
 20
13.8822013751
 30
0.0
 10
15.4132689729
 20
13.8988421728
 30
0.0
 10
15.4339894362
 20
13.9134305592
 30
0.0
 10
15.4494171282
 20
13.9231025104
 30
0.0
 10
15.4649477088
 20
13.9316572429
 30
0.0
 10
15.4805695766
 20
13.9390876293
 30
0.0
 10
15.4962703518
 20
13.9453869667
 30
0.0
 10
15.5120375868
 20
13.9505494188
 30
0.0
 10
15.5278583934
 20
13.9545700472
 30
0.0
 10
15.5437199862
 20
13.9574448905
 30
0.0
 10
15.5596079309
 20
13.9591710037
 30
0.0
 10
15.5702189028
 20
13.9595549804
 30
0.0
 10
15.575510745
 20
13.9595549847
 30
0.0
  0
SPLINE
  5
2E2
100
AcDbEntity
  8
02___PRT_ALL_AXES
100
AcDbSpline
 62
7
  6
CONTINUOUS
 70
0
 71
3
 72
52
 73
48
 74
0
 42
0.0000001
 43
0.0000001
 44
0.0000000001
 40
0.0
 40
0.0
 40
0.0
 40
0.0
 40
0.0330501462
 40
0.0673811095
 40
0.1028692271
 40
0.1393809372
 40
0.1767743311
 40
0.2149005996
 40
0.2536053774
 40
0.2927300159
 40
0.3321128101
 40
0.3715901982
 40
0.4109979409
 40
0.4501722975
 40
0.4889512047
 40
0.5271754707
 40
0.5646899978
 40
0.601345049
 40
0.6369975764
 40
0.6715126455
 40
0.7047649956
 40
0.720882419
 40
0.7366425275
 40
0.7520332125
 40
0.7670433522
 40
0.7816628969
 40
0.7958829651
 40
0.80969595
 40
0.82309564
 40
0.8360773551
 40
0.8486381009
 40
0.8607767447
 40
0.8724942139
 40
0.8837937201
 40
0.8946810124
 40
0.9051646573
 40
0.9152563464
 40
0.9249712227
 40
0.9343282164
 40
0.9433503663
 40
0.9520650999
 40
0.9605044274
 40
0.9687049985
 40
0.9767079616
 40
0.9845585737
 40
0.9923055278
 40
1.0
 40
1.0
 40
1.0
 40
1.0
 10
15.2372658984
 20
13.1906908957
 30
0.0
 10
15.2309545738
 20
13.1702674416
 30
0.0
 10
15.2189464187
 20
13.12835956
 30
0.0
 10
15.2030141176
 20
13.0637470338
 30
0.0
 10
15.1888762166
 20
12.9964290248
 30
0.0
 10
15.1766026556
 20
12.926735566
 30
0.0
 10
15.1662537333
 20
12.8550067456
 30
0.0
 10
15.1578804489
 20
12.7815933805
 30
0.0
 10
15.1515240494
 20
12.7068545634
 30
0.0
 10
15.1472158623
 20
12.6311560433
 30
0.0
 10
15.1449771162
 20
12.5548683435
 30
0.0
 10
15.1448188456
 20
12.478364925
 30
0.0
 10
15.1467418342
 20
12.4020203221
 30
0.0
 10
15.1507366012
 20
12.3262082789
 30
0.0
 10
15.1567834571
 20
12.2512998848
 30
0.0
 10
15.1648526061
 20
12.1776617318
 30
0.0
 10
15.1749042923
 20
12.1056540484
 30
0.0
 10
15.1868889996
 20
12.0356289997
 30
0.0
 10
15.2007477451
 20
11.9679285069
 30
0.0
 10
15.2164123106
 20
11.9028839322
 30
0.0
 10
15.2310551726
 20
11.8506262603
 30
0.0
 10
15.2436447629
 20
11.8104237126
 30
0.0
 10
15.2533898551
 20
11.7814434586
 30
0.0
 10
15.2635237465
 20
11.7533569898
 30
0.0
 10
15.2740341318
 20
11.7261985556
 30
0.0
 10
15.2849081282
 20
11.7000013675
 30
0.0
 10
15.2961324554
 20
11.6747974145
 30
0.0
 10
15.3076934149
 20
11.6506174608
 30
0.0
 10
15.3195769232
 20
11.6274909974
 30
0.0
 10
15.3317685335
 20
11.6054462099
 30
0.0
 10
15.3442534629
 20
11.5845099447
 30
0.0
 10
15.3570166193
 20
11.5647076793
 30
0.0
 10
15.3700426334
 20
11.5460634993
 30
0.0
 10
15.3833158909
 20
11.5286000816
 30
0.0
 10
15.3968205654
 20
11.5123386853
 30
0.0
 10
15.4105406498
 20
11.4972991525
 30
0.0
 10
15.4244599837
 20
11.4834999219
 30
0.0
 10
15.4385622699
 20
11.4709580552
 30
0.0
 10
15.4528310724
 20
11.4596892736
 30
0.0
 10
15.4672497891
 20
11.4497080066
 30
0.0
 10
15.4818015916
 20
11.441027434
 30
0.0
 10
15.4964693035
 20
11.4336595041
 30
0.0
 10
15.5112353152
 20
11.4276149002
 30
0.0
 10
15.5260812343
 20
11.4229029275
 30
0.0
 10
15.5409884842
 20
11.4195313052
 30
0.0
 10
15.5559356877
 20
11.4175058794
 30
0.0
 10
15.5659287576
 20
11.4170549953
 30
0.0
 10
15.5709054401
 20
11.4170549954
 30
0.0
  0
SPLINE
  5
2E3
100
AcDbEntity
  8
LAYER_FEATURE
100
AcDbSpline
 62
7
  6
CONTINUOUS
 70
0
 71
3
 72
54
 73
50
 74
0
 42
0.0000001
 43
0.0000001
 44
0.0000000001
 40
0.0
 40
0.0
 40
0.0
 40
0.0
 40
0.0330500869
 40
0.0673809189
 40
0.1028689286
 40
0.1393805316
 40
0.1767738172
 40
0.214899975
 40
0.2536046397
 40
0.2927291642
 40
0.332111844
 40
0.3715891169
 40
0.4109967451
 40
0.4501709878
 40
0.4889497815
 40
0.5271739361
 40
0.5646883551
 40
0.6013432992
 40
0.6369957215
 40
0.6544041318
 40
0.6715120649
 40
0.6883041821
 40
0.7047658562
 40
0.7208832323
 40
0.736643294
 40
0.7520339335
 40
0.7670440292
 40
0.7816635318
 40
0.7958835594
 40
0.8096965048
 40
0.823096156
 40
0.8360778326
 40
0.8486385411
 40
0.8607771491
 40
0.8724945842
 40
0.8837940579
 40
0.894681319
 40
0.9051649339
 40
0.9152565937
 40
0.9249714414
 40
0.9343284073
 40
0.9433505306
 40
0.9520652387
 40
0.9605045419
 40
0.9687050894
 40
0.9767080294
 40
0.9845586188
 40
0.9923055502
 40
1.0
 40
1.0
 40
1.0
 40
1.0
 10
14.8394591342
 20
13.4113624344
 30
0.0
 10
14.8310993245
 20
13.3843100804
 30
0.0
 10
14.8151936611
 20
13.3288000942
 30
0.0
 10
14.7940902001
 20
13.2432161848
 30
0.0
 10
14.775363545
 20
13.1540487051
 30
0.0
 10
14.7591063343
 20
13.0617347455
 30
0.0
 10
14.7453984508
 20
12.9667247991
 30
0.0
 10
14.7343074398
 20
12.8694835529
 30
0.0
 10
14.7258879319
 20
12.7704866519
 30
0.0
 10
14.7201814272
 20
12.6702185556
 30
0.0
 10
14.7172160527
 20
12.5691700481
 30
0.0
 10
14.7170064142
 20
12.4678358061
 30
0.0
 10
14.7195535444
 20
12.3667119256
 30
0.0
 10
14.7248448977
 20
12.2662934623
 30
0.0
 10
14.7328543962
 20
12.1670719348
 30
0.0
 10
14.7435425596
 20
12.0695329778
 30
0.0
 10
14.7568567312
 20
11.9741535241
 30
0.0
 10
14.7727313289
 20
11.8814008231
 30
0.0
 10
14.7881485688
 20
11.8060856953
 30
0.0
 10
14.8017339489
 20
11.7475233609
 30
0.0
 10
14.8124299992
 20
11.7048851121
 30
0.0
 10
14.8237003889
 20
11.6632347229
 30
0.0
 10
14.8355313864
 20
11.6226230718
 30
0.0
 10
14.847908462
 20
11.5830999002
 30
0.0
 10
14.8608164507
 20
11.5447135617
 30
0.0
 10
14.8742395367
 20
11.5075110104
 30
0.0
 10
14.8881612871
 20
11.47153773
 30
0.0
 10
14.9025646727
 20
11.4368376806
 30
0.0
 10
14.9174320941
 20
11.4034532428
 30
0.0
 10
14.9327454097
 20
11.3714251647
 30
0.0
 10
14.9484859648
 20
11.3407925116
 30
0.0
 10
14.964634625
 20
11.311592618
 30
0.0
 10
14.9811718067
 20
11.2838610418
 30
0.0
 10
14.9980775194
 20
11.2576315284
 30
0.0
 10
15.0153314053
 20
11.2329359804
 30
0.0
 10
15.0329127824
 20
11.209804435
 30
0.0
 10
15.0508006876
 20
11.1882650518
 30
0.0
 10
15.0689739187
 20
11.1683441144
 30
0.0
 10
15.0874110707
 20
11.1500660477
 30
0.0
 10
15.1060905567
 20
11.1334534512
 30
0.0
 10
15.1249906053
 20
11.1185271474
 30
0.0
 10
15.1440892257
 20
11.1053062481
 30
0.0
 10
15.1633641274
 20
11.0938082101
 30
0.0
 10
15.1827925592
 20
11.0840488595
 30
0.0
 10
15.202351196
 20
11.0760423475
 30
0.0
 10
15.2220156759
 20
11.0698009995
 30
0.0
 10
15.2417613933
 20
11.0653350454
 30
0.0
 10
15.2615600323
 20
11.0626522225
 30
0.0
 10
15.2747965671
 20
11.0620550075
 30
0.0
 10
15.2813885385
 20
11.062055001
 30
0.0
  0
SPLINE
  5
2E4
100
AcDbEntity
  8
LAYER_FEATURE
100
AcDbSpline
 62
7
  6
CONTINUOUS
 70
0
 71
3
 72
38
 73
34
 74
0
 42
0.0000001
 43
0.0000001
 44
0.0000000001
 40
0.0
 40
0.0
 40
0.0
 40
0.0
 40
0.0912699882
 40
0.1354510674
 40
0.178625517
 40
0.2207686731
 40
0.2618588692
 40
0.3018771917
 40
0.3408077646
 40
0.3786380446
 40
0.4153591018
 40
0.4509659835
 40
0.4854580927
 40
0.5188396054
 40
0.5511199491
 40
0.5823143383
 40
0.6124443745
 40
0.6415386682
 40
0.669633502
 40
0.6967735156
 40
0.7230123795
 40
0.7484134028
 40
0.7730499823
 40
0.7970058386
 40
0.8203749338
 40
0.8432609717
 40
0.8657763866
 40
0.8880407877
 40
0.9101789017
 40
0.9323181145
 40
0.9545857891
 40
0.977106584
 40
1.0
 40
1.0
 40
1.0
 40
1.0
 10
14.8732225391
 20
13.3694557751
 30
0.0
 10
14.8802446762
 20
13.3921794192
 30
0.0
 10
14.8912814108
 20
13.4257190102
 30
0.0
 10
14.9071793572
 20
13.469470338
 30
0.0
 10
14.9193739627
 20
13.5009388051
 30
0.0
 10
14.9319558655
 20
13.5313846761
 30
0.0
 10
14.9449122149
 20
13.5607767538
 30
0.0
 10
14.9582296369
 20
13.5890847417
 30
0.0
 10
14.9718944497
 20
13.6162795296
 30
0.0
 10
14.9858926209
 20
13.6423331466
 30
0.0
 10
15.0002098153
 20
13.6672188126
 30
0.0
 10
15.0148313934
 20
13.6909109672
 30
0.0
 10
15.0297424405
 20
13.7133852947
 30
0.0
 10
15.0449278005
 20
13.7346187307
 30
0.0
 10
15.0603720962
 20
13.7545894759
 30
0.0
 10
15.0760597609
 20
13.7732770037
 30
0.0
 10
15.0919750425
 20
13.7906620804
 30
0.0
 10
15.1081020398
 20
13.8067267467
 30
0.0
 10
15.1244247175
 20
13.8214542935
 30
0.0
 10
15.1409269083
 20
13.8348292376
 30
0.0
 10
15.1575922994
 20
13.8468372954
 30
0.0
 10
15.1744043816
 20
13.8574653775
 30
0.0
 10
15.1913464062
 20
13.866701546
 30
0.0
 10
15.2084012921
 20
13.8745350229
 30
0.0
 10
15.2255515259
 20
13.8809562371
 30
0.0
 10
15.2427790575
 20
13.8859569521
 30
0.0
 10
15.2600652458
 20
13.8895304453
 30
0.0
 10
15.2773908715
 20
13.8916716897
 30
0.0
 10
15.294736282
 20
13.8923775582
 30
0.0
 10
15.3120814522
 20
13.8916470158
 30
0.0
 10
15.3294067738
 20
13.8894810492
 30
0.0
 10
15.3466913346
 20
13.8858832099
 30
0.0
 10
15.3580654849
 20
13.8825651504
 30
0.0
 10
15.3637259737
 20
13.880681225
 30
0.0
  0
SPLINE
  5
2E5
100
AcDbEntity
  8
LAYER_FEATURE
100
AcDbSpline
 62
7
  6
CONTINUOUS
 70
0
 71
3
 72
60
 73
56
 74
0
 42
0.0000001
 43
0.0000001
 44
0.0000000001
 40
0.0
 40
0.0
 40
0.0
 40
0.0
 40
0.0168254529
 40
0.0340139628
 40
0.0515487285
 40
0.0694123742
 40
0.0875865348
 40
0.1060521849
 40
0.1437771257
 40
0.1824238229
 40
0.2218194674
 40
0.2617849459
 40
0.3021364584
 40
0.3426870802
 40
0.3832482896
 40
0.4236314799
 40
0.4636494707
 40
0.5031180352
 40
0.5418574565
 40
0.5796941359
 40
0.5982224768
 40
0.6164637
 40
0.6343986021
 40
0.6520087033
 40
0.6692763146
 40
0.6861846091
 40
0.7027176996
 40
0.7188607225
 40
0.7345999294
 40
0.7499227889
 40
0.7648180996
 40
0.7792761165
 40
0.7932886941
 40
0.8068494487
 40
0.8199539437
 40
0.8325999006
 40
0.8447874404
 40
0.8565193592
 40
0.8678014413
 40
0.8786428093
 40
0.8890563123
 40
0.8990589421
 40
0.9086722628
 40
0.9133416994
 40
0.9179242187
 40
0.926843921
 40
0.9354702422
 40
0.9438462873
 40
0.9520205499
 40
0.9600463236
 40
0.9679807263
 40
0.9758833631
 40
0.9838147298
 40
0.9918345162
 40
1.0
 40
1.0
 40
1.0
 40
1.0
 10
14.8732225391
 20
13.3694557751
 30
0.0
 10
14.8690483553
 20
13.3559481114
 30
0.0
 10
14.8609056769
 20
13.3285490682
 30
0.0
 10
14.8494197732
 20
13.2867820092
 30
0.0
 10
14.8385433782
 20
13.2439514142
 30
0.0
 10
14.8282915005
 20
13.2001163036
 30
0.0
 10
14.8186781038
 20
13.1553364207
 30
0.0
 10
14.8066440782
 20
13.0940169628
 30
0.0
 10
14.7933232794
 20
13.0154327516
 30
0.0
 10
14.7801841615
 20
12.9190325076
 30
0.0
 10
14.7698516928
 20
12.820398252
 30
0.0
 10
14.7623828133
 20
12.7200702337
 30
0.0
 10
14.7578186979
 20
12.6185970544
 30
0.0
 10
14.7561845096
 20
12.5165340122
 30
0.0
 10
14.7574892596
 20
12.4144396178
 30
0.0
 10
14.7617257563
 20
12.312872558
 30
0.0
 10
14.7688706449
 20
12.2123886547
 30
0.0
 10
14.778884528
 20
12.1135373823
 30
0.0
 10
14.7917122188
 20
12.0168601893
 30
0.0
 10
14.8047772834
 20
11.938005659
 30
0.0
 10
14.8166109753
 20
11.8764406087
 30
0.0
 10
14.8260793083
 20
11.831457243
 30
0.0
 10
14.8361891621
 20
11.787404964
 30
0.0
 10
14.8469267503
 20
11.7443439662
 30
0.0
 10
14.8582773183
 20
11.7023332343
 30
0.0
 10
14.8702253044
 20
11.6614302574
 30
0.0
 10
14.8827543265
 20
11.6216910014
 30
0.0
 10
14.8958472169
 20
11.583169817
 30
0.0
 10
14.9094860464
 20
11.545919366
 30
0.0
 10
14.9236521538
 20
11.5099905466
 30
0.0
 10
14.9383261769
 20
11.4754324212
 30
0.0
 10
14.9534880865
 20
11.4422921475
 30
0.0
 10
14.9691172225
 20
11.4106149126
 30
0.0
 10
14.9851923343
 20
11.3804438709
 30
0.0
 10
15.0016916239
 20
11.351820086
 30
0.0
 10
15.0185927925
 20
11.3247824808
 30
0.0
 10
15.0358730959
 20
11.2993677941
 30
0.0
 10
15.0535093921
 20
11.2756105549
 30
0.0
 10
15.0714782236
 20
11.2535430463
 30
0.0
 10
15.0897557863
 20
11.2331953741
 30
0.0
 10
15.1083182856
 20
11.2145952569
 30
0.0
 10
15.1271408865
 20
11.1977689
 30
0.0
 10
15.1431765834
 20
11.1851235545
 30
0.0
 10
15.1561065224
 20
11.175948008
 30
0.0
 10
15.1688599756
 20
11.1675473114
 30
0.0
 10
15.1849289163
 20
11.1581551428
 30
0.0
 10
15.2045469662
 20
11.1486388804
 30
0.0
 10
15.2242999454
 20
11.1409944618
 30
0.0
 10
15.2441597314
 20
11.1352358991
 30
0.0
 10
15.26409752
 20
11.1313741795
 30
0.0
 10
15.2840830898
 20
11.1294172288
 30
0.0
 10
15.3040851278
 20
11.1293691711
 30
0.0
 10
15.3240725731
 20
11.1312302681
 30
0.0
 10
15.3440123118
 20
11.1349959577
 30
0.0
 10
15.3571115074
 20
11.1387306518
 30
0.0
 10
15.3636226108
 20
11.1408943823
 30
0.0
  0
SPLINE
  5
2E6
100
AcDbEntity
  8
LAYER_FEATURE
100
AcDbSpline
 62
7
  6
CONTINUOUS
 70
0
 71
3
 72
13
 73
9
 74
0
 42
0.0000001
 43
0.0000001
 44
0.0000000001
 40
0.0
 40
0.0
 40
0.0
 40
0.0
 40
0.1180195981
 40
0.2427110207
 40
0.5029436048
 40
0.7616521468
 40
0.8844881291
 40
1.0
 40
1.0
 40
1.0
 40
1.0
 10
14.8587921358
 20
13.2973892527
 30
0.0
 10
14.8586935975
 20
13.2969953978
 30
0.0
 10
14.8585228215
 20
13.296177216
 30
0.0
 10
14.8582831448
 20
13.2944627716
 30
0.0
 10
14.8581787473
 20
13.2922457914
 30
0.0
 10
14.8583219862
 20
13.2900372018
 30
0.0
 10
14.8585928609
 20
13.2883478659
 30
0.0
 10
14.8587786358
 20
13.2875482986
 30
0.0
 10
14.8588845442
 20
13.2871653045
 30
0.0
  0
SPLINE
  5
2E7
100
AcDbEntity
  8
LAYER_FEATURE
100
AcDbSpline
 62
7
  6
CONTINUOUS
 70
0
 71
3
 72
12
 73
8
 74
0
 42
0.0000001
 43
0.0000001
 44
0.0000000001
 40
0.0
 40
0.0
 40
0.0
 40
0.0
 40
0.2612766746
 40
0.5197694289
 40
0.7682348118
 40
0.8866003885
 40
1.0
 40
1.0
 40
1.0
 40
1.0
 10
14.8686827907
 20
13.2312988898
 30
0.0
 10
14.8688081314
 20
13.2341106902
 30
0.0
 10
14.8688566795
 20
13.2397153213
 30
0.0
 10
14.8683434171
 20
13.2479815998
 30
0.0
 10
14.8674283856
 20
13.2546633709
 30
0.0
 10
14.8664039105
 20
13.259735529
 30
0.0
 10
14.8657994443
 20
13.262159113
 30
0.0
 10
14.8654738593
 20
13.2633365184
 30
0.0
  0
SPLINE
  5
2E8
100
AcDbEntity
  8
LAYER_FEATURE
100
AcDbSpline
 62
7
  6
CONTINUOUS
 70
0
 71
3
 72
13
 73
9
 74
0
 42
0.0000001
 43
0.0000001
 44
0.0000000001
 40
0.0
 40
0.0
 40
0.0
 40
0.0
 40
0.2520380804
 40
0.5155016508
 40
0.6454641639
 40
0.770993853
 40
0.8898387373
 40
1.0
 40
1.0
 40
1.0
 40
1.0
 10
14.8304590383
 20
13.1820549442
 30
0.0
 10
14.8302912573
 20
13.1812095436
 30
0.0
 10
14.8300719179
 20
13.1794548985
 30
0.0
 10
14.8300503493
 20
13.1772429349
 30
0.0
 10
14.8301866211
 20
13.1754725966
 30
0.0
 10
14.8303628445
 20
13.1742037528
 30
0.0
 10
14.8306093419
 20
13.1730157516
 30
0.0
 10
14.8308262594
 20
13.1722621335
 30
0.0
 10
14.8309474062
 20
13.1719054285
 30
0.0
  0
SPLINE
  5
2E9
100
AcDbEntity
  8
LAYER_FEATURE
100
AcDbSpline
 62
7
  6
CONTINUOUS
 70
0
 71
3
 72
13
 73
9
 74
0
 42
0.0000001
 43
0.0000001
 44
0.0000000001
 40
0.0
 40
0.0
 40
0.0
 40
0.0
 40
0.2673994706
 40
0.5278492648
 40
0.6532217619
 40
0.7742105022
 40
0.89003736
 40
1.0
 40
1.0
 40
1.0
 40
1.0
 10
14.842863102
 20
13.1188218766
 30
0.0
 10
14.8428786753
 20
13.1216299229
 30
0.0
 10
14.842713933
 20
13.1271759685
 30
0.0
 10
14.8420168459
 20
13.1340071644
 30
0.0
 10
14.8411621285
 20
13.1392616726
 30
0.0
 10
14.8403939701
 20
13.1429880937
 30
0.0
 10
14.8394972764
 20
13.1465189565
 30
0.0
 10
14.8387992626
 20
13.1487864031
 30
0.0
 10
14.8384279041
 20
13.1498798321
 30
0.0
  0
SPLINE
  5
2EA
100
AcDbEntity
  8
LAYER_FEATURE
100
AcDbSpline
 62
7
  6
CONTINUOUS
 70
0
 71
3
 72
31
 73
27
 74
0
 42
0.0000001
 43
0.0000001
 44
0.0000000001
 40
0.0
 40
0.0
 40
0.0
 40
0.0
 40
0.0217128967
 40
0.043512886
 40
0.0654857797
 40
0.0877148901
 40
0.1102799754
 40
0.1332563591
 40
0.1567142371
 40
0.1807182536
 40
0.2305771339
 40
0.2832528135
 40
0.3390551186
 40
0.3682081888
 40
0.3982220233
 40
0.4291139843
 40
0.4608975881
 40
0.4935827479
 40
0.5271761119
 40
0.5616813089
 40
0.597099127
 40
0.6706578513
 40
0.7478163515
 40
0.8284995532
 40
0.9126034105
 40
1.0
 40
1.0
 40
1.0
 40
1.0
 10
15.2945871419
 20
13.8786799846
 30
0.0
 10
15.2898218315
 20
13.8786799882
 30
0.0
 10
15.2802688494
 20
13.8783503149
 30
0.0
 10
15.2659626552
 20
13.8768682758
 30
0.0
 10
15.2516779039
 20
13.8743997001
 30
0.0
 10
15.2374263831
 20
13.8709468938
 30
0.0
 10
15.2232185325
 20
13.8665128978
 30
0.0
 10
15.2090650208
 20
13.8611015654
 30
0.0
 10
15.1949757677
 20
13.8547172548
 30
0.0
 10
15.1760525723
 20
13.8447904533
 30
0.0
 10
15.1525731981
 20
13.8298538744
 30
0.0
 10
15.1251995421
 20
13.8083699539
 30
0.0
 10
15.1031436982
 20
13.7876769661
 30
0.0
 10
15.0857706294
 20
13.7693723451
 30
0.0
 10
15.0727015031
 20
13.7545385268
 30
0.0
 10
15.0597930658
 20
13.7388113935
 30
0.0
 10
15.0470540724
 20
13.7222017159
 30
0.0
 10
15.0344936086
 20
13.7047215465
 30
0.0
 10
15.0221205887
 20
13.6863833785
 30
0.0
 10
15.0099437143
 20
13.667200265
 30
0.0
 10
14.9937773144
 20
13.6401734279
 30
0.0
 10
14.9741529714
 20
13.6043250723
 30
0.0
 10
14.9518128536
 20
13.5587003864
 30
0.0
 10
14.9304560954
 20
13.5100694313
 30
0.0
 10
14.9101439484
 20
13.4585722475
 30
0.0
 10
14.8975709877
 20
13.4230862443
 30
0.0
 10
14.8914563599
 20
13.4049061333
 30
0.0
  0
SPLINE
  5
2EB
100
AcDbEntity
  8
LAYER_FEATURE
100
AcDbSpline
 62
7
  6
CONTINUOUS
 70
0
 71
3
 72
13
 73
9
 74
0
 42
0.0000001
 43
0.0000001
 44
0.0000000001
 40
0.0
 40
0.0
 40
0.0
 40
0.0
 40
0.2616606168
 40
0.5283057809
 40
0.6573498926
 40
0.7803461572
 40
0.8951639648
 40
1.0
 40
1.0
 40
1.0
 40
1.0
 10
14.8067386544
 20
13.0600494522
 30
0.0
 10
14.806606274
 20
13.0591771338
 30
0.0
 10
14.8064551508
 20
13.0573971845
 30
0.0
 10
14.8065167093
 20
13.0551764751
 30
0.0
 10
14.8067215596
 20
13.0534385355
 30
0.0
 10
14.8069455491
 20
13.0522209324
 30
0.0
 10
14.8072362679
 20
13.0511016433
 30
0.0
 10
14.8074826872
 20
13.0504017653
 30
0.0
 10
14.8076181282
 20
13.0500752394
 30
0.0
  0
SPLINE
  5
2EC
100
AcDbEntity
  8
LAYER_FEATURE
100
AcDbSpline
 62
7
  6
CONTINUOUS
 70
0
 71
3
 72
14
 73
10
 74
0
 42
0.0000001
 43
0.0000001
 44
0.0000000001
 40
0.0
 40
0.0
 40
0.0
 40
0.0
 40
0.2737509989
 40
0.406866376
 40
0.5362318564
 40
0.660984864
 40
0.7803265775
 40
0.8935381829
 40
1.0
 40
1.0
 40
1.0
 40
1.0
 10
14.8215328498
 20
13.0003021184
 30
0.0
 10
14.8214401906
 20
13.0030785352
 30
0.0
 10
14.8211573999
 20
13.0072025582
 30
0.0
 10
14.8204771122
 20
13.0126024061
 30
0.0
 10
14.8198315307
 20
13.0164797581
 30
0.0
 10
14.8190514693
 20
13.0201896103
 30
0.0
 10
14.8181434018
 20
13.0237013978
 30
0.0
 10
14.8171150027
 20
13.0269859032
 30
0.0
 10
14.8163293908
 20
13.0290738245
 30
0.0
 10
14.8159154643
 20
13.030071733
 30
0.0
  0
SPLINE
  5
2ED
100
AcDbEntity
  8
LAYER_FEATURE
100
AcDbSpline
 62
7
  6
CONTINUOUS
 70
0
 71
3
 72
15
 73
11
 74
0
 42
0.0000001
 43
0.0000001
 44
0.0000000001
 40
0.0
 40
0.0
 40
0.0
 40
0.0
 40
0.0926080389
 40
0.1898139436
 40
0.2950451094
 40
0.4107857958
 40
0.5386078361
 40
0.6793316059
 40
0.833196775
 40
1.0
 40
1.0
 40
1.0
 40
1.0
 10
14.8053105147
 20
12.9601905845
 30
0.0
 10
14.8058638774
 20
12.9602057344
 30
0.0
 10
14.8069982245
 20
12.9603738672
 30
0.0
 10
14.8086524403
 20
12.9610203544
 30
0.0
 10
14.8102646773
 20
12.9620484581
 30
0.0
 10
14.8118239899
 20
12.9634435356
 30
0.0
 10
14.8133220738
 20
12.9651921141
 30
0.0
 10
14.8147493894
 20
12.9672799495
 30
0.0
 10
14.8160957854
 20
12.9696904472
 30
0.0
 10
14.8169011206
 20
12.9714319137
 30
0.0
 10
14.8172908699
 20
12.9723496589
 30
0.0
  0
SPLINE
  5
2EE
100
AcDbEntity
  8
LAYER_FEATURE
100
AcDbSpline
 62
7
  6
CONTINUOUS
 70
0
 71
3
 72
16
 73
12
 74
0
 42
0.0000001
 43
0.0000001
 44
0.0000000001
 40
0.0
 40
0.0
 40
0.0
 40
0.0
 40
0.0375329361
 40
0.0763595554
 40
0.1613466878
 40
0.2607493391
 40
0.377034311
 40
0.5105560142
 40
0.6602951674
 40
0.8243004662
 40
1.0
 40
1.0
 40
1.0
 40
1.0
 10
14.793930225
 20
12.9598790163
 30
0.0
 10
14.7938416736
 20
12.9598765919
 30
0.0
 10
14.7936615702
 20
12.9598541028
 30
0.0
 10
14.7932970548
 20
12.9597376415
 30
0.0
 10
14.7928459601
 20
12.9594490268
 30
0.0
 10
14.7923581776
 20
12.9589272328
 30
0.0
 10
14.7919084646
 20
12.9582326683
 30
0.0
 10
14.7915042417
 20
12.9573784172
 30
0.0
 10
14.7911529007
 20
12.9563813591
 30
0.0
 10
14.7908619814
 20
12.9552622626
 30
0.0
 10
14.7907166995
 20
12.9544730324
 30
0.0
 10
14.7906544809
 20
12.9540630436
 30
0.0
  0
SPLINE
  5
2EF
100
AcDbEntity
  8
LAYER_FEATURE
100
AcDbSpline
 62
7
  6
CONTINUOUS
 70
0
 71
3
 72
52
 73
48
 74
0
 42
0.0000001
 43
0.0000001
 44
0.0000000001
 40
0.0
 40
0.0
 40
0.0
 40
0.0
 40
0.0388870965
 40
0.0783151977
 40
0.118168767
 40
0.1583297155
 40
0.1986784312
 40
0.2390943358
 40
0.2794565042
 40
0.3196442885
 40
0.3595379385
 40
0.3990192354
 40
0.4379721256
 40
0.4762833815
 40
0.5138432738
 40
0.5505462834
 40
0.586291851
 40
0.6209851827
 40
0.6545381413
 40
0.6868702238
 40
0.7179097047
 40
0.7329258407
 40
0.7475966334
 40
0.7619162187
 40
0.775879571
 40
0.7894825726
 40
0.8027220991
 40
0.8155960998
 40
0.8281036853
 40
0.8402452336
 40
0.8520225168
 40
0.8634388224
 40
0.8744990899
 40
0.8852100676
 40
0.895580487
 40
0.9056212273
 40
0.9153454899
 40
0.9247689782
 40
0.9339100632
 40
0.9427899072
 40
0.9514325494
 40
0.9598649296
 40
0.9681168176
 40
0.9762206259
 40
0.9842111022
 40
0.9921248957
 40
1.0
 40
1.0
 40
1.0
 40
1.0
 10
14.7906544809
 20
12.9540630436
 30
0.0
 10
14.7872095001
 20
12.9282362866
 30
0.0
 10
14.7809363599
 20
12.8761325856
 30
0.0
 10
14.7734069199
 20
12.7973074601
 30
0.0
 10
14.7677100414
 20
12.7174727338
 30
0.0
 10
14.7638659393
 20
12.6369101428
 30
0.0
 10
14.7618882364
 20
12.5559033111
 30
0.0
 10
14.7617839045
 20
12.4747376315
 30
0.0
 10
14.7635533428
 20
12.393698997
 30
0.0
 10
14.7671902605
 20
12.3130728662
 30
0.0
 10
14.7726818084
 20
12.233143222
 30
0.0
 10
14.78000853
 20
12.1541915631
 30
0.0
 10
14.7891445104
 20
12.0764958972
 30
0.0
 10
14.800057411
 20
12.0003297445
 30
0.0
 10
14.8127086285
 20
11.9259611534
 30
0.0
 10
14.8270534192
 20
11.8536517415
 30
0.0
 10
14.8430410709
 20
11.7836557126
 30
0.0
 10
14.8606151091
 20
11.7162190463
 30
0.0
 10
14.8797135451
 20
11.6515781736
 30
0.0
 10
14.9002689702
 20
11.5899605582
 30
0.0
 10
14.9187510015
 20
11.5407817823
 30
0.0
 10
14.9342392678
 20
11.5031536314
 30
0.0
 10
14.9460450099
 20
11.4761319272
 30
0.0
 10
14.9581578055
 20
11.4500219839
 30
0.0
 10
14.9705671226
 20
11.4248466621
 30
0.0
 10
14.9832620604
 20
11.4006281006
 30
0.0
 10
14.9962314998
 20
11.3773875506
 30
0.0
 10
15.0094640895
 20
11.3551453977
 30
0.0
 10
15.0229482808
 20
11.3339211504
 30
0.0
 10
15.0366723426
 20
11.3137334276
 30
0.0
 10
15.0506243448
 20
11.2945999203
 30
0.0
 10
15.0647922007
 20
11.2765373993
 30
0.0
 10
15.0791636857
 20
11.2595617207
 30
0.0
 10
15.0937264537
 20
11.2436878211
 30
0.0
 10
15.1084680179
 20
11.2289296882
 30
0.0
 10
15.1233757939
 20
11.215300397
 30
0.0
 10
15.1384371008
 20
11.2028121302
 30
0.0
 10
15.1536391524
 20
11.1914761847
 30
0.0
 10
15.1689690193
 20
11.1813029523
 30
0.0
 10
15.1844136293
 20
11.1723019721
 30
0.0
 10
15.1999597232
 20
11.1644819374
 30
0.0
 10
15.2155937785
 20
11.1578506555
 30
0.0
 10
15.2313019872
 20
11.1524149752
 30
0.0
 10
15.2470700817
 20
11.148180758
 30
0.0
 10
15.2628838457
 20
11.1451527747
 30
0.0
 10
15.2787271588
 20
11.1433345521
 30
0.0
 10
15.2893105893
 20
11.1429299957
 30
0.0
 10
15.2945871419
 20
11.1429300006
 30
0.0
  0
SPLINE
  5
2F0
100
AcDbEntity
  8
LAYER_FEATURE
100
AcDbSpline
 62
7
  6
CONTINUOUS
 70
0
 71
3
 72
13
 73
9
 74
0
 42
0.0000001
 43
0.0000001
 44
0.0000000001
 40
0.0
 40
0.0
 40
0.0
 40
0.0
 40
0.1126459242
 40
0.233349967
 40
0.4902856267
 40
0.7522515083
 40
0.8790790098
 40
1.0
 40
1.0
 40
1.0
 40
1.0
 10
14.8914563599
 20
13.4049061333
 30
0.0
 10
14.8913421964
 20
13.4045367003
 30
0.0
 10
14.8911395609
 20
13.4037607018
 30
0.0
 10
14.8908333263
 20
13.4021047364
 30
0.0
 10
14.8906456136
 20
13.3999115115
 30
0.0
 10
14.890705359
 20
13.3976906366
 30
0.0
 10
14.8909087965
 20
13.3959519307
 30
0.0
 10
14.8910620109
 20
13.3951145906
 30
0.0
 10
14.8911518904
 20
13.394709363
 30
0.0
  0
SPLINE
  5
2F1
100
AcDbEntity
  8
LAYER_FEATURE
100
AcDbSpline
 62
7
  6
CONTINUOUS
 70
0
 71
3
 72
11
 73
7
 74
0
 42
0.0000001
 43
0.0000001
 44
0.0000000001
 40
0.0
 40
0.0
 40
0.0
 40
0.0
 40
0.2553250409
 40
0.5118768144
 40
0.7624153647
 40
1.0
 40
1.0
 40
1.0
 40
1.0
 10
14.8987353082
 20
13.336615311
 30
0.0
 10
14.8989708801
 20
13.3394027522
 30
0.0
 10
14.8992354349
 20
13.3450104111
 30
0.0
 10
14.8990407387
 20
13.3533680073
 30
0.0
 10
14.8982660293
 20
13.3614968795
 30
0.0
 10
14.8973481851
 20
13.3667729552
 30
0.0
 10
14.8967845352
 20
13.3693142082
 30
0.0
  0
SPLINE
  5
2F2
100
AcDbEntity
  8
02___PRT_ALL_AXES
100
AcDbSpline
 62
7
  6
CONTINUOUS
 70
0
 71
3
 72
28
 73
24
 74
0
 42
0.0000001
 43
0.0000001
 44
0.0000000001
 40
0.0
 40
0.0
 40
0.0
 40
0.0
 40
0.0879709016
 40
0.17266953
 40
0.2539405737
 40
0.3316543601
 40
0.4057108254
 40
0.4760441955
 40
0.5426287119
 40
0.605485647
 40
0.6646918351
 40
0.720389833
 40
0.7469956897
 40
0.7728143237
 40
0.8222449464
 40
0.8459768883
 40
0.8691265548
 40
0.8917616236
 40
0.9139561601
 40
0.9357901439
 40
0.9573487327
 40
0.9787212609
 40
1.0
 40
1.0
 40
1.0
 40
1.0
 10
15.2372658984
 20
13.1906908957
 30
0.0
 10
15.2421424262
 20
13.2064713454
 30
0.0
 10
15.2522097881
 20
13.2372952718
 30
0.0
 10
15.2685902441
 20
13.2820817439
 30
0.0
 10
15.2859234838
 20
13.3244363512
 30
0.0
 10
15.304155024
 20
13.3642259536
 30
0.0
 10
15.3232281005
 20
13.4013265324
 30
0.0
 10
15.3430838042
 20
13.4356226787
 30
0.0
 10
15.3636613734
 20
13.4670079266
 30
0.0
 10
15.3848993825
 20
13.4953855889
 30
0.0
 10
15.4067339082
 20
13.520666185
 30
0.0
 10
15.4256567523
 20
13.5393657832
 30
0.0
 10
15.4410381801
 20
13.5526249297
 30
0.0
 10
15.4561036527
 20
13.5644116982
 30
0.0
 10
15.4715880018
 20
13.5747645137
 30
0.0
 10
15.4874344453
 20
13.583493161
 30
0.0
 10
15.4992285924
 20
13.5891029669
 30
0.0
 10
15.5110820082
 20
13.5938586741
 30
0.0
 10
15.5229856735
 20
13.5977561376
 30
0.0
 10
15.5349297628
 20
13.6007915594
 30
0.0
 10
15.546904652
 20
13.6029619495
 30
0.0
 10
15.5588994331
 20
13.6042650895
 30
0.0
 10
15.5669103046
 20
13.6045549904
 30
0.0
 10
15.5709054401
 20
13.6045549904
 30
0.0
  0
SPLINE
  5
2F3
100
AcDbEntity
  8
02___PRT_ALL_AXES
100
AcDbSpline
 62
7
  6
CONTINUOUS
 70
0
 71
3
 72
23
 73
19
 74
0
 42
0.0000001
 43
0.0000001
 44
0.0000000001
 40
0.0
 40
0.0
 40
0.0
 40
0.0
 40
0.0796432477
 40
0.1571993418
 40
0.2325913126
 40
0.3057502584
 40
0.3766159763
 40
0.4451379908
 40
0.5112765793
 40
0.5750040136
 40
0.6363059736
 40
0.6951831914
 40
0.7516533467
 40
0.8057532416
 40
0.8575412611
 40
0.9071000973
 40
0.9545396584
 40
1.0
 40
1.0
 40
1.0
 40
1.0
 10
15.1902131905
 20
13.2865742333
 30
0.0
 10
15.1942319297
 20
13.2995788781
 30
0.0
 10
15.2024608897
 20
13.325156942
 30
0.0
 10
15.2155641721
 20
13.3626905323
 30
0.0
 10
15.2292467735
 20
13.3988348813
 30
0.0
 10
15.2434863331
 20
13.4335309562
 30
0.0
 10
15.2582597308
 20
13.4667224754
 30
0.0
 10
15.2735429943
 20
13.498355561
 30
0.0
 10
15.2893113986
 20
13.5283789458
 30
0.0
 10
15.3055395166
 20
13.5567440232
 30
0.0
 10
15.3222012917
 20
13.5834049262
 30
0.0
 10
15.3392701191
 20
13.6083185855
 30
0.0
 10
15.3567189114
 20
13.6314447573
 30
0.0
 10
15.37452025
 20
13.6527460769
 30
0.0
 10
15.3926462428
 20
13.6721878938
 30
0.0
 10
15.4110693787
 20
13.6897387128
 30
0.0
 10
15.4297597922
 20
13.7053683223
 30
0.0
 10
15.4426416475
 20
13.7146787911
 30
0.0
 10
15.4491118781
 20
13.7189799191
 30
0.0
  0
SPLINE
  5
2F4
100
AcDbEntity
  8
LAYER_FEATURE
100
AcDbSpline
 62
7
  6
CONTINUOUS
 70
0
 71
3
 72
36
 73
32
 74
0
 42
0.0000001
 43
0.0000001
 44
0.0000000001
 40
0.0
 40
0.0
 40
0.0
 40
0.0
 40
0.0879647301
 40
0.1726570648
 40
0.2539222764
 40
0.2932301914
 40
0.3316350098
 40
0.3691252116
 40
0.4056913988
 40
0.4413264641
 40
0.4760258261
 40
0.5097875916
 40
0.542612777
 40
0.5745056085
 40
0.6054737773
 40
0.6355287187
 40
0.6646859772
 40
0.6929655693
 40
0.7203923177
 40
0.746996252
 40
0.7728130251
 40
0.7978842365
 40
0.8222577519
 40
0.8459879813
 40
0.8691359833
 40
0.8917694219
 40
0.9139623571
 40
0.9357947692
 40
0.9573518063
 40
0.9787227939
 40
1.0
 40
1.0
 40
1.0
 40
1.0
 10
14.8394591342
 20
13.4113624344
 30
0.0
 10
14.8459184557
 20
13.4322648066
 30
0.0
 10
14.8592534198
 20
13.4730934181
 30
0.0
 10
14.8809503963
 20
13.5324157569
 30
0.0
 10
14.9002916045
 20
13.5796776963
 30
0.0
 10
14.9164049636
 20
13.6157875147
 30
0.0
 10
14.9286446566
 20
13.6416963666
 30
0.0
 10
14.9411630775
 20
13.6667115356
 30
0.0
 10
14.9539504848
 20
13.6908133943
 30
0.0
 10
14.9669968195
 20
13.7139829309
 30
0.0
 10
14.9802918315
 20
13.7362019225
 30
0.0
 10
14.9938250992
 20
13.7574528869
 30
0.0
 10
15.0075860603
 20
13.7777190913
 30
0.0
 10
15.0215639682
 20
13.7969845999
 30
0.0
 10
15.0357479339
 20
13.8152342652
 30
0.0
 10
15.0501269652
 20
13.8324537063
 30
0.0
 10
15.0646899423
 20
13.8486293428
 30
0.0
 10
15.0794256173
 20
13.8637484102
 30
0.0
 10
15.0943226692
 20
13.8777989094
 30
0.0
 10
15.1093696939
 20
13.8907696101
 30
0.0
 10
15.1245551595
 20
13.9026500971
 30
0.0
 10
15.1398674535
 20
13.9134307001
 30
0.0
 10
15.1552948668
 20
13.9231024692
 30
0.0
 10
15.1708255188
 20
13.9316572478
 30
0.0
 10
15.1864473625
 20
13.9390876359
 30
0.0
 10
15.2021481471
 20
13.9453869657
 30
0.0
 10
15.2179153823
 20
13.9505494093
 30
0.0
 10
15.2337361855
 20
13.9545700527
 30
0.0
 10
15.249597779
 20
13.9574449
 30
0.0
 10
15.2654857255
 20
13.959170984
 30
0.0
 10
15.2760966962
 20
13.95955499
 30
0.0
 10
15.2813885385
 20
13.9595549848
 30
0.0
  0
SPLINE
  5
2F5
100
AcDbEntity
  8
02___PRT_ALL_AXES
100
AcDbSpline
 62
7
  6
CONTINUOUS
 70
0
 71
3
 72
37
 73
33
 74
0
 42
0.0000001
 43
0.0000001
 44
0.0000000001
 40
0.0
 40
0.0
 40
0.0
 40
0.0
 40
0.0208349323
 40
0.0428602687
 40
0.0660778681
 40
0.0904755957
 40
0.1160298088
 40
0.1427067628
 40
0.1704640022
 40
0.1992514554
 40
0.2290123751
 40
0.2596841454
 40
0.2911989844
 40
0.32348457
 40
0.3564646051
 40
0.390059339
 40
0.4241860537
 40
0.4587595283
 40
0.4936924823
 40
0.5288960035
 40
0.5997493381
 40
0.6705954179
 40
0.7057899031
 40
0.7407102634
 40
0.7752676428
 40
0.809374833
 40
0.8429467043
 40
0.8759006521
 40
0.9081570409
 40
0.9396397766
 40
0.9702765208
 40
1.0
 40
1.0
 40
1.0
 40
1.0
 10
15.9435930091
 20
13.0680889102
 30
0.0
 10
15.9476947804
 20
13.0627409849
 30
0.0
 10
15.9557624144
 20
13.051452062
 30
0.0
 10
15.9671557399
 20
13.0333543756
 30
0.0
 10
15.9781433949
 20
13.0136769389
 30
0.0
 10
15.9886922011
 20
12.9924794024
 30
0.0
 10
15.9987710024
 20
12.9698248765
 30
0.0
 10
16.0083495276
 20
12.9457813628
 30
0.0
 10
16.0173989514
 20
12.9204211092
 30
0.0
 10
16.0258919241
 20
12.8938205045
 30
0.0
 10
16.0338027255
 20
12.8660597929
 30
0.0
 10
16.0411073549
 20
12.8372228236
 30
0.0
 10
16.0477836254
 20
12.807396778
 30
0.0
 10
16.0538112419
 20
12.7766718948
 30
0.0
 10
16.0591718699
 20
12.7451411845
 30
0.0
 10
16.0638491963
 20
12.7129001442
 30
0.0
 10
16.0678289936
 20
12.6800464423
 30
0.0
 10
16.0710991272
 20
12.6466796868
 30
0.0
 10
16.0736497227
 20
12.6129008413
 30
0.0
 10
16.0760854829
 20
12.5673547465
 30
0.0
 10
16.0772838226
 20
12.5101230325
 30
0.0
 10
16.0760368817
 20
12.4528952711
 30
0.0
 10
16.0735622266
 20
12.4073606273
 30
0.0
 10
16.0709828824
 20
12.3735962009
 30
0.0
 10
16.0676843535
 20
12.340247909
 30
0.0
 10
16.0636765984
 20
12.3074166589
 30
0.0
 10
16.0589718387
 20
12.2752019907
 30
0.0
 10
16.0535843855
 20
12.2437014856
 30
0.0
 10
16.047530645
 20
12.2130105616
 30
0.0
 10
16.0408289933
 20
12.1832220644
 30
0.0
 10
16.0334999253
 20
12.1544264418
 30
0.0
 10
16.0281251212
 20
12.1356513525
 30
0.0
 10
16.0253310751
 20
12.1264511553
 30
0.0
  0
SPLINE
  5
2F6
100
AcDbEntity
  8
02___PRT_ALL_AXES
100
AcDbSpline
 62
7
  6
CONTINUOUS
 70
0
 71
3
 72
21
 73
17
 74
0
 42
0.0000001
 43
0.0000001
 44
0.0000000001
 40
0.0
 40
0.0
 40
0.0
 40
0.0
 40
0.1741564105
 40
0.3347248536
 40
0.409523931
 40
0.4805010563
 40
0.5475932129
 40
0.6107865774
 40
0.6701276858
 40
0.7257343235
 40
0.7778092732
 40
0.8266564177
 40
0.872695286
 40
0.9164702999
 40
0.95864883
 40
1.0
 40
1.0
 40
1.0
 40
1.0
 10
15.7824648369
 20
13.1219609567
 30
0.0
 10
15.7819271445
 20
13.1239567217
 30
0.0
 10
15.7807742866
 20
13.1277619077
 30
0.0
 10
15.7790223188
 20
13.1323018365
 30
0.0
 10
15.7774847314
 20
13.1355978481
 30
0.0
 10
15.7763042117
 20
13.1378327467
 30
0.0
 10
15.7750733309
 20
13.1398813847
 30
0.0
 10
15.7737962933
 20
13.1417364713
 30
0.0
 10
15.7724774737
 20
13.1433914294
 30
0.0
 10
15.7711212287
 20
13.1448403548
 30
0.0
 10
15.7697318798
 20
13.1460779327
 30
0.0
 10
15.7683137331
 20
13.1470993583
 30
0.0
 10
15.7668712466
 20
13.1479001931
 30
0.0
 10
15.7654090633
 20
13.1484762442
 30
0.0
 10
15.763933216
 20
13.1488237269
 30
0.0
 10
15.7629402142
 20
13.148901443
 30
0.0
 10
15.7624494491
 20
13.1489014395
 30
0.0
  0
SPLINE
  5
2F7
100
AcDbEntity
  8
02___PRT_ALL_AXES
100
AcDbSpline
 62
7
  6
CONTINUOUS
 70
0
 71
3
 72
17
 73
13
 74
0
 42
0.0000001
 43
0.0000001
 44
0.0000000001
 40
0.0
 40
0.0
 40
0.0
 40
0.0
 40
0.1526207256
 40
0.2972653202
 40
0.4338150144
 40
0.5622587317
 40
0.6827172778
 40
0.7400451516
 40
0.7954964448
 40
0.8491355958
 40
0.9010408507
 40
1.0
 40
1.0
 40
1.0
 40
1.0
 10
15.9933459948
 20
12.0396978396
 30
0.0
 10
15.9897002635
 20
12.0315360711
 30
0.0
 10
15.9822428088
 20
12.0157944403
 30
0.0
 10
15.97020777
 20
11.9934037159
 30
0.0
 10
15.957660943
 20
11.9729360059
 30
0.0
 10
15.944647937
 20
11.954467673
 30
0.0
 10
15.9332704431
 20
11.9405762246
 30
0.0
 10
15.9239636146
 20
11.9305710871
 30
0.0
 10
15.9170131436
 20
11.9237327903
 30
0.0
 10
15.9099829237
 20
11.9174420658
 30
0.0
 10
15.9006626495
 20
11.9099143483
 30
0.0
 10
15.8933475241
 20
11.904912547
 30
0.0
 10
15.8883670298
 20
11.9019479561
 30
0.0
  0
SPLINE
  5
2F8
100
AcDbEntity
  8
02___PRT_ALL_AXES
100
AcDbSpline
 62
7
  6
CONTINUOUS
 70
0
 71
3
 72
12
 73
8
 74
0
 42
0.0000001
 43
0.0000001
 44
0.0000000001
 40
0.0
 40
0.0
 40
0.0
 40
0.0
 40
0.2506851877
 40
0.5009328107
 40
0.6258863121
 40
0.7507210377
 40
1.0
 40
1.0
 40
1.0
 40
1.0
 10
15.6353535866
 20
12.1479287434
 30
0.0
 10
15.6679641013
 20
12.1465974119
 30
0.0
 10
15.7331191565
 20
12.1437104185
 30
0.0
 10
15.8144997764
 20
12.1395427847
 30
0.0
 10
15.8794973726
 20
12.1358616432
 30
0.0
 10
15.9443550548
 20
12.1319490695
 30
0.0
 10
15.992956815
 20
12.128733299
 30
0.0
 10
16.0253310751
 20
12.1264511553
 30
0.0
  0
ENDSEC
  0
SECTION
  2
OBJECTS
  0
DICTIONARY
  5
C
100
AcDbDictionary
280
0
281
1
  3
ACAD_GROUP
350
D
  3
ACAD_MLINESTYLE
350
17
  3
ACAD_LAYOUT
350
1A
  3
ACAD_PLOTSETTINGS
350
19
  3
ACAD_PLOTSTYLENAME
350
E
  0
DICTIONARY
  5
D
102
{ACAD_REACTORS
330
C
102
}
100
AcDbDictionary
280
0
281
1
  0
ACDBDICTIONARYWDFLT
  5
E
102
{ACAD_REACTORS
330
C
102
}
100
AcDbDictionary
281
1
  3
Normal
350
F
100
AcDbDictionaryWithDefault
340
F
  0
DICTIONARY
  5
17
102
{ACAD_REACTORS
330
C
102
}
100
AcDbDictionary
280
0
281
1
  3
Standard
350
18
  0
DICTIONARY
  5
19
102
{ACAD_REACTORS
330
C
102
}
100
AcDbDictionary
281
1
  0
DICTIONARY
  5
1A
102
{ACAD_REACTORS
330
C
102
}
100
AcDbDictionary
281
1
  3
Model
350
2F9
  3
Layout1
350
2FA
  0
ACDBPLACEHOLDER
  5
F
102
{ACAD_REACTORS
330
E
102
}
  0
MLINESTYLE
  5
18
102
{ACAD_REACTORS
330
17
102
}
100
AcDbMlineStyle
  2
STANDARD
 70
0
  3

 62
256
 51
90.0
 52
90.0
 71
2
 49
0.5
 62
256
  6
BYLAYER
 49
-0.5
 62
256
  6
BYLAYER
  0
LAYOUT
  5
2F9
102
{ACAD_REACTORS
330
1A
102
}
100
AcDbPlotSettings
  1

  2
none_device
  4
ANSI_C_(22.00_x_17.00_Inches)
  6

 40
0.0
 41
0.0
 42
0.0
 43
0.0
 44
558.8
 45
431.8
 46
0.0
 47
0.0
 48
0.0
 49
0.0
140
0.0
141
0.0
142
1.0
143
1.0
 70
1024
 72
0
 73
0
 74
0
  7

 75
0
147
1.0
148
0.0
149
0.0
100
AcDbLayout
  1
Model
 70
0
 71
0
 10
0.0
 20
0.0
 11
22.0
 21
17.0
 12
0.0
 22
0.0
 32
0.0
 14
0.0
 24
0.0
 34
0.0
 15
0.0
 25
0.0
 35
0.0
146
0.0
 13
0.0
 23
0.0
 33
0.0
 16
1.0
 26
0.0
 36
0.0
 17
0.0
 27
1.0
 37
0.0
 76
0
330
222
345
0
346
0
  0
LAYOUT
  5
2FA
102
{ACAD_REACTORS
330
1A
102
}
100
AcDbPlotSettings
  1

  2
none_device
  4
ANSI_C_(22.00_x_17.00_Inches)
  6

 40
0.0
 41
0.0
 42
0.0
 43
0.0
 44
558.8
 45
431.8
 46
0.0
 47
0.0
 48
0.0
 49
0.0
140
0.0
141
0.0
142
1.0
143
1.0
 70
0
 72
0
 73
0
 74
0
  7

 75
0
147
1.0
148
0.0
149
0.0
100
AcDbLayout
  1
Layout1
 70
0
 71
1
 10
0.0
 20
0.0
 11
22.0
 21
17.0
 12
0.0
 22
0.0
 32
0.0
 14
0.0
 24
0.0
 34
0.0
 15
0.0
 25
0.0
 35
0.0
146
0.0
 13
0.0
 23
0.0
 33
0.0
 16
1.0
 26
0.0
 36
0.0
 17
0.0
 27
1.0
 37
0.0
 76
0
330
223
345
0
346
0
  0
ENDSEC
  0
EOF