999
DXF file: _cgs_temp_output.dxf
999
Pro/ENGINEER 2016360 by Parametric Technology Corporation
  0
SECTION
  2
HEADER
  9
$ACADVER
  1
AC1021
  9
$DWGCODEPAGE
  3
ANSI_1252
  9
$EXTMAX
 10
22.0
 20
17.0
 30
0.0
  9
$EXTMIN
 10
0.0
 20
0.0
 30
0.0
  9
$LIMMIN
 10
0.0
 20
0.0
  9
$LIMMAX
 10
22.0
 20
17.0
  9
$VIEWCTR
 10
11.0
 20
8.5
  9
$VIEWSIZE
 40
17.0
  9
$CLAYER
  8
0
  9
$LTSCALE
 40
1.21
  9
$CELTYPE
  6
BYLAYER
  9
$DIMSCALE
 40
1.0
  9
$DIMASZ
 40
0.1875
  9
$DIMEXO
 40
0.0625
  9
$DIMDLI
 40
0.836
  9
$DIMEXE
 40
0.125
  9
$DIMCEN
 40
0.198
  9
$DIMLFAC
 40
1.0
  9
$DIMBLK
  1
_CLOSED
  9
$DIMALT
 70
0
  9
$DIMALTF
 40
25.4
  9
$DIMTXT
 40
0.15625
  9
$DIMTOL
 70
0
  9
$DIMLIM
 70
0
  9
$DIMTFAC
 40
1.0
  9
$DIMGAP
 40
0.09
  9
$DIMDSEP
 70
46
  9
$AUNITS
 70
0
  9
$PDMODE
 70
3
  9
$PDSIZE
 40
0.3125
  9
$HANDSEED
  5
2F7
  9
$TILEMODE
 70
1
  9
$MEASUREMENT
 70
0
  9
$INSUNITS
 70
1
  0
ENDSEC
  0
SECTION
  2
CLASSES
  0
CLASS
  1
ACDBDICTIONARYWDFLT
  2
AcDbDictionaryWithDefault
  3
AutoCAD 2000
 90
0
 91
1
280
0
281
0
  0
CLASS
  1
ACDBPLACEHOLDER
  2
AcDbPlaceHolder
  3
AutoCAD 2000
 90
0
 91
1
280
0
281
0
  0
CLASS
  1
LAYOUT
  2
AcDbLayout
  3
AutoCAD 2000
 90
0
 91
0
280
0
281
0
  0
ENDSEC
  0
SECTION
  2
TABLES
  0
TABLE
  2
VPORT
  5
8
100
AcDbSymbolTable
 70
2
  0
VPORT
  5
1F4
100
AcDbSymbolTableRecord
100
AcDbViewportTableRecord
  2
*ACTIVE
 70
0
 10
0.0
 20
0.0
 11
1.0
 21
1.0
 12
11.0
 22
8.5
 13
0.0
 23
0.0
 14
1.0
 24
1.0
 15
0.0
 25
0.0
 16
0.0
 26
0.0
 36
1.0
 17
0.0
 27
0.0
 37
0.0
 40
17.0
 41
1.2941176471
 42
50.0
 43
0.0
 44
0.0
 50
0.0
 51
0.0
 71
0
 72
100
 73
1
 74
1
 75
0
 76
0
 77
0
 78
0
  0
ENDTAB
  0
TABLE
  2
LTYPE
  5
5
100
AcDbSymbolTable
 70
6
  0
LTYPE
  5
14
100
AcDbSymbolTableRecord
100
AcDbLinetypeTableRecord
  2
BYBLOCK
 70
0
  3

 72
65
 73
0
 40
0.0
  0
LTYPE
  5
15
100
AcDbSymbolTableRecord
100
AcDbLinetypeTableRecord
  2
BYLAYER
 70
0
  3

 72
65
 73
0
 40
0.0
  0
LTYPE
  5
16
100
AcDbSymbolTableRecord
100
AcDbLinetypeTableRecord
  2
CONTINUOUS
 70
64
  3
Solid line
 72
65
 73
0
 40
0.0
  0
LTYPE
  5
1F5
100
AcDbSymbolTableRecord
100
AcDbLinetypeTableRecord
  2
CENTER
 70
64
  3
____ _ ____ _ ____ _ ____ _ ____ _ ____ _ ____
 72
65
 73
4
 40
0.6
 49
0.375
 74
0
 49
-0.075
 74
0
 49
0.075
 74
0
 49
-0.075
 74
0
  0
LTYPE
  5
1F6
100
AcDbSymbolTableRecord
100
AcDbLinetypeTableRecord
  2
HIDDEN
 70
64
  3
- - - - - - - - - - - - - - - - - - - -
 72
65
 73
2
 40
0.2
 49
0.1
 74
0
 49
-0.1
 74
0
  0
LTYPE
  5
1F7
100
AcDbSymbolTableRecord
100
AcDbLinetypeTableRecord
  2
PHANTOM
 70
64
  3
_____ _ _ _____ _ _ _____ _ _ _____
 72
65
 73
6
 40
0.8
 49
0.45
 74
0
 49
-0.05
 74
0
 49
0.1
 74
0
 49
-0.05
 74
0
 49
0.1
 74
0
 49
-0.05
 74
0
  0
LTYPE
  5
1F8
100
AcDbSymbolTableRecord
100
AcDbLinetypeTableRecord
  2
DOT
 70
64
  3
. . . . . . . . . . . . . . . . . . . .
 72
65
 73
2
 40
0.2
 49
0.1
 74
0
 49
-0.1
 74
0
  0
LTYPE
  5
1F9
100
AcDbSymbolTableRecord
100
AcDbLinetypeTableRecord
  2
DASHED
 70
64
  3
- - - - - - - - - - - - - - - - - - - -
 72
65
 73
2
 40
0.2
 49
0.1
 74
0
 49
-0.1
 74
0
  0
ENDTAB
  0
TABLE
  2
LAYER
  5
2
100
AcDbSymbolTable
 70
36
  0
LAYER
  5
10
100
AcDbSymbolTableRecord
100
AcDbLayerTableRecord
  2
0
 70
0
 62
7
  6
CONTINUOUS
370
-3
390
F
  0
LAYER
  5
1FA
100
AcDbSymbolTableRecord
100
AcDbLayerTableRecord
  2
DEFAULT_1
 70
0
 62
7
  6
CENTER
370
-3
390
F
  0
LAYER
  5
1FB
100
AcDbSymbolTableRecord
100
AcDbLayerTableRecord
  2
DEFAULT_2
 70
0
 62
8
  6
HIDDEN
370
-3
390
F
  0
LAYER
  5
1FC
100
AcDbSymbolTableRecord
100
AcDbLayerTableRecord
  2
DEFAULT_3
 70
0
 62
7
  6
PHANTOM
370
-3
390
F
  0
LAYER
  5
1FD
100
AcDbSymbolTableRecord
100
AcDbLayerTableRecord
  2
01_ALL_DTM_PLN
 70
0
 62
7
  6
CONTINUOUS
370
-3
390
F
  0
LAYER
  5
1FE
100
AcDbSymbolTableRecord
100
AcDbLayerTableRecord
  2
01__ASM_ALL_DTM_PLN
 70
0
 62
7
  6
CONTINUOUS
370
-3
390
F
  0
LAYER
  5
1FF
100
AcDbSymbolTableRecord
100
AcDbLayerTableRecord
  2
01__ASM_DEF_DTM_PLN
 70
0
 62
7
  6
CONTINUOUS
370
-3
390
F
  0
LAYER
  5
200
100
AcDbSymbolTableRecord
100
AcDbLayerTableRecord
  2
01___PRT_ALL_DTM_PLN
 70
0
 62
7
  6
CONTINUOUS
370
-3
390
F
  0
LAYER
  5
201
100
AcDbSymbolTableRecord
100
AcDbLayerTableRecord
  2
01___PRT_DEF_DTM_PLN
 70
0
 62
7
  6
CONTINUOUS
370
-3
390
F
  0
LAYER
  5
202
100
AcDbSymbolTableRecord
100
AcDbLayerTableRecord
  2
02_ALL_AXES
 70
0
 62
7
  6
CONTINUOUS
370
-3
390
F
  0
LAYER
  5
203
100
AcDbSymbolTableRecord
100
AcDbLayerTableRecord
  2
02__ASM_ALL_AXES
 70
0
 62
7
  6
CONTINUOUS
370
-3
390
F
  0
LAYER
  5
204
100
AcDbSymbolTableRecord
100
AcDbLayerTableRecord
  2
02___PRT_ALL_AXES
 70
0
 62
7
  6
CONTINUOUS
370
-3
390
F
  0
LAYER
  5
205
100
AcDbSymbolTableRecord
100
AcDbLayerTableRecord
  2
03_ALL_CURVES
 70
0
 62
7
  6
CONTINUOUS
370
-3
390
F
  0
LAYER
  5
206
100
AcDbSymbolTableRecord
100
AcDbLayerTableRecord
  2
03__ASM_ALL_CURVES
 70
0
 62
7
  6
CONTINUOUS
370
-3
390
F
  0
LAYER
  5
207
100
AcDbSymbolTableRecord
100
AcDbLayerTableRecord
  2
03___PRT_ALL_CURVES
 70
0
 62
7
  6
CONTINUOUS
370
-3
390
F
  0
LAYER
  5
208
100
AcDbSymbolTableRecord
100
AcDbLayerTableRecord
  2
04_ALL_DTM_PNT
 70
0
 62
7
  6
CONTINUOUS
370
-3
390
F
  0
LAYER
  5
209
100
AcDbSymbolTableRecord
100
AcDbLayerTableRecord
  2
04__ASM_ALL_DTM_PNT
 70
0
 62
7
  6
CONTINUOUS
370
-3
390
F
  0
LAYER
  5
20A
100
AcDbSymbolTableRecord
100
AcDbLayerTableRecord
  2
04___PRT_ALL_DTM_PNT
 70
0
 62
7
  6
CONTINUOUS
370
-3
390
F
  0
LAYER
  5
20B
100
AcDbSymbolTableRecord
100
AcDbLayerTableRecord
  2
05_ALL_DTM_CSYS
 70
0
 62
7
  6
CONTINUOUS
370
-3
390
F
  0
LAYER
  5
20C
100
AcDbSymbolTableRecord
100
AcDbLayerTableRecord
  2
05__ASM_ALL_DTM_CSYS
 70
0
 62
7
  6
CONTINUOUS
370
-3
390
F
  0
LAYER
  5
20D
100
AcDbSymbolTableRecord
100
AcDbLayerTableRecord
  2
05__ASM_DEF_DTM_CSYS
 70
0
 62
7
  6
CONTINUOUS
370
-3
390
F
  0
LAYER
  5
20E
100
AcDbSymbolTableRecord
100
AcDbLayerTableRecord
  2
05___PRT_ALL_DTM_CSYS
 70
0
 62
7
  6
CONTINUOUS
370
-3
390
F
  0
LAYER
  5
20F
100
AcDbSymbolTableRecord
100
AcDbLayerTableRecord
  2
05___PRT_DEF_DTM_CSYS
 70
0
 62
7
  6
CONTINUOUS
370
-3
390
F
  0
LAYER
  5
210
100
AcDbSymbolTableRecord
100
AcDbLayerTableRecord
  2
06_ALL_SURFS
 70
0
 62
7
  6
CONTINUOUS
370
-3
390
F
  0
LAYER
  5
211
100
AcDbSymbolTableRecord
100
AcDbLayerTableRecord
  2
06__ASM_ALL_SURFS
 70
0
 62
7
  6
CONTINUOUS
370
-3
390
F
  0
LAYER
  5
212
100
AcDbSymbolTableRecord
100
AcDbLayerTableRecord
  2
06___PRT_ALL_SURFS
 70
0
 62
7
  6
CONTINUOUS
370
-3
390
F
  0
LAYER
  5
213
100
AcDbSymbolTableRecord
100
AcDbLayerTableRecord
  2
07__ASM_ALL_SKELETONS
 70
0
 62
7
  6
CONTINUOUS
370
-3
390
F
  0
LAYER
  5
214
100
AcDbSymbolTableRecord
100
AcDbLayerTableRecord
  2
LAYER_AXIS
 70
0
 62
7
  6
CONTINUOUS
370
-3
390
F
  0
LAYER
  5
215
100
AcDbSymbolTableRecord
100
AcDbLayerTableRecord
  2
LAYER_CHAMFER_FEAT
 70
0
 62
7
  6
CONTINUOUS
370
-3
390
F
  0
LAYER
  5
216
100
AcDbSymbolTableRecord
100
AcDbLayerTableRecord
  2
LAYER_CUT_FEAT
 70
0
 62
7
  6
CONTINUOUS
370
-3
390
F
  0
LAYER
  5
217
100
AcDbSymbolTableRecord
100
AcDbLayerTableRecord
  2
LAYER_DATUM
 70
0
 62
7
  6
CONTINUOUS
370
-3
390
F
  0
LAYER
  5
218
100
AcDbSymbolTableRecord
100
AcDbLayerTableRecord
  2
LAYER_DIM
 70
0
 62
7
  6
CONTINUOUS
370
-3
390
F
  0
LAYER
  5
219
100
AcDbSymbolTableRecord
100
AcDbLayerTableRecord
  2
LAYER_FEATURE
 70
0
 62
7
  6
CONTINUOUS
370
-3
390
F
  0
LAYER
  5
21A
100
AcDbSymbolTableRecord
100
AcDbLayerTableRecord
  2
LAYER_GEOM_FEAT
 70
0
 62
7
  6
CONTINUOUS
370
-3
390
F
  0
LAYER
  5
21B
100
AcDbSymbolTableRecord
100
AcDbLayerTableRecord
  2
LAYER_NOGEOM_FEAT
 70
0
 62
7
  6
CONTINUOUS
370
-3
390
F
  0
LAYER
  5
21C
100
AcDbSymbolTableRecord
100
AcDbLayerTableRecord
  2
LAYER_PARAMETER_DIM
 70
0
 62
7
  6
CONTINUOUS
370
-3
390
F
  0
LAYER
  5
21D
100
AcDbSymbolTableRecord
100
AcDbLayerTableRecord
  2
LAYER_PROTRUSION_FEAT
 70
0
 62
7
  6
CONTINUOUS
370
-3
390
F
  0
LAYER
  5
21E
100
AcDbSymbolTableRecord
100
AcDbLayerTableRecord
  2
LAYER_QUILT
 70
0
 62
7
  6
CONTINUOUS
370
-3
390
F
  0
LAYER
  5
21F
100
AcDbSymbolTableRecord
100
AcDbLayerTableRecord
  2
LAYER_ROUND_FEAT
 70
0
 62
7
  6
CONTINUOUS
370
-3
390
F
  0
ENDTAB
  0
TABLE
  2
STYLE
  5
3
100
AcDbSymbolTable
 70
1
  0
STYLE
  5
11
100
AcDbSymbolTableRecord
100
AcDbTextStyleTableRecord
  2
STANDARD
 70
0
 40
0.0
 41
0.8
 50
0.0
 71
0
 42
0.2
  3
txt
  4

  0
STYLE
  5
220
100
AcDbSymbolTableRecord
100
AcDbTextStyleTableRecord
  2
TEXTSTYLE_1
 70
0
 40
0.0
 41
0.8
 50
0.0
 71
0
 42
0.2
  3
gdt
  4

  0
ENDTAB
  0
TABLE
  2
VIEW
  5
6
100
AcDbSymbolTable
 70
0
  0
ENDTAB
  0
TABLE
  2
UCS
  5
7
100
AcDbSymbolTable
 70
0
  0
ENDTAB
  0
TABLE
  2
APPID
  5
9
100
AcDbSymbolTable
 70
1
  0
APPID
  5
221
100
AcDbSymbolTableRecord
100
AcDbRegAppTableRecord
  2
ACAD
 70
0
  0
ENDTAB
  0
TABLE
  2
BLOCK_RECORD
  5
1
100
AcDbSymbolTable
 70
0
  0
BLOCK_RECORD
  5
222
100
AcDbSymbolTableRecord
100
AcDbBlockTableRecord
  2
*Model_Space
  0
BLOCK_RECORD
  5
223
100
AcDbSymbolTableRecord
100
AcDbBlockTableRecord
  2
*Paper_Space
  0
ENDTAB
  0
TABLE
  2
DIMSTYLE
  5
A
100
AcDbSymbolTable
 70
1
100
AcDbDimStyleTable
 71
0
  0
DIMSTYLE
105
224
100
AcDbSymbolTableRecord
100
AcDbDimStyleTableRecord
  2
STANDARD
 70
0
  3

  4

 40
1.0
 41
0.1875
 42
0.0625
 43
0.38
 44
0.125
 45
0.0
 46
0.0
 47
0.0001
 48
0.0001
140
0.15625
141
0.09
142
0.0
143
25.4
144
1.0
145
0.0
146
1.0
147
0.09
 71
0.0
 72
0.0
 73
1
 74
1
 75
0
 76
0
 77
0
 78
4
 79
1
170
0
171
3
172
0
173
0
174
0
175
0
176
0
177
0
178
0
270
2
179
4
271
4
272
4
273
2
274
2
275
0
280
0
281
0
282
0
283
1
284
4
285
0
286
0
287
3
288
0
340
11
278
46
  0
ENDTAB
  0
ENDSEC
  0
SECTION
  2
BLOCKS
  0
BLOCK
  5
20
100
AcDbEntity
  8
0
100
AcDbBlockBegin
  2
*Model_Space
 70
0
 10
0.0
 20
0.0
 30
0.0
  3
*Model_Space
  1

  0
ENDBLK
  5
21
100
AcDbEntity
  8
0
100
AcDbBlockEnd
  0
BLOCK
  5
1C
100
AcDbEntity
  8
0
100
AcDbBlockBegin
  2
*Paper_Space
 70
0
 10
0.0
 20
0.0
 30
0.0
  3
*Paper_Space
  1

  0
ENDBLK
  5
1D
100
AcDbEntity
  8
0
100
AcDbBlockEnd
  0
ENDSEC
  0
SECTION
  2
ENTITIES
  0
MTEXT
  5
225
100
AcDbEntity
  8
0
100
AcDbMText
 62
7
  6
CONTINUOUS
  7
STANDARD
 71
1
 72
1
 10
15.9560215477
 20
0.9479130325
 30
0.0
 11
1.0
 21
0.0
 31
0.0
 44
0.9
  1
SCALE: 1:0.250
 40
0.3
 41
3.36
  0
LINE
  5
226
100
AcDbEntity
  8
0
100
AcDbLine
 62
7
  6
CONTINUOUS
 10
0.0
 20
0.0
 11
0.0
 21
17.0
  0
LINE
  5
227
100
AcDbEntity
  8
0
100
AcDbLine
 62
7
  6
CONTINUOUS
 10
0.0
 20
0.0
 11
22.0
 21
0.0
  0
LINE
  5
228
100
AcDbEntity
  8
0
100
AcDbLine
 62
7
  6
CONTINUOUS
 10
0.0
 20
17.0
 11
22.0
 21
17.0
  0
LINE
  5
229
100
AcDbEntity
  8
0
100
AcDbLine
 62
7
  6
CONTINUOUS
 10
22.0
 20
0.0
 11
22.0
 21
17.0
  0
LINE
  5
22A
100
AcDbEntity
  8
LAYER_FEATURE
100
AcDbLine
 62
7
  6
CONTINUOUS
 10
6.5553672762
 20
3.9576198968
 11
6.5246970583
 21
3.9576198968
  0
LINE
  5
22B
100
AcDbEntity
  8
LAYER_FEATURE
100
AcDbLine
 62
7
  6
CONTINUOUS
 10
5.7053672762
 20
3.9576198968
 11
5.736037494
 21
3.9576198968
  0
LINE
  5
22C
100
AcDbEntity
  8
02___PRT_ALL_AXES
100
AcDbLine
 62
7
  6
CONTINUOUS
 10
5.7541172762
 20
4.0644948968
 11
6.5066172762
 21
4.0644948968
  0
LINE
  5
22D
100
AcDbEntity
  8
LAYER_FEATURE
100
AcDbLine
 62
7
  6
CONTINUOUS
 10
5.7053672762
 20
7.0826198968
 11
5.7053672762
 21
3.9576198968
  0
LINE
  5
22E
100
AcDbEntity
  8
LAYER_FEATURE
100
AcDbLine
 62
7
  6
CONTINUOUS
 10
5.736037494
 20
7.0826198968
 11
5.736037494
 21
3.9576198968
  0
LINE
  5
22F
100
AcDbEntity
  8
LAYER_FEATURE
100
AcDbLine
 62
7
  6
CONTINUOUS
 10
5.7541172762
 20
6.9975612093
 11
5.7541172762
 21
4.0426785842
  0
LINE
  5
230
100
AcDbEntity
  8
LAYER_FEATURE
100
AcDbLine
 62
7
  6
CONTINUOUS
 10
5.736037494
 20
3.9576198968
 11
5.7541172762
 21
4.0426785842
  0
LINE
  5
231
100
AcDbEntity
  8
LAYER_FEATURE
100
AcDbLine
 62
7
  6
CONTINUOUS
 10
5.736037494
 20
7.0826198968
 11
5.7541172762
 21
6.9975612093
  0
LINE
  5
232
100
AcDbEntity
  8
LAYER_FEATURE
100
AcDbLine
 62
7
  6
CONTINUOUS
 10
6.5246970583
 20
7.0826198968
 11
6.5066172762
 21
6.9975612093
  0
LINE
  5
233
100
AcDbEntity
  8
LAYER_FEATURE
100
AcDbLine
 62
7
  6
CONTINUOUS
 10
6.5246970583
 20
3.9576198968
 11
6.5066172762
 21
4.0426785842
  0
LINE
  5
234
100
AcDbEntity
  8
LAYER_FEATURE
100
AcDbLine
 62
7
  6
CONTINUOUS
 10
6.5066172762
 20
6.9975612093
 11
6.5066172762
 21
4.0426785842
  0
LINE
  5
235
100
AcDbEntity
  8
LAYER_FEATURE
100
AcDbLine
 62
7
  6
CONTINUOUS
 10
6.5246970583
 20
7.0826198968
 11
6.5246970583
 21
3.9576198968
  0
LINE
  5
236
100
AcDbEntity
  8
LAYER_FEATURE
100
AcDbLine
 62
7
  6
CONTINUOUS
 10
6.5553672762
 20
7.0826198968
 11
6.5553672762
 21
3.9576198968
  0
LINE
  5
237
100
AcDbEntity
  8
LAYER_FEATURE
100
AcDbLine
 62
7
  6
CONTINUOUS
 10
5.7541172762
 20
6.9016586478
 11
6.5066172762
 21
6.9016586478
  0
LINE
  5
238
100
AcDbEntity
  8
0
100
AcDbLine
 62
7
  6
CONTINUOUS
 10
5.7541172762
 20
6.9020160234
 11
6.5066172762
 21
6.9020160234
  0
LINE
  5
239
100
AcDbEntity
  8
LAYER_FEATURE
100
AcDbLine
 62
7
  6
CONTINUOUS
 10
5.7541172762
 20
6.933240198
 11
6.5066172762
 21
6.933240198
  0
LINE
  5
23A
100
AcDbEntity
  8
LAYER_FEATURE
100
AcDbLine
 62
7
  6
CONTINUOUS
 10
5.7541172762
 20
6.9385199635
 11
6.5066172762
 21
6.9385199635
  0
LINE
  5
23B
100
AcDbEntity
  8
0
100
AcDbLine
 62
7
  6
CONTINUOUS
 10
5.7541172762
 20
6.9386793807
 11
6.5066172762
 21
6.9386793807
  0
LINE
  5
23C
100
AcDbEntity
  8
LAYER_FEATURE
100
AcDbLine
 62
7
  6
CONTINUOUS
 10
5.7541172762
 20
6.9597297947
 11
6.5066172762
 21
6.9597297947
  0
LINE
  5
23D
100
AcDbEntity
  8
LAYER_FEATURE
100
AcDbLine
 62
7
  6
CONTINUOUS
 10
5.7541172762
 20
6.9629163284
 11
6.5066172762
 21
6.9629163284
  0
LINE
  5
23E
100
AcDbEntity
  8
0
100
AcDbLine
 62
7
  6
CONTINUOUS
 10
5.7541172762
 20
6.9629562704
 11
6.5066172762
 21
6.9629562704
  0
LINE
  5
23F
100
AcDbEntity
  8
LAYER_FEATURE
100
AcDbLine
 62
7
  6
CONTINUOUS
 10
5.7541172762
 20
6.9735680478
 11
6.5066172762
 21
6.9735680478
  0
LINE
  5
240
100
AcDbEntity
  8
LAYER_FEATURE
100
AcDbLine
 62
7
  6
CONTINUOUS
 10
5.7541172762
 20
6.9746333463
 11
6.5066172762
 21
6.9746333463
  0
LINE
  5
241
100
AcDbEntity
  8
LAYER_FEATURE
100
AcDbLine
 62
7
  6
CONTINUOUS
 10
6.5553672762
 20
7.0826198968
 11
6.5246970583
 21
7.0826198968
  0
LINE
  5
242
100
AcDbEntity
  8
LAYER_FEATURE
100
AcDbLine
 62
7
  6
CONTINUOUS
 10
5.7053672762
 20
7.0826198968
 11
5.736037494
 21
7.0826198968
  0
LINE
  5
243
100
AcDbEntity
  8
LAYER_FEATURE
100
AcDbLine
 62
7
  6
CONTINUOUS
 10
5.6458720839
 20
11.0375477814
 11
5.6765423017
 21
11.0375477814
  0
LINE
  5
244
100
AcDbEntity
  8
LAYER_FEATURE
100
AcDbLine
 62
7
  6
CONTINUOUS
 10
6.465201866
 20
11.0375477814
 11
6.4958720839
 21
11.0375477814
  0
LINE
  5
245
100
AcDbEntity
  8
02___PRT_ALL_AXES
100
AcDbLine
 62
7
  6
CONTINUOUS
 10
5.6946220839
 20
11.1444227814
 11
6.4471220839
 21
11.1444227814
  0
LINE
  5
246
100
AcDbEntity
  8
LAYER_FEATURE
100
AcDbLine
 62
7
  6
CONTINUOUS
 10
5.6458720839
 20
11.0375477814
 11
5.6458720839
 21
14.1625477814
  0
LINE
  5
247
100
AcDbEntity
  8
LAYER_FEATURE
100
AcDbLine
 62
7
  6
CONTINUOUS
 10
5.6946220839
 20
12.1415776952
 11
6.4471220839
 21
12.1415776952
  0
LINE
  5
248
100
AcDbEntity
  8
LAYER_FEATURE
100
AcDbLine
 62
7
  6
CONTINUOUS
 10
5.6765423017
 20
11.0375477814
 11
5.6765423017
 21
14.1625477814
  0
LINE
  5
249
100
AcDbEntity
  8
LAYER_FEATURE
100
AcDbLine
 62
7
  6
CONTINUOUS
 10
5.6946220839
 20
11.1226065648
 11
5.6946220839
 21
14.0774889979
  0
LINE
  5
24A
100
AcDbEntity
  8
LAYER_FEATURE
100
AcDbLine
 62
7
  6
CONTINUOUS
 10
6.4471220839
 20
12.1976772476
 11
5.6946220839
 21
12.1976772476
  0
LINE
  5
24B
100
AcDbEntity
  8
LAYER_FEATURE
100
AcDbLine
 62
7
  6
CONTINUOUS
 10
6.4471220839
 20
12.2264978032
 11
5.6946220839
 21
12.2264978032
  0
LINE
  5
24C
100
AcDbEntity
  8
LAYER_FEATURE
100
AcDbLine
 62
7
  6
CONTINUOUS
 10
5.6946220839
 20
12.2508556353
 11
6.4471220839
 21
12.2508556353
  0
LINE
  5
24D
100
AcDbEntity
  8
LAYER_FEATURE
100
AcDbLine
 62
7
  6
CONTINUOUS
 10
5.6946220839
 20
12.2729615675
 11
6.4471220839
 21
12.2729615675
  0
LINE
  5
24E
100
AcDbEntity
  8
LAYER_FEATURE
100
AcDbLine
 62
7
  6
CONTINUOUS
 10
6.4471220839
 20
12.3247608864
 11
5.6946220839
 21
12.3247608864
  0
LINE
  5
24F
100
AcDbEntity
  8
LAYER_FEATURE
100
AcDbLine
 62
7
  6
CONTINUOUS
 10
6.4471220839
 20
12.3542347626
 11
5.6946220839
 21
12.3542347626
  0
LINE
  5
250
100
AcDbEntity
  8
LAYER_FEATURE
100
AcDbLine
 62
7
  6
CONTINUOUS
 10
5.6946220839
 20
12.3847166817
 11
6.4471220839
 21
12.3847166817
  0
LINE
  5
251
100
AcDbEntity
  8
LAYER_FEATURE
100
AcDbLine
 62
7
  6
CONTINUOUS
 10
5.6946220839
 20
12.4072198852
 11
6.4471220839
 21
12.4072198852
  0
LINE
  5
252
100
AcDbEntity
  8
LAYER_FEATURE
100
AcDbLine
 62
7
  6
CONTINUOUS
 10
6.4471220839
 20
12.4542637562
 11
5.6946220839
 21
12.4542637562
  0
LINE
  5
253
100
AcDbEntity
  8
LAYER_FEATURE
100
AcDbLine
 62
7
  6
CONTINUOUS
 10
6.4471220839
 20
12.4841319357
 11
5.6946220839
 21
12.4841319357
  0
LINE
  5
254
100
AcDbEntity
  8
LAYER_FEATURE
100
AcDbLine
 62
7
  6
CONTINUOUS
 10
5.6765423017
 20
11.0375477814
 11
5.6946220839
 21
11.1226064689
  0
LINE
  5
255
100
AcDbEntity
  8
LAYER_FEATURE
100
AcDbLine
 62
7
  6
CONTINUOUS
 10
5.6946220839
 20
12.5204700656
 11
6.4471220839
 21
12.5204700656
  0
LINE
  5
256
100
AcDbEntity
  8
LAYER_FEATURE
100
AcDbLine
 62
7
  6
CONTINUOUS
 10
5.6946220839
 20
12.5431727814
 11
6.4471220839
 21
12.5431727814
  0
LINE
  5
257
100
AcDbEntity
  8
LAYER_FEATURE
100
AcDbLine
 62
7
  6
CONTINUOUS
 10
6.4471220839
 20
12.5850477814
 11
5.6946220839
 21
12.5850477814
  0
LINE
  5
258
100
AcDbEntity
  8
LAYER_FEATURE
100
AcDbLine
 62
7
  6
CONTINUOUS
 10
5.6765423017
 20
14.1625477814
 11
5.6946220839
 21
14.0774890939
  0
LINE
  5
259
100
AcDbEntity
  8
LAYER_FEATURE
100
AcDbLine
 62
7
  6
CONTINUOUS
 10
6.4471220839
 20
14.0774890939
 11
6.465201866
 21
14.1625477814
  0
LINE
  5
25A
100
AcDbEntity
  8
LAYER_FEATURE
100
AcDbLine
 62
7
  6
CONTINUOUS
 10
6.4471220839
 20
12.6150477814
 11
5.6946220839
 21
12.6150477814
  0
LINE
  5
25B
100
AcDbEntity
  8
LAYER_FEATURE
100
AcDbLine
 62
7
  6
CONTINUOUS
 10
5.6946220839
 20
12.6569227814
 11
6.4471220839
 21
12.6569227814
  0
LINE
  5
25C
100
AcDbEntity
  8
LAYER_FEATURE
100
AcDbLine
 62
7
  6
CONTINUOUS
 10
6.4471220839
 20
11.1226064689
 11
6.465201866
 21
11.0375477814
  0
LINE
  5
25D
100
AcDbEntity
  8
LAYER_FEATURE
100
AcDbLine
 62
7
  6
CONTINUOUS
 10
6.4471220839
 20
11.1226064689
 11
6.4471220839
 21
14.0774890939
  0
LINE
  5
25E
100
AcDbEntity
  8
LAYER_FEATURE
100
AcDbLine
 62
7
  6
CONTINUOUS
 10
6.465201866
 20
11.0375477814
 11
6.465201866
 21
14.1625477814
  0
LINE
  5
25F
100
AcDbEntity
  8
LAYER_FEATURE
100
AcDbLine
 62
7
  6
CONTINUOUS
 10
6.4958720839
 20
11.0375477814
 11
6.4958720839
 21
14.1625477814
  0
LINE
  5
260
100
AcDbEntity
  8
02___PRT_ALL_AXES
100
AcDbLine
 62
7
  6
CONTINUOUS
 10
5.6946220839
 20
14.0556727814
 11
6.4471220839
 21
14.0556727814
  0
LINE
  5
261
100
AcDbEntity
  8
LAYER_FEATURE
100
AcDbLine
 62
7
  6
CONTINUOUS
 10
5.6458720839
 20
14.1625477814
 11
5.6765423017
 21
14.1625477814
  0
LINE
  5
262
100
AcDbEntity
  8
LAYER_FEATURE
100
AcDbLine
 62
7
  6
CONTINUOUS
 10
6.465201866
 20
14.1625477814
 11
6.4958720839
 21
14.1625477814
  0
LINE
  5
263
100
AcDbEntity
  8
LAYER_FEATURE
100
AcDbLine
 62
7
  6
CONTINUOUS
 10
15.0796362956
 20
10.9483049929
 11
15.107885437
 21
10.9483049929
  0
LINE
  5
264
100
AcDbEntity
  8
LAYER_FEATURE
100
AcDbLine
 62
7
  6
CONTINUOUS
 10
15.8342889992
 20
10.9483049929
 11
15.8625381405
 21
10.9483049929
  0
LINE
  5
265
100
AcDbEntity
  8
02___PRT_ALL_AXES
100
AcDbLine
 62
7
  6
CONTINUOUS
 10
15.1245380191
 20
11.0551799929
 11
15.6131391752
 21
11.0551799929
  0
LINE
  5
266
100
AcDbEntity
  8
02___PRT_ALL_AXES
100
AcDbLine
 62
7
  6
CONTINUOUS
 10
15.8094106014
 20
11.1717971327
 11
15.8008810221
 21
11.1736902714
  0
LINE
  5
267
100
AcDbEntity
  8
LAYER_FEATURE
100
AcDbLine
 62
7
  6
CONTINUOUS
 10
14.6965638044
 20
13.3738329379
 11
14.7019187616
 21
13.3911615857
  0
LINE
  5
268
100
AcDbEntity
  8
02___PRT_ALL_AXES
100
AcDbLine
 62
7
  6
CONTINUOUS
 10
15.5732855254
 20
11.4170549929
 11
15.6488519899
 21
11.4170549929
  0
LINE
  5
269
100
AcDbEntity
  8
LAYER_FEATURE
100
AcDbLine
 62
7
  6
CONTINUOUS
 10
14.6189157371
 20
13.0274861494
 11
14.6233514683
 21
13.0552395799
  0
LINE
  5
26A
100
AcDbEntity
  8
LAYER_FEATURE
100
AcDbLine
 62
7
  6
CONTINUOUS
 10
14.6399785976
 20
13.1468003153
 11
14.6454068868
 21
13.1733651586
  0
LINE
  5
26B
100
AcDbEntity
  8
LAYER_FEATURE
100
AcDbLine
 62
7
  6
CONTINUOUS
 10
14.6653556081
 20
13.2607455653
 11
14.6716729268
 21
13.2856681347
  0
LINE
  5
26C
100
AcDbEntity
  8
LAYER_FEATURE
100
AcDbLine
 62
7
  6
CONTINUOUS
 10
14.6179420467
 20
13.0852621015
 11
14.6097556962
 21
13.1057166446
  0
LINE
  5
26D
100
AcDbEntity
  8
LAYER_FEATURE
100
AcDbLine
 62
7
  6
CONTINUOUS
 10
14.6411160269
 20
13.2045565374
 11
14.6337115369
 21
13.2268897337
  0
LINE
  5
26E
100
AcDbEntity
  8
LAYER_FEATURE
100
AcDbLine
 62
7
  6
CONTINUOUS
 10
14.6685383369
 20
13.3177542597
 11
14.6619807784
 21
13.3417698444
  0
LINE
  5
26F
100
AcDbEntity
  8
LAYER_FEATURE
100
AcDbLine
 62
7
  6
CONTINUOUS
 10
14.6999679886
 20
13.4238604829
 11
14.6943149895
 21
13.4493474061
  0
LINE
  5
270
100
AcDbEntity
  8
LAYER_FEATURE
100
AcDbLine
 62
7
  6
CONTINUOUS
 10
14.5921306915
 20
13.0104512963
 11
15.2578811498
 21
13.0104512963
  0
LINE
  5
271
100
AcDbEntity
  8
0
100
AcDbLine
 62
7
  6
CONTINUOUS
 10
14.5954054596
 20
13.0160899898
 11
15.2586400889
 21
13.0160899898
  0
LINE
  5
272
100
AcDbEntity
  8
LAYER_FEATURE
100
AcDbLine
 62
7
  6
CONTINUOUS
 10
15.2601739533
 20
13.0274861494
 11
14.6189157371
 21
13.0274861494
  0
LINE
  5
273
100
AcDbEntity
  8
LAYER_FEATURE
100
AcDbLine
 62
7
  6
CONTINUOUS
 10
15.2639930281
 20
13.0552395799
 11
14.6233514683
 21
13.0552395799
  0
LINE
  5
274
100
AcDbEntity
  8
LAYER_FEATURE
100
AcDbLine
 62
7
  6
CONTINUOUS
 10
14.6089495057
 20
13.1156830538
 11
15.2733243642
 21
13.1156830538
  0
LINE
  5
275
100
AcDbEntity
  8
LAYER_FEATURE
100
AcDbLine
 62
7
  6
CONTINUOUS
 10
14.6126900579
 20
13.1362811803
 11
15.2768327261
 21
13.1362811803
  0
LINE
  5
276
100
AcDbEntity
  8
0
100
AcDbLine
 62
7
  6
CONTINUOUS
 10
14.6158245785
 20
13.1411475721
 11
15.277661591
 21
13.1411475721
  0
LINE
  5
277
100
AcDbEntity
  8
LAYER_FEATURE
100
AcDbLine
 62
7
  6
CONTINUOUS
 10
15.2786243907
 20
13.1468003153
 11
14.6399785976
 21
13.1468003153
  0
LINE
  5
278
100
AcDbEntity
  8
LAYER_FEATURE
100
AcDbLine
 62
7
  6
CONTINUOUS
 10
15.2833008992
 20
13.1733651586
 11
14.6454068868
 21
13.1733651586
  0
LINE
  5
279
100
AcDbEntity
  8
LAYER_FEATURE
100
AcDbLine
 62
7
  6
CONTINUOUS
 10
14.633272321
 20
13.237006211
 11
15.2956452181
 21
13.237006211
  0
LINE
  5
27A
100
AcDbEntity
  8
LAYER_FEATURE
100
AcDbLine
 62
7
  6
CONTINUOUS
 10
14.6377475625
 20
13.256614357
 11
15.2997361606
 21
13.256614357
  0
LINE
  5
27B
100
AcDbEntity
  8
0
100
AcDbLine
 62
7
  6
CONTINUOUS
 10
14.6407142895
 20
13.2607455653
 11
15.3005980746
 21
13.2607455653
  0
LINE
  5
27C
100
AcDbEntity
  8
LAYER_FEATURE
100
AcDbLine
 62
7
  6
CONTINUOUS
 10
15.3059960583
 20
13.2856681347
 11
14.6716729268
 21
13.2856681347
  0
LINE
  5
27D
100
AcDbEntity
  8
LAYER_FEATURE
100
AcDbLine
 62
7
  6
CONTINUOUS
 10
14.661912397
 20
13.3519474858
 11
15.3216541628
 21
13.3519474858
  0
LINE
  5
27E
100
AcDbEntity
  8
LAYER_FEATURE
100
AcDbLine
 62
7
  6
CONTINUOUS
 10
14.6670829993
 20
13.3703933342
 11
15.3262723231
 21
13.3703933342
  0
LINE
  5
27F
100
AcDbEntity
  8
0
100
AcDbLine
 62
7
  6
CONTINUOUS
 10
14.6698558607
 20
13.3738329379
 11
15.327133473
 21
13.3738329379
  0
LINE
  5
280
100
AcDbEntity
  8
LAYER_FEATURE
100
AcDbLine
 62
7
  6
CONTINUOUS
 10
15.3316832728
 20
13.3911615857
 11
14.7019187616
 21
13.3911615857
  0
LINE
  5
281
100
AcDbEntity
  8
02___PRT_ALL_AXES
100
AcDbLine
 62
7
  6
CONTINUOUS
 10
15.8289307463
 20
11.5196201056
 11
15.8408443229
 21
11.533893168
  0
LINE
  5
282
100
AcDbEntity
  8
LAYER_FEATURE
100
AcDbLine
 62
7
  6
CONTINUOUS
 10
14.6946180435
 20
13.4594967701
 11
15.3509657205
 21
13.4594967701
  0
LINE
  5
283
100
AcDbEntity
  8
02___PRT_ALL_AXES
100
AcDbLine
 62
7
  6
CONTINUOUS
 10
15.8281577875
 20
13.5022643966
 11
15.8286309031
 21
13.5017449378
  0
LINE
  5
284
100
AcDbEntity
  8
02___PRT_ALL_AXES
100
AcDbLine
 62
7
  6
CONTINUOUS
 10
15.8281577875
 20
13.5022643966
 11
15.8286276745
 21
13.5017255798
  0
LINE
  5
285
100
AcDbEntity
  8
02___PRT_ALL_AXES
100
AcDbLine
 62
7
  6
CONTINUOUS
 10
15.8289307463
 20
13.5019898802
 11
15.8408443229
 21
13.4877168178
  0
LINE
  5
286
100
AcDbEntity
  8
02___PRT_ALL_AXES
100
AcDbLine
 62
7
  6
CONTINUOUS
 10
15.5732871867
 20
13.6045549929
 11
15.6488519899
 21
13.6045549929
  0
LINE
  5
287
100
AcDbEntity
  8
02___PRT_ALL_AXES
100
AcDbLine
 62
7
  6
CONTINUOUS
 10
15.8094106014
 20
13.8498128531
 11
15.8008810221
 21
13.8479197144
  0
LINE
  5
288
100
AcDbEntity
  8
02___PRT_ALL_AXES
100
AcDbLine
 62
7
  6
CONTINUOUS
 10
15.1245380191
 20
13.9664299929
 11
15.6133919541
 21
13.9664299929
  0
LINE
  5
289
100
AcDbEntity
  8
LAYER_FEATURE
100
AcDbLine
 62
7
  6
CONTINUOUS
 10
15.0796362956
 20
14.0733049929
 11
15.107885437
 21
14.0733049929
  0
LINE
  5
28A
100
AcDbEntity
  8
LAYER_FEATURE
100
AcDbLine
 62
7
  6
CONTINUOUS
 10
15.8342889992
 20
14.0733049929
 11
15.8625381405
 21
14.0733049929
  0
CIRCLE
  5
28B
100
AcDbEntity
  8
LAYER_FEATURE
100
AcDbCircle
 62
7
  6
CONTINUOUS
 10
15.5603552569
 20
5.4606247044
 40
1.5625
  0
CIRCLE
  5
28C
100
AcDbEntity
  8
LAYER_FEATURE
100
AcDbCircle
 62
7
  6
CONTINUOUS
 10
15.5603552569
 20
5.4606247044
 40
1.4774413125
  0
CIRCLE
  5
28D
100
AcDbEntity
  8
02___PRT_ALL_AXES
100
AcDbCircle
 62
7
  6
CONTINUOUS
 10
15.5603552569
 20
5.4606247044
 40
1.344
  0
CIRCLE
  5
28E
100
AcDbEntity
  8
02___PRT_ALL_AXES
100
AcDbCircle
 62
7
  6
CONTINUOUS
 10
15.5603552569
 20
5.4606247044
 40
1.31075
  0
CIRCLE
  5
28F
100
AcDbEntity
  8
02___PRT_ALL_AXES
100
AcDbCircle
 62
7
  6
CONTINUOUS
 10
15.5603552569
 20
5.4606247044
 40
1.295
  0
CIRCLE
  5
290
100
AcDbEntity
  8
02___PRT_ALL_AXES
100
AcDbCircle
 62
7
  6
CONTINUOUS
 10
15.5603552569
 20
5.4606247044
 40
1.09375
  0
CIRCLE
  5
291
100
AcDbEntity
  8
02___PRT_ALL_AXES
100
AcDbCircle
 62
7
  6
CONTINUOUS
 10
15.5603552569
 20
5.4606247044
 40
1.078
  0
ARC
  5
292
100
AcDbEntity
  8
02___PRT_ALL_AXES
100
AcDbCircle
 62
7
  6
CONTINUOUS
 10
15.5603552569
 20
5.4606247044
 40
0.625
100
AcDbArc
 50
231.4843384185
 51
259.5156615815
  0
ARC
  5
293
100
AcDbEntity
  8
02___PRT_ALL_AXES
100
AcDbCircle
 62
7
  6
CONTINUOUS
 10
15.5603552569
 20
5.4606247044
 40
0.625
100
AcDbArc
 50
150.4843384185
 51
220.5156615815
  0
ARC
  5
294
100
AcDbEntity
  8
LAYER_CUT_FEAT
100
AcDbCircle
 62
7
  6
CONTINUOUS
 10
15.5603552569
 20
5.4606247044
 40
0.625
100
AcDbArc
 50
270.4843384185
 51
11.5156615815
  0
ARC
  5
295
100
AcDbEntity
  8
02___PRT_ALL_AXES
100
AcDbCircle
 62
7
  6
CONTINUOUS
 10
15.5603552569
 20
5.4606247044
 40
0.625
100
AcDbArc
 50
61.4843384185
 51
139.5156615815
  0
ARC
  5
296
100
AcDbEntity
  8
02___PRT_ALL_AXES
100
AcDbCircle
 62
7
  6
CONTINUOUS
 10
15.5603552569
 20
5.4606247044
 40
0.625
100
AcDbArc
 50
22.4843384185
 51
50.5156615815
  0
ARC
  5
297
100
AcDbEntity
  8
02___PRT_ALL_AXES
100
AcDbCircle
 62
7
  6
CONTINUOUS
 10
15.5603552569
 20
5.4606247044
 40
0.6031478713
100
AcDbArc
 50
50.0634202313
 51
61.9365797687
  0
ARC
  5
298
100
AcDbEntity
  8
02___PRT_ALL_AXES
100
AcDbCircle
 62
7
  6
CONTINUOUS
 10
15.5603552569
 20
5.4606247044
 40
0.6031478713
100
AcDbArc
 50
220.0634202313
 51
231.9365797687
  0
ARC
  5
299
100
AcDbEntity
  8
LAYER_CUT_FEAT
100
AcDbCircle
 62
7
  6
CONTINUOUS
 10
15.5603552569
 20
5.4606247044
 40
0.5812957425
100
AcDbArc
 50
22.6434126524
 51
139.3565873476
  0
ARC
  5
29A
100
AcDbEntity
  8
02___PRT_ALL_AXES
100
AcDbCircle
 62
7
  6
CONTINUOUS
 10
15.5603552569
 20
5.4606247044
 40
0.5812957425
100
AcDbArc
 50
150.6434126524
 51
259.3565873476
  0
ARC
  5
29B
100
AcDbEntity
  8
LAYER_CUT_FEAT
100
AcDbCircle
 62
7
  6
CONTINUOUS
 10
15.5603552569
 20
5.4606247044
 40
0.5812957425
100
AcDbArc
 50
270.6434126524
 51
11.3565873476
  0
ARC
  5
29C
100
AcDbEntity
  8
02___PRT_ALL_AXES
100
AcDbCircle
 62
7
  6
CONTINUOUS
 10
15.8979679724
 20
5.9611561389
 40
0.0625
100
AcDbArc
 50
322.4804512298
 51
149.5195487702
  0
ARC
  5
29D
100
AcDbEntity
  8
02___PRT_ALL_AXES
100
AcDbCircle
 62
7
  6
CONTINUOUS
 10
15.1409552658
 20
5.0263233
 40
0.0625
100
AcDbArc
 50
132.4804512297
 51
319.5195487703
  0
ARC
  5
29E
100
AcDbEntity
  8
LAYER_CUT_FEAT
100
AcDbCircle
 62
7
  6
CONTINUOUS
 10
16.1377242533
 20
5.6371441212
 40
0.0625
100
AcDbArc
 50
263.1497787953
 51
130.8502212047
  0
ARC
  5
29F
100
AcDbEntity
  8
02___PRT_ALL_AXES
100
AcDbCircle
 62
7
  6
CONTINUOUS
 10
15.5077349773
 20
4.8591721555
 40
0.0625
100
AcDbArc
 50
151.1497787952
 51
18.8502212048
  0
ARC
  5
2A0
100
AcDbEntity
  8
02___PRT_ALL_AXES
100
AcDbCircle
 62
7
  6
CONTINUOUS
 10
15.0657922102
 20
5.8069214779
 40
0.0625
100
AcDbArc
 50
31.1497787952
 51
258.8502212048
  0
ARC
  5
2A1
100
AcDbEntity
  8
02___PRT_ALL_AXES
100
AcDbCircle
 62
7
  6
CONTINUOUS
 10
12.6471648626
 20
-25.7913770492
 40
37.8182327849
100
AcDbArc
 50
85.341979822
 51
85.5310330114
  0
ARC
  5
2A2
100
AcDbEntity
  8
LAYER_CUT_FEAT
100
AcDbCircle
 62
7
  6
CONTINUOUS
 10
17.8087220277
 20
-19.7796311497
 40
32.9569831195
100
AcDbArc
 50
93.6158469628
 51
93.8972672151
  0
ARC
  5
2A3
100
AcDbEntity
  8
LAYER_CUT_FEAT
100
AcDbCircle
 62
7
  6
CONTINUOUS
 10
14.0657710237
 20
34.0011351281
 40
21.0025929854
100
AcDbArc
 50
274.0273143141
 51
274.664010946
  0
ARC
  5
2A4
100
AcDbEntity
  8
LAYER_FEATURE
100
AcDbCircle
 62
7
  6
CONTINUOUS
 10
17.4808159507
 20
12.6048002249
 40
2.9169535723
100
AcDbArc
 50
169.5018301088
 51
169.913043426
  0
ARC
  5
2A5
100
AcDbEntity
  8
LAYER_FEATURE
100
AcDbCircle
 62
7
  6
CONTINUOUS
 10
17.1561879639
 20
12.6715063762
 40
2.5855160808
100
AcDbArc
 50
166.9205358973
 51
167.3662327818
  0
ARC
  5
2A6
100
AcDbEntity
  8
LAYER_FEATURE
100
AcDbCircle
 62
7
  6
CONTINUOUS
 10
16.8150063215
 20
12.7583559132
 40
2.2334198895
100
AcDbArc
 50
164.0954265494
 51
164.5868743718
  0
ARC
  5
2A7
100
AcDbEntity
  8
02___PRT_ALL_AXES
100
AcDbCircle
 62
7
  6
CONTINUOUS
 10
16.029044651
 20
13.3490437547
 40
0.5237111263
100
AcDbArc
 50
138.1503106866
 51
139.229980934
  0
ARC
  5
2A8
100
AcDbEntity
  8
02___PRT_ALL_AXES
100
AcDbCircle
 62
7
  6
CONTINUOUS
 10
16.0273879528
 20
11.6711051891
 40
0.5215022737
100
AcDbArc
 50
220.9348614984
 51
221.8575011149
  0
ARC
  5
2A9
100
AcDbEntity
  8
02___PRT_ALL_AXES
100
AcDbCircle
 62
7
  6
CONTINUOUS
 10
15.5064006018
 20
13.2088680708
 40
0.4354414154
100
AcDbArc
 50
39.8202934771
 51
42.2678696231
  0
ARC
  5
2AA
100
AcDbEntity
  8
02___PRT_ALL_AXES
100
AcDbCircle
 62
7
  6
CONTINUOUS
 10
15.5064402476
 20
11.8127076165
 40
0.4353890005
100
AcDbArc
 50
317.727139418
 51
320.179832218
  0
ARC
  5
2AB
100
AcDbEntity
  8
02___PRT_ALL_AXES
100
AcDbCircle
 62
7
  6
CONTINUOUS
 10
15.6633598572
 20
11.9807413841
 40
0.0949363606
100
AcDbArc
 50
265.6524473273
 51
275.3430997909
  0
SPLINE
  5
2AC
100
AcDbEntity
  8
02___PRT_ALL_AXES
100
AcDbSpline
 62
7
  6
CONTINUOUS
 70
0
 71
3
 72
24
 73
20
 74
0
 42
0.0000001
 43
0.0000001
 44
0.0000000001
 40
0.0
 40
0.0
 40
0.0
 40
0.0
 40
0.0167012561
 40
0.0336272056
 40
0.0509916209
 40
0.068988744
 40
0.1074847742
 40
0.1501896076
 40
0.1977129569
 40
0.2503376692
 40
0.3081005099
 40
0.3708540753
 40
0.438310787
 40
0.5100740772
 40
0.5856612454
 40
0.6645211418
 40
0.7460485579
 40
0.8295974991
 40
1.0
 40
1.0
 40
1.0
 40
1.0
 10
15.5924003263
 20
13.1489014395
 30
0.0
 10
15.5919994321
 20
13.1489014366
 30
0.0
 10
15.5911913347
 20
13.1488499262
 30
0.0
 10
15.5899863344
 20
13.1486189261
 30
0.0
 10
15.5887882548
 20
13.1482351215
 30
0.0
 10
15.5871688806
 20
13.1475055777
 30
0.0
 10
15.585167881
 20
13.1461852613
 30
0.0
 10
15.5829078817
 20
13.1440617569
 30
0.0
 10
15.580747593
 20
13.1413874954
 30
0.0
 10
15.5787039116
 20
13.1381877243
 30
0.0
 10
15.5767934119
 20
13.1344914078
 30
0.0
 10
15.5750334073
 20
13.1303326759
 30
0.0
 10
15.573440379
 20
13.1257505191
 30
0.0
 10
15.5720296259
 20
13.1207884447
 30
0.0
 10
15.5708148321
 20
13.1154939265
 30
0.0
 10
15.5698078779
 20
13.1099179443
 30
0.0
 10
15.5690185377
 20
13.1041141055
 30
0.0
 10
15.5682620543
 20
13.0960954162
 30
0.0
 10
15.5680497927
 20
13.0899951842
 30
0.0
 10
15.5680624481
 20
13.0859048902
 30
0.0
  0
SPLINE
  5
2AD
100
AcDbEntity
  8
LAYER_CUT_FEAT
100
AcDbSpline
 62
7
  6
CONTINUOUS
 70
0
 71
3
 72
18
 73
14
 74
0
 42
0.0000001
 43
0.0000001
 44
0.0000000001
 40
0.0
 40
0.0
 40
0.0
 40
0.0
 40
0.0426789255
 40
0.0860984039
 40
0.1309532883
 40
0.1778576655
 40
0.2273258085
 40
0.2797665806
 40
0.3946247192
 40
0.5240274763
 40
0.6683844526
 40
0.8273414272
 40
1.0
 40
1.0
 40
1.0
 40
1.0
 10
15.7492744784
 20
13.1352998857
 30
0.0
 10
15.7488181693
 20
13.1352998831
 30
0.0
 10
15.7478962967
 20
13.1352328901
 30
0.0
 10
15.7465242831
 20
13.1349329227
 30
0.0
 10
15.7451629831
 20
13.1344351869
 30
0.0
 10
15.7438173528
 20
13.1337424229
 30
0.0
 10
15.7424912346
 20
13.1328577664
 30
0.0
 10
15.7406999723
 20
13.1313819902
 30
0.0
 10
15.7385399939
 20
13.1290381747
 30
0.0
 10
15.7361667676
 20
13.1256161573
 30
0.0
 10
15.7339590154
 20
13.1215416067
 30
0.0
 10
15.7319423458
 20
13.1168634729
 30
0.0
 10
15.7307857146
 20
13.1135083818
 30
0.0
 10
15.730238704
 20
13.1117452796
 30
0.0
  0
SPLINE
  5
2AE
100
AcDbEntity
  8
02___PRT_ALL_AXES
100
AcDbSpline
 62
7
  6
CONTINUOUS
 70
0
 71
3
 72
33
 73
29
 74
0
 42
0.0000001
 43
0.0000001
 44
0.0000000001
 40
0.0
 40
0.0
 40
0.0
 40
0.0
 40
0.0264982366
 40
0.0548840202
 40
0.0850824987
 40
0.1169907315
 40
0.1504808726
 40
0.1854053707
 40
0.2588743619
 40
0.3359467931
 40
0.4150132917
 40
0.4943891004
 40
0.5723779875
 40
0.6473355941
 40
0.6832006006
 40
0.7177492338
 40
0.7508214468
 40
0.7822747069
 40
0.8119875492
 40
0.8398639506
 40
0.865838911
 40
0.8898857646
 40
0.9120258975
 40
0.9323414834
 40
0.9509914339
 40
0.9682283159
 40
0.9844111834
 40
1.0
 40
1.0
 40
1.0
 40
1.0
 10
15.4245105284
 20
12.3906729112
 30
0.0
 10
15.4239536951
 20
12.3897201018
 30
0.0
 10
15.4228764781
 20
12.3877015358
 30
0.0
 10
15.4214124367
 20
12.3844724748
 30
0.0
 10
15.4200523939
 20
12.3809556599
 30
0.0
 10
15.4188049553
 20
12.377173174
 30
0.0
 10
15.4176778546
 20
12.373148453
 30
0.0
 10
15.41632239
 20
12.3673954547
 30
0.0
 10
15.4149918761
 20
12.3597790664
 30
0.0
 10
15.4139878135
 20
12.3502628111
 30
0.0
 10
15.4135766491
 20
12.3404564303
 30
0.0
 10
15.4137688644
 20
12.3306052258
 30
0.0
 10
15.4145596261
 20
12.3209556332
 30
0.0
 10
15.4157165463
 20
12.3131705393
 30
0.0
 10
15.4169381146
 20
12.3072393757
 30
0.0
 10
15.4179731653
 20
12.3030542978
 30
0.0
 10
15.4191338133
 20
12.2990932842
 30
0.0
 10
15.4204128013
 20
12.2953810462
 30
0.0
 10
15.4218020989
 20
12.2919406905
 30
0.0
 10
15.4232930917
 20
12.288793493
 30
0.0
 10
15.4248766874
 20
12.2859587659
 30
0.0
 10
15.4265435056
 20
12.2834537432
 30
0.0
 10
15.4282841128
 20
12.2812935712
 30
0.0
 10
15.4300893523
 20
12.2794914762
 30
0.0
 10
15.4319503739
 20
12.2780593387
 30
0.0
 10
15.4338587735
 20
12.2770085719
 30
0.0
 10
15.4358031351
 20
12.2763510219
 30
0.0
 10
15.4371261682
 20
12.2761806494
 30
0.0
 10
15.4377752123
 20
12.2761648015
 30
0.0
  0
SPLINE
  5
2AF
100
AcDbEntity
  8
02___PRT_ALL_AXES
100
AcDbSpline
 62
7
  6
CONTINUOUS
 70
0
 71
3
 72
21
 73
17
 74
0
 42
0.0000001
 43
0.0000001
 44
0.0000000001
 40
0.0
 40
0.0
 40
0.0
 40
0.0
 40
0.1761190257
 40
0.3397623183
 40
0.4161971425
 40
0.4887143701
 40
0.5571348165
 40
0.6213365072
 40
0.6812664092
 40
0.7369558287
 40
0.7885402246
 40
0.8362836413
 40
0.8806063002
 40
0.9221097157
 40
0.9615869022
 40
1.0
 40
1.0
 40
1.0
 40
1.0
 10
15.6722002911
 20
11.8862175284
 30
0.0
 10
15.6726686682
 20
11.8835997945
 30
0.0
 10
15.6737310172
 20
11.8785762923
 30
0.0
 10
15.6754778698
 20
11.872531994
 30
0.0
 10
15.6770866433
 20
11.8680929723
 30
0.0
 10
15.6783527509
 20
11.8650632436
 30
0.0
 10
15.6796993978
 20
11.8622719457
 30
0.0
 10
15.6811200258
 20
11.859732901
 30
0.0
 10
15.6826077649
 20
11.8574586034
 30
0.0
 10
15.6841556753
 20
11.8554601928
 30
0.0
 10
15.6857568502
 20
11.853747517
 30
0.0
 10
15.6874045734
 20
11.8523293307
 30
0.0
 10
15.6890921557
 20
11.8512136824
 30
0.0
 10
15.6908128356
 20
11.8504083706
 30
0.0
 10
15.6925573916
 20
11.8499209813
 30
0.0
 10
15.6937361799
 20
11.8498116178
 30
0.0
 10
15.6943161978
 20
11.8498116199
 30
0.0
  0
SPLINE
  5
2B0
100
AcDbEntity
  8
02___PRT_ALL_AXES
100
AcDbSpline
 62
7
  6
CONTINUOUS
 70
0
 71
3
 72
14
 73
10
 74
0
 42
0.0000001
 43
0.0000001
 44
0.0000000001
 40
0.0
 40
0.0
 40
0.0
 40
0.0
 40
0.2923362662
 40
0.42550925
 40
0.5509150329
 40
0.6696032459
 40
0.782905771
 40
0.8924290403
 40
1.0
 40
1.0
 40
1.0
 40
1.0
 10
15.823296872
 20
12.0396978396
 30
0.0
 10
15.8240816936
 20
12.0387007837
 30
0.0
 10
15.8253226762
 20
12.0373185149
 30
0.0
 10
15.8271520961
 20
12.0357738306
 30
0.0
 10
15.8285067765
 20
12.0348480588
 30
0.0
 10
15.8298823087
 20
12.0341228554
 30
0.0
 10
15.8312747108
 20
12.0336016234
 30
0.0
 10
15.8326786757
 20
12.0332874322
 30
0.0
 10
15.8336224002
 20
12.0332172173
 30
0.0
 10
15.8340893112
 20
12.0332172198
 30
0.0
  0
SPLINE
  5
2B1
100
AcDbEntity
  8
02___PRT_ALL_AXES
100
AcDbSpline
 62
7
  6
CONTINUOUS
 70
0
 71
3
 72
43
 73
39
 74
0
 42
0.0000001
 43
0.0000001
 44
0.0000000001
 40
0.0
 40
0.0
 40
0.0
 40
0.0
 40
0.0297972884
 40
0.0605448614
 40
0.0921720268
 40
0.124603067
 40
0.1577579025
 40
0.1915526702
 40
0.2259002655
 40
0.260710854
 40
0.2958923624
 40
0.3313509524
 40
0.3669914833
 40
0.4027179663
 40
0.4384340137
 40
0.4740432861
 40
0.5094499397
 40
0.544559077
 40
0.5792772024
 40
0.6135126866
 40
0.6471762438
 40
0.6801814261
 40
0.7124451422
 40
0.7438882073
 40
0.7744359352
 40
0.8040187857
 40
0.8325730862
 40
0.8600418512
 40
0.8863757295
 40
0.9115341219
 40
0.9236634013
 40
0.9354883088
 40
0.9470068812
 40
0.9582180087
 40
0.9691215073
 40
0.9797181979
 40
0.9900099944
 40
1.0
 40
1.0
 40
1.0
 40
1.0
 10
15.4546452302
 20
13.3255802588
 30
0.0
 10
15.4485783281
 20
13.3059477564
 30
0.0
 10
15.4369119493
 20
13.2658497493
 30
0.0
 10
15.4210236225
 20
13.2042956728
 30
0.0
 10
15.4065089814
 20
13.1405391844
 30
0.0
 10
15.3934145159
 20
13.0747832488
 30
0.0
 10
15.3817818905
 20
13.0072361738
 30
0.0
 10
15.3716482175
 20
12.938112368
 30
0.0
 10
15.3630458136
 20
12.8676312367
 30
0.0
 10
15.3560021235
 20
12.7960165829
 30
0.0
 10
15.3505396193
 20
12.7234958512
 30
0.0
 10
15.3466757308
 20
12.6502994022
 30
0.0
 10
15.3444227873
 20
12.5766597676
 30
0.0
 10
15.3437879784
 20
12.5028109032
 30
0.0
 10
15.3447733301
 20
12.4289874372
 30
0.0
 10
15.3473756988
 20
12.3554239162
 30
0.0
 10
15.3515867798
 20
12.2823540518
 30
0.0
 10
15.3573931351
 20
12.2100099691
 30
0.0
 10
15.3647762378
 20
12.1386214597
 30
0.0
 10
15.3737125323
 20
12.0684152418
 30
0.0
 10
15.3841735116
 20
11.9996142278
 30
0.0
 10
15.3961258124
 20
11.9324368021
 30
0.0
 10
15.4095313268
 20
11.8670961111
 30
0.0
 10
15.4243473327
 20
11.8037993633
 30
0.0
 10
15.4405266426
 20
11.7427471572
 30
0.0
 10
15.4580177856
 20
11.6841327811
 30
0.0
 10
15.47676517
 20
11.6281416915
 30
0.0
 10
15.4967094299
 20
11.5749504415
 30
0.0
 10
15.517787266
 20
11.5247276456
 30
0.0
 10
15.5364626864
 20
11.4850090349
 30
0.0
 10
15.5519454999
 20
11.4548834084
 30
0.0
 10
15.5636568473
 20
11.4334035915
 30
0.0
 10
15.5755993957
 20
11.4127798417
 30
0.0
 10
15.5877638467
 20
11.3930284025
 30
0.0
 10
15.6001405766
 20
11.3741649434
 30
0.0
 10
15.6127199384
 20
11.3562042998
 30
0.0
 10
15.6254918311
 20
11.3391609749
 30
0.0
 10
15.634257872
 20
11.3282579381
 30
0.0
 10
15.6386724754
 20
11.3229690249
 30
0.0
  0
SPLINE
  5
2B2
100
AcDbEntity
  8
02___PRT_ALL_AXES
100
AcDbSpline
 62
7
  6
CONTINUOUS
 70
0
 71
3
 72
19
 73
15
 74
0
 42
0.0000001
 43
0.0000001
 44
0.0000000001
 40
0.0
 40
0.0
 40
0.0
 40
0.0
 40
0.1460511211
 40
0.2864954213
 40
0.4210611104
 40
0.5495233914
 40
0.6114146981
 40
0.671721351
 40
0.7304320709
 40
0.787540213
 40
0.8430441678
 40
0.8969478051
 40
0.9492609652
 40
1.0
 40
1.0
 40
1.0
 40
1.0
 10
15.4546452302
 20
13.3255802588
 30
0.0
 10
15.4606609378
 20
13.3450470959
 30
0.0
 10
15.473090448
 20
13.383043225
 30
0.0
 10
15.4933597691
 20
13.4381905707
 30
0.0
 10
15.5148358986
 20
13.4902360127
 30
0.0
 10
15.5339087525
 20
13.5313752551
 30
0.0
 10
15.5497443806
 20
13.5625563875
 30
0.0
 10
15.5617294106
 20
13.5847703124
 30
0.0
 10
15.5739599198
 20
13.6060841562
 30
0.0
 10
15.5864258647
 20
13.6264802112
 30
0.0
 10
15.5991168456
 20
13.6459414146
 30
0.0
 10
15.6120224336
 20
13.6644516259
 30
0.0
 10
15.6251317034
 20
13.6819950841
 30
0.0
 10
15.6341366143
 20
13.6932067748
 30
0.0
 10
15.6386724754
 20
13.6986409608
 30
0.0
  0
SPLINE
  5
2B3
100
AcDbEntity
  8
02___PRT_ALL_AXES
100
AcDbSpline
 62
7
  6
CONTINUOUS
 70
0
 71
3
 72
37
 73
33
 74
0
 42
0.0000001
 43
0.0000001
 44
0.0000000001
 40
0.0
 40
0.0
 40
0.0
 40
0.0
 40
0.0902968835
 40
0.1768888206
 40
0.2187381705
 40
0.2595938988
 40
0.2994382527
 40
0.3382560252
 40
0.3760348484
 40
0.4127654301
 40
0.4484418184
 40
0.4830616943
 40
0.516626713
 40
0.5491429094
 40
0.5806211064
 40
0.6110773647
 40
0.6405334888
 40
0.6690175906
 40
0.6965646463
 40
0.7232170531
 40
0.7490251785
 40
0.7740478624
 40
0.7983527761
 40
0.8220165832
 40
0.8451248519
 40
0.8677716348
 40
0.890058631
 40
0.9120939108
 40
0.9339902379
 40
0.9558630582
 40
0.9778282764
 40
1.0
 40
1.0
 40
1.0
 40
1.0
 10
16.2644551256
 20
11.6753611956
 30
0.0
 10
16.2579003794
 20
11.654150029
 30
0.0
 10
16.2443326292
 20
11.6128179822
 30
0.0
 10
16.2255971789
 20
11.5623901616
 30
0.0
 10
16.209860562
 20
11.5238521551
 30
0.0
 10
16.1978549108
 20
11.4962137932
 30
0.0
 10
16.1855235561
 20
11.4695380613
 30
0.0
 10
16.1728780396
 20
11.443850126
 30
0.0
 10
16.1599303216
 20
11.4191742981
 30
0.0
 10
16.1466926069
 20
11.3955338834
 30
0.0
 10
16.1331773591
 20
11.3729512024
 30
0.0
 10
16.1193972674
 20
11.3514475723
 30
0.0
 10
16.1053652267
 20
11.3310432941
 30
0.0
 10
16.0910943442
 20
11.311757616
 30
0.0
 10
16.0765979042
 20
11.2936087342
 30
0.0
 10
16.0618893429
 20
11.2766137991
 30
0.0
 10
16.0469822262
 20
11.2607889199
 30
0.0
 10
16.0318902594
 20
11.2461491436
 30
0.0
 10
16.0166272662
 20
11.232708474
 30
0.0
 10
16.0012071792
 20
11.2204799077
 30
0.0
 10
15.9856440504
 20
11.2094754598
 30
0.0
 10
15.9699520986
 20
11.1997061533
 30
0.0
 10
15.9541457501
 20
11.1911820292
 30
0.0
 10
15.9382396897
 20
11.1839121639
 30
0.0
 10
15.9222489375
 20
11.1779046333
 30
0.0
 10
15.9061889269
 20
11.173166401
 30
0.0
 10
15.8900755524
 20
11.1697031866
 30
0.0
 10
15.8739251133
 20
11.1675193609
 30
0.0
 10
15.8577543848
 20
11.1666177653
 30
0.0
 10
15.8415799691
 20
11.1669996668
 30
0.0
 10
15.8254200154
 20
11.1686642909
 30
0.0
 10
15.8147323518
 20
11.170615967
 30
0.0
 10
15.8094106015
 20
11.1717971359
 30
0.0
  0
SPLINE
  5
2B4
100
AcDbEntity
  8
02___PRT_ALL_AXES
100
AcDbSpline
 62
7
  6
CONTINUOUS
 70
0
 71
3
 72
33
 73
29
 74
0
 42
0.0000001
 43
0.0000001
 44
0.0000000001
 40
0.0
 40
0.0
 40
0.0
 40
0.0
 40
0.0187276723
 40
0.0376987832
 40
0.0570394722
 40
0.0768670898
 40
0.0972881792
 40
0.1183973257
 40
0.1402768019
 40
0.1629966927
 40
0.1866154611
 40
0.2111807375
 40
0.2367302095
 40
0.2632925165
 40
0.2908881442
 40
0.319530271
 40
0.3492255195
 40
0.3799746117
 40
0.4117729516
 40
0.4446111752
 40
0.4784756102
 40
0.5133486708
 40
0.5860273691
 40
0.6624467716
 40
0.7423563175
 40
0.8254685068
 40
0.9114645198
 40
1.0
 40
1.0
 40
1.0
 40
1.0
 10
15.6561630815
 20
11.886078197
 30
0.0
 10
15.6532214727
 20
11.8863016233
 30
0.0
 10
15.6473174716
 20
11.8870269577
 30
0.0
 10
15.6385244626
 20
11.8889297882
 30
0.0
 10
15.6297668943
 20
11.8916486271
 30
0.0
 10
15.6210577988
 20
11.8951785378
 30
0.0
 10
15.6124083873
 20
11.899513656
 30
0.0
 10
15.6038298037
 20
11.9046472264
 30
0.0
 10
15.5953327748
 20
11.910571691
 30
0.0
 10
15.5869278218
 20
11.9172786894
 30
0.0
 10
15.5786253137
 20
11.9247590702
 30
0.0
 10
15.5704355208
 20
11.9330028605
 30
0.0
 10
15.5623686351
 20
11.941999232
 30
0.0
 10
15.5544347543
 20
11.9517364545
 30
0.0
 10
15.5466438747
 20
11.9622018868
 30
0.0
 10
15.5390058811
 20
11.973381979
 30
0.0
 10
15.5315305223
 20
11.9852622705
 30
0.0
 10
15.5242273865
 20
11.9978273868
 30
0.0
 10
15.5171058596
 20
12.0110610524
 30
0.0
 10
15.5101751617
 20
12.0249460998
 30
0.0
 10
15.5034441694
 20
12.039464576
 30
0.0
 10
15.4946262186
 20
12.0599241367
 30
0.0
 10
15.4841959295
 20
12.0869758195
 30
0.0
 10
15.4727758023
 20
12.1212066004
 30
0.0
 10
15.4623443488
 20
12.1574640881
 30
0.0
 10
15.4529560413
 20
12.1955599328
 30
0.0
 10
15.4446600056
 20
12.2352963421
 30
0.0
 10
15.4399482082
 20
12.2623885518
 30
0.0
 10
15.4377752123
 20
12.2761648015
 30
0.0
  0
SPLINE
  5
2B5
100
AcDbEntity
  8
LAYER_FEATURE
100
AcDbSpline
 62
7
  6
CONTINUOUS
 70
0
 71
3
 72
19
 73
15
 74
0
 42
0.0000001
 43
0.0000001
 44
0.0000000001
 40
0.0
 40
0.0
 40
0.0
 40
0.0
 40
0.0561379495
 40
0.1124447494
 40
0.1690873644
 40
0.2262291296
 40
0.2840280512
 40
0.3426354628
 40
0.4021948244
 40
0.4628408131
 40
0.5878482336
 40
0.7185833321
 40
0.855774317
 40
1.0
 40
1.0
 40
1.0
 40
1.0
 10
15.107885437
 20
14.0733049841
 30
0.0
 10
15.112596329
 20
14.0733049795
 30
0.0
 10
15.1220346915
 20
14.0730232208
 30
0.0
 10
15.1361751312
 20
14.0717560862
 30
0.0
 10
15.150299979
 20
14.0696451989
 30
0.0
 10
15.1644005706
 20
14.0666918302
 30
0.0
 10
15.1784692235
 20
14.0628979383
 30
0.0
 10
15.1924980069
 20
14.0582659187
 30
0.0
 10
15.2064795342
 20
14.0527984339
 30
0.0
 10
15.2252352348
 20
14.0443147375
 30
0.0
 10
15.2485661935
 20
14.0315480452
 30
0.0
 10
15.2759491619
 20
14.0131051449
 30
0.0
 10
15.3029479001
 20
13.9914315443
 30
0.0
 10
15.3202083621
 20
13.9752794606
 30
0.0
 10
15.3287645698
 20
13.9667195927
 30
0.0
  0
SPLINE
  5
2B6
100
AcDbEntity
  8
LAYER_FEATURE
100
AcDbSpline
 62
7
  6
CONTINUOUS
 70
0
 71
3
 72
19
 73
15
 74
0
 42
0.0000001
 43
0.0000001
 44
0.0000000001
 40
0.0
 40
0.0
 40
0.0
 40
0.0
 40
0.0561296991
 40
0.112428493
 40
0.1690636002
 40
0.2261985564
 40
0.2839916261
 40
0.342594292
 40
0.402150219
 40
0.462794232
 40
0.5878024763
 40
0.7185454005
 40
0.8557516025
 40
1.0
 40
1.0
 40
1.0
 40
1.0
 10
15.107885437
 20
10.9483050017
 30
0.0
 10
15.1126001313
 20
10.9483049971
 30
0.0
 10
15.1220461374
 20
10.9485872387
 30
0.0
 10
15.1361980059
 20
10.9498563866
 30
0.0
 10
15.1503342325
 20
10.9519707314
 30
0.0
 10
15.1644461592
 20
10.9549288286
 30
0.0
 10
15.1785260483
 20
10.9587288822
 30
0.0
 10
15.1925659854
 20
10.9633683513
 30
0.0
 10
15.2065585431
 20
10.9688446457
 30
0.0
 10
15.2253291621
 20
10.9773421086
 30
0.0
 10
15.2486784139
 20
10.9901295007
 30
0.0
 10
15.276081949
 20
11.0086019032
 30
0.0
 10
15.3031003411
 20
11.0303099703
 30
0.0
 10
15.3203725138
 20
11.0464872308
 30
0.0
 10
15.3289344428
 20
11.0550604051
 30
0.0
  0
SPLINE
  5
2B7
100
AcDbEntity
  8
LAYER_FEATURE
100
AcDbSpline
 62
7
  6
CONTINUOUS
 70
0
 71
3
 72
54
 73
50
 74
0
 42
0.0000001
 43
0.0000001
 44
0.0000000001
 40
0.0
 40
0.0
 40
0.0
 40
0.0
 40
0.0076944498
 40
0.0154413813
 40
0.0232919705
 40
0.0312949099
 40
0.0394954566
 40
0.0479347596
 40
0.0566494683
 40
0.0656715927
 40
0.0750285598
 40
0.084743408
 40
0.094835067
 40
0.1053186804
 40
0.11620594
 40
0.1275054133
 40
0.1392228492
 40
0.1513614589
 40
0.1639221688
 40
0.176903846
 40
0.1903034963
 40
0.2041164401
 40
0.2183364663
 40
0.2329559684
 40
0.247966065
 40
0.263356706
 40
0.2791167689
 40
0.2952341454
 40
0.3116958187
 40
0.3284879346
 40
0.3455958669
 40
0.3630042768
 40
0.3986567007
 40
0.4353116457
 40
0.4728260636
 40
0.5110502178
 40
0.5498290122
 40
0.589003255
 40
0.6284108829
 40
0.667888156
 40
0.7072708358
 40
0.74639536
 40
0.785100025
 40
0.8232261831
 40
0.8606194684
 40
0.8971310711
 40
0.9326190815
 40
0.966949917
 40
1.0
 40
1.0
 40
1.0
 40
1.0
 10
15.8625381405
 20
14.0733049841
 30
0.0
 10
15.869647687
 20
14.07330499
 30
0.0
 10
15.8839235009
 20
14.0726608588
 30
0.0
 10
15.9052766485
 20
14.0697673966
 30
0.0
 10
15.9265727195
 20
14.0649507938
 30
0.0
 10
15.9477811758
 20
14.0582194089
 30
0.0
 10
15.9688754792
 20
14.0495842649
 30
0.0
 10
15.9898293535
 20
14.039058651
 30
0.0
 10
16.0106176421
 20
14.0266578297
 30
0.0
 10
16.031215808
 20
14.0123988725
 30
0.0
 10
16.0515998105
 20
13.9963006098
 30
0.0
 10
16.071745933
 20
13.9783836566
 30
0.0
 10
16.0916306965
 20
13.9586704731
 30
0.0
 10
16.1112308185
 20
13.9371854308
 30
0.0
 10
16.130523212
 20
13.9139548682
 30
0.0
 10
16.1494850087
 20
13.889007129
 30
0.0
 10
16.1680935988
 20
13.862372583
 30
0.0
 10
16.1863266777
 20
13.8340836284
 30
0.0
 10
16.2041622899
 20
13.8041746757
 30
0.0
 10
16.2215788764
 20
13.7726821225
 30
0.0
 10
16.2385553177
 20
13.73964432
 30
0.0
 10
16.2550709755
 20
13.7051015317
 30
0.0
 10
16.2711057293
 20
13.6690958872
 30
0.0
 10
16.2866400118
 20
13.6316713317
 30
0.0
 10
16.3016548404
 20
13.5928735721
 30
0.0
 10
16.3161318503
 20
13.5527500221
 30
0.0
 10
16.3300533193
 20
13.5113497394
 30
0.0
 10
16.3434021919
 20
13.4687233669
 30
0.0
 10
16.3561621133
 20
13.4249230552
 30
0.0
 10
16.368317411
 20
13.380002449
 30
0.0
 10
16.3798532743
 20
13.33401642
 30
0.0
 10
16.3945053257
 20
13.2708560077
 30
0.0
 10
16.4111330598
 20
13.1896274369
 30
0.0
 10
16.4282540621
 20
13.0895921664
 30
0.0
 10
16.4426136144
 20
12.9867239047
 30
0.0
 10
16.4541409736
 20
12.8815265839
 30
0.0
 10
16.4627793403
 20
12.7745145819
 30
0.0
 10
16.4684861457
 20
12.6662116658
 30
0.0
 10
16.4712332708
 20
12.5571479466
 30
0.0
 10
16.4710071755
 20
12.4478573492
 30
0.0
 10
16.4678089678
 20
12.3388749211
 30
0.0
 10
16.461654409
 20
12.2307341791
 30
0.0
 10
16.4525738384
 20
12.1239644406
 30
0.0
 10
16.4406120078
 20
12.0190882039
 30
0.0
 10
16.4258278342
 20
11.9166184607
 30
0.0
 10
16.408294172
 20
11.8170563819
 30
0.0
 10
16.3880971765
 20
11.7208878279
 30
0.0
 10
16.3653367561
 20
11.6285842155
 30
0.0
 10
16.3481822443
 20
11.5687158097
 30
0.0
 10
16.3391660572
 20
11.5395394175
 30
0.0
  0
SPLINE
  5
2B8
100
AcDbEntity
  8
LAYER_FEATURE
100
AcDbSpline
 62
7
  6
CONTINUOUS
 70
0
 71
3
 72
35
 73
31
 74
0
 42
0.0000001
 43
0.0000001
 44
0.0000000001
 40
0.0
 40
0.0
 40
0.0
 40
0.0
 40
0.0212775213
 40
0.0426488271
 40
0.0642061834
 40
0.0860389164
 40
0.1082321823
 40
0.1308659592
 40
0.1540143001
 40
0.17774488
 40
0.2021187628
 40
0.2271903427
 40
0.2795970076
 40
0.3070241629
 40
0.3353041691
 40
0.3644618612
 40
0.3945172524
 40
0.4254858761
 40
0.4573791784
 40
0.4902048556
 40
0.5239671195
 40
0.5586669929
 40
0.5943025893
 40
0.6308693191
 40
0.6683600741
 40
0.7067654615
 40
0.7460739618
 40
0.8273403708
 40
0.9120339744
 40
1.0
 40
1.0
 40
1.0
 40
1.0
 10
15.8625381405
 20
10.9483050017
 30
0.0
 10
15.8682454769
 20
10.9483050064
 30
0.0
 10
15.8796895794
 20
10.9487191314
 30
0.0
 10
15.8968249814
 20
10.950580772
 30
0.0
 10
15.9139319624
 20
10.9536813364
 30
0.0
 10
15.9309949549
 20
10.9580176484
 30
0.0
 10
15.9480001695
 20
10.9635854353
 30
0.0
 10
15.9649337062
 20
10.9703793712
 30
0.0
 10
15.98178214
 20
10.9783931616
 30
0.0
 10
15.998532119
 20
10.9876195771
 30
0.0
 10
16.015171131
 20
10.9980509309
 30
0.0
 10
16.0375184815
 20
11.0137847385
 30
0.0
 10
16.0592573548
 20
11.0317321044
 30
0.0
 10
16.0803579418
 20
11.0516335002
 30
0.0
 10
16.0962511594
 20
11.0679401925
 30
0.0
 10
16.1119574064
 20
11.0853857243
 30
0.0
 10
16.127465459
 20
11.1039572142
 30
0.0
 10
16.1427630855
 20
11.1236397529
 30
0.0
 10
16.1578384878
 20
11.1444179132
 30
0.0
 10
16.1726798964
 20
11.1662753423
 30
0.0
 10
16.1872757449
 20
11.1891948448
 30
0.0
 10
16.2016146304
 20
11.2131583796
 30
0.0
 10
16.215685307
 20
11.238147097
 30
0.0
 10
16.2294767296
 20
11.2641413368
 30
0.0
 10
16.242978049
 20
11.291120594
 30
0.0
 10
16.2561787528
 20
11.3190637047
 30
0.0
 10
16.2735572642
 20
11.3580087205
 30
0.0
 10
16.2944170714
 20
11.408981477
 30
0.0
 10
16.3178176035
 20
11.4729615672
 30
0.0
 10
16.3321995764
 20
11.5169958775
 30
0.0
 10
16.3391660572
 20
11.5395394175
 30
0.0
  0
SPLINE
  5
2B9
100
AcDbEntity
  8
02___PRT_ALL_AXES
100
AcDbSpline
 62
7
  6
CONTINUOUS
 70
0
 71
3
 72
54
 73
50
 74
0
 42
0.0000001
 43
0.0000001
 44
0.0000000001
 40
0.0
 40
0.0
 40
0.0
 40
0.0
 40
0.0079349458
 40
0.0157911986
 40
0.0236260122
 40
0.0314972214
 40
0.0394616781
 40
0.0475737928
 40
0.0558843211
 40
0.0644394814
 40
0.0732804228
 40
0.0824430104
 40
0.0919578638
 40
0.1018505738
 40
0.1121420289
 40
0.1228487971
 40
0.1339835216
 40
0.1455553075
 40
0.1575700823
 40
0.1700309241
 40
0.1829383551
 40
0.1962906007
 40
0.2100838184
 40
0.2243122982
 40
0.2389686383
 40
0.2540438993
 40
0.2695277399
 40
0.2854085381
 40
0.3016734983
 40
0.3183087484
 40
0.3352994261
 40
0.3526297599
 40
0.3882407429
 40
0.4250015867
 40
0.4627602227
 40
0.501356024
 40
0.5406214379
 40
0.5803835247
 40
0.6204654294
 40
0.6606878084
 40
0.700870232
 40
0.7408325794
 40
0.7803964342
 40
0.8193864965
 40
0.8576320261
 40
0.894968341
 40
0.9312383916
 40
0.9662944383
 40
1.0
 40
1.0
 40
1.0
 40
1.0
 10
15.8094106014
 20
13.8498128527
 30
0.0
 10
15.8156845113
 20
13.8512053501
 30
0.0
 10
15.8283017448
 20
13.8534211006
 30
0.0
 10
15.8473996083
 20
13.8549798511
 30
0.0
 10
15.8665097383
 20
13.8547477711
 30
0.0
 10
15.885601242
 20
13.8527249352
 30
0.0
 10
15.9046460802
 20
13.8489155482
 30
0.0
 10
15.9236164257
 20
13.8433269781
 30
0.0
 10
15.9424857731
 20
13.8359694586
 30
0.0
 10
15.9612287265
 20
13.8268555672
 30
0.0
 10
15.9798208993
 20
13.8159998767
 30
0.0
 10
15.9982386571
 20
13.8034187488
 30
0.0
 10
16.0164588913
 20
13.7891302688
 30
0.0
 10
16.0344588375
 20
13.7731542663
 30
0.0
 10
16.0522159677
 20
13.7555123835
 30
0.0
 10
16.0697079419
 20
13.7362281514
 30
0.0
 10
16.0869126044
 20
13.7153270542
 30
0.0
 10
16.1038080098
 20
13.6928365733
 30
0.0
 10
16.1203724645
 20
13.6687862094
 30
0.0
 10
16.1365845754
 20
13.6432074852
 30
0.0
 10
16.1524233001
 20
13.6161339318
 30
0.0
 10
16.167867998
 20
13.5876010641
 30
0.0
 10
16.182898474
 20
13.5576463414
 30
0.0
 10
16.1974950216
 20
13.5263091241
 30
0.0
 10
16.2116384615
 20
13.4936306232
 30
0.0
 10
16.2253101782
 20
13.4596538471
 30
0.0
 10
16.2384921528
 20
13.4244235425
 30
0.0
 10
16.2511669908
 20
13.3879861374
 30
0.0
 10
16.2633179616
 20
13.3503896655
 30
0.0
 10
16.2749289797
 20
13.3116837501
 30
0.0
 10
16.285984805
 20
13.2719193472
 30
0.0
 10
16.3000932524
 20
13.2170630452
 30
0.0
 10
16.3161957954
 20
13.1462014902
 30
0.0
 10
16.332919651
 20
13.0585709767
 30
0.0
 10
16.3471264057
 20
12.9680500574
 30
0.0
 10
16.3587405702
 20
12.8751167331
 30
0.0
 10
16.3677004357
 20
12.7802607759
 30
0.0
 10
16.3739583766
 20
12.6839826796
 30
0.0
 10
16.3774811232
 20
12.586790497
 30
0.0
 10
16.3782499413
 20
12.489197225
 30
0.0
 10
16.3762607393
 20
12.3917180104
 30
0.0
 10
16.3715241004
 20
12.2948673898
 30
0.0
 10
16.3640652088
 20
12.1991565136
 30
0.0
 10
16.3539237197
 20
12.1050904151
 30
0.0
 10
16.3411535175
 20
12.0131652107
 30
0.0
 10
16.3258224988
 20
11.9238656643
 30
0.0
 10
16.3080119232
 20
11.8376616154
 30
0.0
 10
16.2878168327
 20
11.75500864
 30
0.0
 10
16.2725149188
 20
11.7014426959
 30
0.0
 10
16.2644551256
 20
11.6753611956
 30
0.0
  0
SPLINE
  5
2BA
100
AcDbEntity
  8
LAYER_FEATURE
100
AcDbSpline
 62
7
  6
CONTINUOUS
 70
0
 71
3
 72
54
 73
50
 74
0
 42
0.0000001
 43
0.0000001
 44
0.0000000001
 40
0.0
 40
0.0
 40
0.0
 40
0.0
 40
0.033050083
 40
0.0673809185
 40
0.1028689289
 40
0.1393805316
 40
0.1767738169
 40
0.214899975
 40
0.25360464
 40
0.2927291642
 40
0.332111844
 40
0.3715891171
 40
0.410996745
 40
0.4501709878
 40
0.4889497822
 40
0.5271739364
 40
0.5646883543
 40
0.6013432993
 40
0.6369957232
 40
0.6544041331
 40
0.6715120654
 40
0.6883041813
 40
0.7047658546
 40
0.7208832311
 40
0.736643294
 40
0.752033935
 40
0.7670440316
 40
0.7816635337
 40
0.7958835599
 40
0.8096965037
 40
0.823096154
 40
0.8360778312
 40
0.8486385411
 40
0.8607771508
 40
0.8724945867
 40
0.88379406
 40
0.8946813196
 40
0.905164933
 40
0.915256592
 40
0.9249714402
 40
0.9343284073
 40
0.9433505317
 40
0.9520652404
 40
0.9605045434
 40
0.9687050901
 40
0.9767080295
 40
0.9845586187
 40
0.9923055502
 40
1.0
 40
1.0
 40
1.0
 40
1.0
 10
15.3576610826
 20
13.4820705683
 30
0.0
 10
15.3486448955
 20
13.4528941762
 30
0.0
 10
15.3314903837
 20
13.3930257704
 30
0.0
 10
15.3087299632
 20
13.300722158
 30
0.0
 10
15.2885329678
 20
13.2045536039
 30
0.0
 10
15.2709993056
 20
13.1049915251
 30
0.0
 10
15.2562151319
 20
13.0025217819
 30
0.0
 10
15.2442533014
 20
12.8976455452
 30
0.0
 10
15.2351727307
 20
12.7908758067
 30
0.0
 10
15.2290181719
 20
12.6827350647
 30
0.0
 10
15.2258199643
 20
12.5737526367
 30
0.0
 10
15.225593869
 20
12.4644620392
 30
0.0
 10
15.228340994
 20
12.3553983201
 30
0.0
 10
15.2340477994
 20
12.2470954039
 30
0.0
 10
15.2426861662
 20
12.1400834019
 30
0.0
 10
15.2542135253
 20
12.0348860811
 30
0.0
 10
15.2685730777
 20
11.9320178194
 30
0.0
 10
15.28569408
 20
11.8319825489
 30
0.0
 10
15.302321814
 20
11.7507539782
 30
0.0
 10
15.3169738655
 20
11.6875935659
 30
0.0
 10
15.3285097287
 20
11.6416075368
 30
0.0
 10
15.3406650265
 20
11.5966869307
 30
0.0
 10
15.3534249478
 20
11.5528866189
 30
0.0
 10
15.3667738204
 20
11.5102602464
 30
0.0
 10
15.3806952895
 20
11.4688599637
 30
0.0
 10
15.3951722993
 20
11.4287364137
 30
0.0
 10
15.410187128
 20
11.3899386541
 30
0.0
 10
15.4257214105
 20
11.3525140986
 30
0.0
 10
15.4417561643
 20
11.3165084541
 30
0.0
 10
15.458271822
 20
11.2819656658
 30
0.0
 10
15.4752482634
 20
11.2489278633
 30
0.0
 10
15.4926648498
 20
11.2174353101
 30
0.0
 10
15.510500462
 20
11.1875263574
 30
0.0
 10
15.5287335409
 20
11.1592374028
 30
0.0
 10
15.547342131
 20
11.1326028568
 30
0.0
 10
15.5663039278
 20
11.1076551176
 30
0.0
 10
15.5855963212
 20
11.084424555
 30
0.0
 10
15.6051964432
 20
11.0629395127
 30
0.0
 10
15.6250812068
 20
11.0432263293
 30
0.0
 10
15.6452273292
 20
11.0253093761
 30
0.0
 10
15.6656113318
 20
11.0092111133
 30
0.0
 10
15.6862094977
 20
10.9949521561
 30
0.0
 10
15.7069977863
 20
10.9825513348
 30
0.0
 10
15.7279516606
 20
10.9720257209
 30
0.0
 10
15.749045964
 20
10.9633905769
 30
0.0
 10
15.7702544203
 20
10.956659192
 30
0.0
 10
15.7915504913
 20
10.9518425892
 30
0.0
 10
15.8129036388
 20
10.948949127
 30
0.0
 10
15.8271794528
 20
10.9483049958
 30
0.0
 10
15.8342889992
 20
10.9483050017
 30
0.0
  0
SPLINE
  5
2BB
100
AcDbEntity
  8
02___PRT_ALL_AXES
100
AcDbSpline
 62
7
  6
CONTINUOUS
 70
0
 71
3
 72
19
 73
15
 74
0
 42
0.0000001
 43
0.0000001
 44
0.0000000001
 40
0.0
 40
0.0
 40
0.0
 40
0.0
 40
0.1471319765
 40
0.2862881586
 40
0.4180484304
 40
0.5431797038
 40
0.60357688
 40
0.6626981731
 40
0.7206970377
 40
0.7777390146
 40
0.8340006649
 40
0.8896680616
 40
0.9449348597
 40
1.0
 40
1.0
 40
1.0
 40
1.0
 10
15.6389334509
 20
13.6984526776
 30
0.0
 10
15.6466175027
 20
13.7070299599
 30
0.0
 10
15.6621401194
 20
13.7232222425
 30
0.0
 10
15.6865753772
 20
13.7450368197
 30
0.0
 10
15.7114363231
 20
13.7636224349
 30
0.0
 10
15.7327112986
 20
13.7765246305
 30
0.0
 10
15.7498422195
 20
13.785098767
 30
0.0
 10
15.7626019537
 20
13.7906168795
 30
0.0
 10
15.775414622
 20
13.7952932341
 30
0.0
 10
15.7882720049
 20
13.7991244595
 30
0.0
 10
15.8011652915
 20
13.8021075153
 30
0.0
 10
15.8140858728
 20
13.8042400269
 30
0.0
 10
15.8270240442
 20
13.8055202427
 30
0.0
 10
15.8356622674
 20
13.8058049941
 30
0.0
 10
15.8399721462
 20
13.8058049915
 30
0.0
  0
SPLINE
  5
2BC
100
AcDbEntity
  8
02___PRT_ALL_AXES
100
AcDbSpline
 62
7
  6
CONTINUOUS
 70
0
 71
3
 72
19
 73
15
 74
0
 42
0.0000001
 43
0.0000001
 44
0.0000000001
 40
0.0
 40
0.0
 40
0.0
 40
0.0
 40
0.054319372
 40
0.1088640936
 40
0.1638560791
 40
0.2195105832
 40
0.2760333641
 40
0.3336183579
 40
0.3924459256
 40
0.4526816926
 40
0.5779199679
 40
0.7104007531
 40
0.8509049093
 40
1.0
 40
1.0
 40
1.0
 40
1.0
 10
15.6488519899
 20
13.6045549927
 30
0.0
 10
15.6527273778
 20
13.6045549944
 30
0.0
 10
15.6604969624
 20
13.604282274
 30
0.0
 10
15.6721317318
 20
13.6030562996
 30
0.0
 10
15.6837484236
 20
13.6010143283
 30
0.0
 10
15.6953371046
 20
13.5981583027
 30
0.0
 10
15.7068889876
 20
13.5944908482
 30
0.0
 10
15.7183951163
 20
13.5900152924
 30
0.0
 10
15.7298471344
 20
13.5847353498
 30
0.0
 10
15.7452304849
 20
13.5765235517
 30
0.0
 10
15.7643104833
 20
13.5641682309
 30
0.0
 10
15.7865362723
 20
13.5464061868
 30
0.0
 10
15.8083305136
 20
13.5255767724
 30
0.0
 10
15.8221144979
 20
13.510156087
 30
0.0
 10
15.8289307463
 20
13.5019898802
 30
0.0
  0
SPLINE
  5
2BD
100
AcDbEntity
  8
02___PRT_ALL_AXES
100
AcDbSpline
 62
7
  6
CONTINUOUS
 70
0
 71
3
 72
39
 73
35
 74
0
 42
0.0000001
 43
0.0000001
 44
0.0000000001
 40
0.0
 40
0.0
 40
0.0
 40
0.0
 40
0.0202790424
 40
0.0417769563
 40
0.064504772
 40
0.0884573933
 40
0.1136160207
 40
0.1399501431
 40
0.1674191637
 40
0.1959737304
 40
0.2255568555
 40
0.2561048678
 40
0.2875482266
 40
0.3198122427
 40
0.3528177318
 40
0.3864816027
 40
0.4207174053
 40
0.4554358537
 40
0.4905453182
 40
0.5259523014
 40
0.561561905
 40
0.5972782849
 40
0.6330051005
 40
0.6686459633
 40
0.7041048833
 40
0.7392867188
 40
0.7740976315
 40
0.8084455467
 40
0.8422406286
 40
0.8753957731
 40
0.9078271158
 40
0.9394545732
 40
0.9702024186
 40
1.0
 40
1.0
 40
1.0
 40
1.0
 10
15.8408443229
 20
13.4877168178
 30
0.0
 10
15.8482143337
 20
13.4788871758
 30
0.0
 10
15.8627243958
 20
13.4601281472
 30
0.0
 10
15.8832206186
 20
13.4297999608
 30
0.0
 10
15.9030168499
 20
13.3965618415
 30
0.0
 10
15.9220507517
 20
13.3605194579
 30
0.0
 10
15.9402638387
 20
13.3217848525
 30
0.0
 10
15.9575990043
 20
13.2804796605
 30
0.0
 10
15.9740017254
 20
13.2367337184
 30
0.0
 10
15.9894201434
 20
13.1906849341
 30
0.0
 10
16.0038053817
 20
13.1424787296
 30
0.0
 10
16.0171117309
 20
13.0922675663
 30
0.0
 10
16.0292968544
 20
13.0402104278
 30
0.0
 10
16.0403219513
 20
12.9864722893
 30
0.0
 10
16.0501518825
 20
12.9312235659
 30
0.0
 10
16.058755303
 20
12.8746395543
 30
0.0
 10
16.0661047795
 20
12.8168998613
 30
0.0
 10
16.0721768659
 20
12.7581878164
 30
0.0
 10
16.0769521838
 20
12.6986898789
 30
0.0
 10
16.080415502
 20
12.638595037
 30
0.0
 10
16.0825557698
 20
12.5780941975
 30
0.0
 10
16.0833661516
 20
12.5173795714
 30
0.0
 10
16.0828440652
 20
12.4566440567
 30
0.0
 10
16.0809911793
 20
12.3960806188
 30
0.0
 10
16.0778134011
 20
12.3358816702
 30
0.0
 10
16.0733208723
 20
12.276238452
 30
0.0
 10
16.067527932
 20
12.2173404189
 30
0.0
 10
16.0604530584
 20
12.1593746287
 30
0.0
 10
16.0521188211
 20
12.1025251436
 30
0.0
 10
16.0425518034
 20
12.0469724085
 30
0.0
 10
16.0317825252
 20
11.9928927609
 30
0.0
 10
16.0198452494
 20
11.9404575274
 30
0.0
 10
16.0067782161
 20
11.889833614
 30
0.0
 10
15.9971834372
 20
11.8568558127
 30
0.0
 10
15.9921938328
 20
11.8407094471
 30
0.0
  0
SPLINE
  5
2BE
100
AcDbEntity
  8
02___PRT_ALL_AXES
100
AcDbSpline
 62
7
  6
CONTINUOUS
 70
0
 71
3
 72
19
 73
15
 74
0
 42
0.0000001
 43
0.0000001
 44
0.0000000001
 40
0.0
 40
0.0
 40
0.0
 40
0.0
 40
0.1471261496
 40
0.2862783433
 40
0.4180365
 40
0.5431674924
 40
0.6035651573
 40
0.6626873227
 40
0.7206874108
 40
0.7777309213
 40
0.8339943628
 40
0.8896637483
 40
0.944932669
 40
1.0
 40
1.0
 40
1.0
 40
1.0
 10
15.6389695637
 20
11.3231170048
 30
0.0
 10
15.6466524536
 20
11.3145428556
 30
0.0
 10
15.6621726642
 20
11.2983564918
 30
0.0
 10
15.6866038328
 20
11.2765500729
 30
0.0
 10
15.711460451
 20
11.2579714576
 30
0.0
 10
15.7327315237
 20
11.2450741887
 30
0.0
 10
15.749859243
 20
11.2365033313
 30
0.0
 10
15.7626166137
 20
11.2309873171
 30
0.0
 10
15.7754268876
 20
11.2263127447
 30
0.0
 10
15.7882818492
 20
11.2224829791
 30
0.0
 10
15.8011726932
 20
11.2195010581
 30
0.0
 10
15.814090816
 20
11.2173693588
 30
0.0
 10
15.8270265188
 20
11.2160896281
 30
0.0
 10
15.8356630888
 20
11.2158049969
 30
0.0
 10
15.8399721462
 20
11.2158049943
 30
0.0
  0
SPLINE
  5
2BF
100
AcDbEntity
  8
LAYER_FEATURE
100
AcDbSpline
 62
7
  6
CONTINUOUS
 70
0
 71
3
 72
35
 73
31
 74
0
 42
0.0000001
 43
0.0000001
 44
0.0000000001
 40
0.0
 40
0.0
 40
0.0
 40
0.0
 40
0.0879660256
 40
0.1726596292
 40
0.2539260382
 40
0.2932345385
 40
0.3316399259
 40
0.3691306809
 40
0.4056974107
 40
0.4413330071
 40
0.4760328805
 40
0.5097951444
 40
0.5426208216
 40
0.5745141239
 40
0.6054827476
 40
0.6355381388
 40
0.6646958309
 40
0.6929758371
 40
0.7204029924
 40
0.7728096573
 40
0.7978812372
 40
0.82225512
 40
0.8459856999
 40
0.8691340408
 40
0.8917678177
 40
0.9139610836
 40
0.9357938166
 40
0.9573511729
 40
0.9787224787
 40
1.0
 40
1.0
 40
1.0
 40
1.0
 10
15.3576610826
 20
13.4820705683
 30
0.0
 10
15.3646275633
 20
13.5046141083
 30
0.0
 10
15.3790095363
 20
13.5486484186
 30
0.0
 10
15.4024100684
 20
13.6126285088
 30
0.0
 10
15.4232698755
 20
13.6636012653
 30
0.0
 10
15.440648387
 20
13.7025462811
 30
0.0
 10
15.4538490908
 20
13.7304893918
 30
0.0
 10
15.4673504101
 20
13.757468649
 30
0.0
 10
15.4811418327
 20
13.7834628888
 30
0.0
 10
15.4952125093
 20
13.8084516062
 30
0.0
 10
15.5095513949
 20
13.832415141
 30
0.0
 10
15.5241472434
 20
13.8553346435
 30
0.0
 10
15.538988652
 20
13.8771920726
 30
0.0
 10
15.5540640543
 20
13.8979702329
 30
0.0
 10
15.5693616807
 20
13.9176527716
 30
0.0
 10
15.5848697334
 20
13.9362242615
 30
0.0
 10
15.6005759804
 20
13.9536697933
 30
0.0
 10
15.616469198
 20
13.9699764856
 30
0.0
 10
15.637569785
 20
13.9898778814
 30
0.0
 10
15.6593086582
 20
14.0078252473
 30
0.0
 10
15.6816560087
 20
14.023559055
 30
0.0
 10
15.6982950207
 20
14.0339904087
 30
0.0
 10
15.7150449998
 20
14.0432168242
 30
0.0
 10
15.7318934336
 20
14.0512306146
 30
0.0
 10
15.7488269702
 20
14.0580245505
 30
0.0
 10
15.7658321849
 20
14.0635923375
 30
0.0
 10
15.7828951774
 20
14.0679286494
 30
0.0
 10
15.8000021584
 20
14.0710292138
 30
0.0
 10
15.8171375604
 20
14.0728908545
 30
0.0
 10
15.8285816629
 20
14.0733049794
 30
0.0
 10
15.8342889992
 20
14.0733049841
 30
0.0
  0
SPLINE
  5
2C0
100
AcDbEntity
  8
02___PRT_ALL_AXES
100
AcDbSpline
 62
7
  6
CONTINUOUS
 70
0
 71
3
 72
19
 73
15
 74
0
 42
0.0000001
 43
0.0000001
 44
0.0000000001
 40
0.0
 40
0.0
 40
0.0
 40
0.0
 40
0.0543193717
 40
0.1088640935
 40
0.1638560799
 40
0.2195105847
 40
0.2760333648
 40
0.3336183556
 40
0.3924459228
 40
0.4526816918
 40
0.5779199701
 40
0.7104007481
 40
0.8509049094
 40
1.0
 40
1.0
 40
1.0
 40
1.0
 10
15.6488519899
 20
11.4170549932
 30
0.0
 10
15.6527273778
 20
11.4170549949
 30
0.0
 10
15.6604969625
 20
11.4173277079
 30
0.0
 10
15.6721317319
 20
11.4185536857
 30
0.0
 10
15.6837484236
 20
11.4205956578
 30
0.0
 10
15.6953371044
 20
11.4234516848
 30
0.0
 10
15.7068889873
 20
11.4271191388
 30
0.0
 10
15.7183951168
 20
11.4315946919
 30
0.0
 10
15.7298471347
 20
11.4368746346
 30
0.0
 10
15.7452304849
 20
11.4450864343
 30
0.0
 10
15.7643104816
 20
11.457441757
 30
0.0
 10
15.7865362745
 20
11.4752037967
 30
0.0
 10
15.8083305113
 20
11.4960332155
 30
0.0
 10
15.8221145009
 20
11.5114538969
 30
0.0
 10
15.8289307462
 20
11.5196201063
 30
0.0
  0
SPLINE
  5
2C1
100
AcDbEntity
  8
LAYER_FEATURE
100
AcDbSpline
 62
7
  6
CONTINUOUS
 70
0
 71
3
 72
54
 73
50
 74
0
 42
0.0000001
 43
0.0000001
 44
0.0000000001
 40
0.0
 40
0.0
 40
0.0
 40
0.0
 40
0.0330500869
 40
0.0673809189
 40
0.1028689286
 40
0.1393805316
 40
0.1767738172
 40
0.214899975
 40
0.2536046397
 40
0.2927291642
 40
0.332111844
 40
0.3715891169
 40
0.4109967451
 40
0.4501709878
 40
0.4889497815
 40
0.5271739361
 40
0.5646883551
 40
0.6013432992
 40
0.6369957215
 40
0.6544041318
 40
0.6715120649
 40
0.6883041821
 40
0.7047658562
 40
0.7208832323
 40
0.736643294
 40
0.7520339335
 40
0.7670440292
 40
0.7816635318
 40
0.7958835594
 40
0.8096965048
 40
0.823096156
 40
0.8360778326
 40
0.8486385411
 40
0.8607771491
 40
0.8724945842
 40
0.8837940579
 40
0.894681319
 40
0.9051649339
 40
0.9152565937
 40
0.9249714414
 40
0.9343284073
 40
0.9433505306
 40
0.9520652387
 40
0.9605045419
 40
0.9687050894
 40
0.9767080294
 40
0.9845586188
 40
0.9923055502
 40
1.0
 40
1.0
 40
1.0
 40
1.0
 10
14.603008379
 20
13.4820705683
 30
0.0
 10
14.5939921909
 20
13.4528941727
 30
0.0
 10
14.576837679
 20
13.3930257665
 30
0.0
 10
14.5540772594
 20
13.3007221542
 30
0.0
 10
14.533880263
 20
13.204553604
 30
0.0
 10
14.5163466018
 20
13.1049915251
 30
0.0
 10
14.5015624306
 20
13.0025217813
 30
0.0
 10
14.4896005982
 20
12.8976455451
 30
0.0
 10
14.4805200245
 20
12.7908758071
 30
0.0
 10
14.4743654681
 20
12.6827350649
 30
0.0
 10
14.4711672643
 20
12.5737526366
 30
0.0
 10
14.4709411659
 20
12.4644620391
 30
0.0
 10
14.4736882865
 20
12.3553983198
 30
0.0
 10
14.4793950955
 20
12.2470954042
 30
0.0
 10
14.4880334675
 20
12.1400834031
 30
0.0
 10
14.4995608223
 20
12.0348860811
 30
0.0
 10
14.513920369
 20
11.9320178178
 30
0.0
 10
14.5310413759
 20
11.8319825492
 30
0.0
 10
14.5476691153
 20
11.7507539817
 30
0.0
 10
14.5623211646
 20
11.6875935693
 30
0.0
 10
14.5738570255
 20
11.6416075373
 30
0.0
 10
14.5860123207
 20
11.5966869277
 30
0.0
 10
14.5987722404
 20
11.5528866138
 30
0.0
 10
14.6121211139
 20
11.5102602424
 30
0.0
 10
14.6260425858
 20
11.4688599636
 30
0.0
 10
14.6405195983
 20
11.4287364181
 30
0.0
 10
14.6555344283
 20
11.389938661
 30
0.0
 10
14.6710687096
 20
11.3525141039
 30
0.0
 10
14.687103461
 20
11.3165084549
 30
0.0
 10
14.7036191162
 20
11.2819656614
 30
0.0
 10
14.7205955561
 20
11.248927856
 30
0.0
 10
14.7380121439
 20
11.2174353047
 30
0.0
 10
14.7558477584
 20
11.1875263572
 30
0.0
 10
14.7740808393
 20
11.1592374083
 30
0.0
 10
14.7926894307
 20
11.1326028656
 30
0.0
 10
14.8116512265
 20
11.1076551246
 30
0.0
 10
14.8309436178
 20
11.084424556
 30
0.0
 10
14.8505437376
 20
11.062939507
 30
0.0
 10
14.8704285004
 20
11.0432263204
 30
0.0
 10
14.8905746242
 20
11.0253093699
 30
0.0
 10
14.9109586282
 20
11.009211113
 30
0.0
 10
14.9315567953
 20
10.994952162
 30
0.0
 10
14.9523450844
 20
10.9825513445
 30
0.0
 10
14.9732989582
 20
10.9720257291
 30
0.0
 10
14.9943932602
 20
10.9633905781
 30
0.0
 10
15.0156017156
 20
10.9566591847
 30
0.0
 10
15.036897787
 20
10.9518425819
 30
0.0
 10
15.0582509352
 20
10.9489491145
 30
0.0
 10
15.0725267493
 20
10.9483050086
 30
0.0
 10
15.0796362956
 20
10.9483050017
 30
0.0
  0
SPLINE
  5
2C2
100
AcDbEntity
  8
02___PRT_ALL_AXES
100
AcDbSpline
 62
7
  6
CONTINUOUS
 70
0
 71
3
 72
15
 73
11
 74
0
 42
0.0000001
 43
0.0000001
 44
0.0000000001
 40
0.0
 40
0.0
 40
0.0
 40
0.0
 40
0.1030415353
 40
0.2124413774
 40
0.3282548702
 40
0.450449423
 40
0.5789180613
 40
0.7134904027
 40
0.8539415856
 40
1.0
 40
1.0
 40
1.0
 40
1.0
 10
15.8408443227
 20
11.5338931686
 30
0.0
 10
15.8484197469
 20
11.542968913
 30
0.0
 10
15.863326705
 20
11.5622820343
 30
0.0
 10
15.884347111
 20
11.5935568011
 30
0.0
 10
15.9046254785
 20
11.6278944762
 30
0.0
 10
15.9240945159
 20
11.6651800298
 30
0.0
 10
15.9426911309
 20
11.7052912423
 30
0.0
 10
15.9603538609
 20
11.748095463
 30
0.0
 10
15.9770239234
 20
11.7934501433
 30
0.0
 10
15.9872463326
 20
11.8246993305
 30
0.0
 10
15.9921938328
 20
11.8407094471
 30
0.0
  0
SPLINE
  5
2C3
100
AcDbEntity
  8
LAYER_FEATURE
100
AcDbSpline
 62
7
  6
CONTINUOUS
 70
0
 71
3
 72
36
 73
32
 74
0
 42
0.0000001
 43
0.0000001
 44
0.0000000001
 40
0.0
 40
0.0
 40
0.0
 40
0.0
 40
0.0879647301
 40
0.1726570648
 40
0.2539222764
 40
0.2932301914
 40
0.3316350098
 40
0.3691252116
 40
0.4056913988
 40
0.4413264641
 40
0.4760258261
 40
0.5097875916
 40
0.542612777
 40
0.5745056085
 40
0.6054737773
 40
0.6355287187
 40
0.6646859772
 40
0.6929655693
 40
0.7203923177
 40
0.746996252
 40
0.7728130251
 40
0.7978842365
 40
0.8222577519
 40
0.8459879813
 40
0.8691359833
 40
0.8917694219
 40
0.9139623571
 40
0.9357947692
 40
0.9573518063
 40
0.9787227939
 40
1.0
 40
1.0
 40
1.0
 40
1.0
 10
14.603008379
 20
13.4820705683
 30
0.0
 10
14.6099748604
 20
13.5046141104
 30
0.0
 10
14.624356832
 20
13.5486484196
 30
0.0
 10
14.6477573676
 20
13.6126285089
 30
0.0
 10
14.6686171693
 20
13.6636012649
 30
0.0
 10
14.6859956843
 20
13.7025462804
 30
0.0
 10
14.6991963886
 20
13.7304893908
 30
0.0
 10
14.7126977053
 20
13.7574686498
 30
0.0
 10
14.7264891281
 20
13.7834628892
 30
0.0
 10
14.7405598085
 20
13.8084516042
 30
0.0
 10
14.7548986911
 20
13.8324151414
 30
0.0
 10
14.7694945363
 20
13.8553346456
 30
0.0
 10
14.7843359525
 20
13.8771920706
 30
0.0
 10
14.7994113493
 20
13.8979702291
 30
0.0
 10
14.8147089827
 20
13.9176527844
 30
0.0
 10
14.8302169975
 20
13.9362242265
 30
0.0
 10
14.8459234008
 20
13.9536699086
 30
0.0
 10
14.8618160614
 20
13.9699760641
 30
0.0
 10
14.8778827697
 20
13.9851297519
 30
0.0
 10
14.894111226
 20
13.9991188596
 30
0.0
 10
14.910488993
 20
14.0119321544
 30
0.0
 10
14.9270035466
 20
14.0235592069
 30
0.0
 10
14.943642258
 20
14.0339903642
 30
0.0
 10
14.9603923141
 20
14.0432168295
 30
0.0
 10
14.9772407219
 20
14.0512306216
 30
0.0
 10
14.9941742687
 20
14.0580245494
 30
0.0
 10
15.0111794836
 20
14.0635923273
 30
0.0
 10
15.0282424723
 20
14.0679286553
 30
0.0
 10
15.0453494541
 20
14.071029224
 30
0.0
 10
15.062484858
 20
14.0728908332
 30
0.0
 10
15.0739289593
 20
14.0733049897
 30
0.0
 10
15.0796362956
 20
14.0733049841
 30
0.0
  0
SPLINE
  5
2C4
100
AcDbEntity
  8
02___PRT_ALL_AXES
100
AcDbSpline
 62
7
  6
CONTINUOUS
 70
0
 71
3
 72
11
 73
7
 74
0
 42
0.0000001
 43
0.0000001
 44
0.0000000001
 40
0.0
 40
0.0
 40
0.0
 40
0.0
 40
0.2614547493
 40
0.5137409167
 40
0.7590938597
 40
1.0
 40
1.0
 40
1.0
 40
1.0
 10
15.6124157142
 20
13.1219609567
 30
0.0
 10
15.6159392709
 20
13.123897739
 30
0.0
 10
15.6230428018
 20
13.1273889155
 30
0.0
 10
15.6340059068
 20
13.1314598699
 30
0.0
 10
15.6450389717
 20
13.1342482359
 30
0.0
 10
15.6524689588
 20
13.1352512122
 30
0.0
 10
15.6561630816
 20
13.1355317874
 30
0.0
  0
SPLINE
  5
2C5
100
AcDbEntity
  8
02___PRT_ALL_AXES
100
AcDbSpline
 62
7
  6
CONTINUOUS
 70
0
 71
3
 72
30
 73
26
 74
0
 42
0.0000001
 43
0.0000001
 44
0.0000000001
 40
0.0
 40
0.0
 40
0.0
 40
0.0
 40
0.0726691908
 40
0.1459101901
 40
0.2192739661
 40
0.2923099997
 40
0.3645712696
 40
0.4356190384
 40
0.5050277787
 40
0.5723903096
 40
0.6373232638
 40
0.6687688185
 40
0.6994772263
 40
0.7294100857
 40
0.7585317744
 40
0.7868097384
 40
0.8142148155
 40
0.8407216021
 40
0.8663088701
 40
0.8909600557
 40
0.9146638012
 40
0.9374146659
 40
0.959213723
 40
0.9800698532
 40
1.0
 40
1.0
 40
1.0
 40
1.0
 10
15.4245105284
 20
12.3906729112
 30
0.0
 10
15.4231752751
 20
12.4081791878
 30
0.0
 10
15.4210981371
 20
12.4433783018
 30
0.0
 10
15.4197444185
 20
12.4963475589
 30
0.0
 10
15.4201438297
 20
12.5494218435
 30
0.0
 10
15.4222935148
 20
12.6022171295
 30
0.0
 10
15.4261777842
 20
12.6543524853
 30
0.0
 10
15.4317683256
 20
12.705451522
 30
0.0
 10
15.4390243869
 20
12.7551459022
 30
0.0
 10
15.4478931203
 20
12.8030767298
 30
0.0
 10
15.4566650718
 20
12.8416657561
 30
0.0
 10
15.464466504
 20
12.8713651012
 30
0.0
 10
15.470614706
 20
12.8927494414
 30
0.0
 10
15.4771111365
 20
12.9134429224
 30
0.0
 10
15.4839441345
 20
12.9334082846
 30
0.0
 10
15.4911013282
 20
12.952609504
 30
0.0
 10
15.4985698056
 20
12.9710119904
 30
0.0
 10
15.5063361094
 20
12.9885826171
 30
0.0
 10
15.5143862794
 20
13.0052897954
 30
0.0
 10
15.5227058871
 20
13.0211035182
 30
0.0
 10
15.5312800882
 20
13.0359954511
 30
0.0
 10
15.5400936195
 20
13.0499388601
 30
0.0
 10
15.5491310634
 20
13.0629090009
 30
0.0
 10
15.5583761192
 20
13.0748820796
 30
0.0
 10
15.5648116007
 20
13.0823526993
 30
0.0
 10
15.5680624481
 20
13.0859048902
 30
0.0
  0
SPLINE
  5
2C6
100
AcDbEntity
  8
02___PRT_ALL_AXES
100
AcDbSpline
 62
7
  6
CONTINUOUS
 70
0
 71
3
 72
10
 73
6
 74
0
 42
0.0000001
 43
0.0000001
 44
0.0000000001
 40
0.0
 40
0.0
 40
0.0
 40
0.0
 40
0.250731671
 40
0.5009614401
 40
1.0
 40
1.0
 40
1.0
 40
1.0
 10
15.823296872
 20
12.0396978396
 30
0.0
 10
15.7960036165
 20
12.0406652904
 30
0.0
 10
15.7414774395
 20
12.042762942
 30
0.0
 10
15.6326594797
 20
12.0475482529
 30
0.0
 10
15.5511535093
 20
12.0517486845
 30
0.0
 10
15.4968827621
 20
12.054803935
 30
0.0
  0
LINE
  5
2C7
100
AcDbEntity
  8
02___PRT_ALL_AXES
100
AcDbLine
 62
7
  6
CONTINUOUS
 10
15.6722002911
 20
11.8862175284
 11
15.6413659224
 21
11.8884952385
  0
LINE
  5
2C8
100
AcDbEntity
  8
02___PRT_ALL_AXES
100
AcDbLine
 62
7
  6
CONTINUOUS
 10
15.6124157142
 20
13.1219609567
 11
15.5717327314
 21
13.1191396791
  0
SPLINE
  5
2C9
100
AcDbEntity
  8
02___PRT_ALL_AXES
100
AcDbSpline
 62
7
  6
CONTINUOUS
 70
0
 71
3
 72
29
 73
25
 74
0
 42
0.0000001
 43
0.0000001
 44
0.0000000001
 40
0.0
 40
0.0
 40
0.0
 40
0.0
 40
0.0155183102
 40
0.0313974719
 40
0.0479690116
 40
0.0655143786
 40
0.0842562143
 40
0.1043592221
 40
0.125936256
 40
0.1490560133
 40
0.1737506654
 40
0.2000223659
 40
0.2278484704
 40
0.2571855742
 40
0.3201218929
 40
0.3881961438
 40
0.4605809332
 40
0.5363204067
 40
0.6143669827
 40
0.6936134354
 40
0.7729224331
 40
0.8511550796
 40
0.9271989018
 40
1.0
 40
1.0
 40
1.0
 40
1.0
 10
15.8340893112
 20
12.0332172198
 30
0.0
 10
15.8346193596
 20
12.0332172226
 30
0.0
 10
15.8356938509
 20
12.033308147
 30
0.0
 10
15.8372880278
 20
12.0337142279
 30
0.0
 10
15.8388645327
 20
12.0343865089
 30
0.0
 10
15.8404159847
 20
12.0353197601
 30
0.0
 10
15.8419368307
 20
12.0365083717
 30
0.0
 10
15.8434217007
 20
12.0379464815
 30
0.0
 10
15.8448653144
 20
12.0396277615
 30
0.0
 10
15.8462623107
 20
12.0415451573
 30
0.0
 10
15.8476072931
 20
12.0436907552
 30
0.0
 10
15.8488948745
 20
12.0460557105
 30
0.0
 10
15.8501198589
 20
12.048630247
 30
0.0
 10
15.8516998449
 20
12.052417383
 30
0.0
 10
15.8534660452
 20
12.0576087456
 30
0.0
 10
15.8552166791
 20
12.0643370071
 30
0.0
 10
15.8566156885
 20
12.0715925118
 30
0.0
 10
15.8576391323
 20
12.0792535368
 30
0.0
 10
15.8582694046
 20
12.0871917142
 30
0.0
 10
15.8584956617
 20
12.095273468
 30
0.0
 10
15.8583139904
 20
12.1033626723
 30
0.0
 10
15.857727529
 20
12.11132319
 30
0.0
 10
15.8567464217
 20
12.1190206799
 30
0.0
 10
15.8558160476
 20
12.1240225732
 30
0.0
 10
15.8552819523
 20
12.1264511553
 30
0.0
  0
SPLINE
  5
2CA
100
AcDbEntity
  8
LAYER_FEATURE
100
AcDbSpline
 62
7
  6
CONTINUOUS
 70
0
 71
3
 72
15
 73
11
 74
0
 42
0.0000001
 43
0.0000001
 44
0.0000000001
 40
0.0
 40
0.0
 40
0.0
 40
0.0
 40
0.0939540853
 40
0.1940605102
 40
0.3023511653
 40
0.4202550012
 40
0.5486728796
 40
0.6880655194
 40
0.8385634075
 40
1.0
 40
1.0
 40
1.0
 40
1.0
 10
14.6086433311
 20
13.016074404
 30
0.0
 10
14.6091263255
 20
13.016189268
 30
0.0
 10
14.6101020597
 20
13.0165268094
 30
0.0
 10
14.6115032403
 20
13.0173080718
 30
0.0
 10
14.6128705146
 20
13.0183677423
 30
0.0
 10
14.6141967391
 20
13.0196974168
 30
0.0
 10
14.615475747
 20
13.0212885046
 30
0.0
 10
14.6167008431
 20
13.0231314095
 30
0.0
 10
14.6178650878
 20
13.0252150312
 30
0.0
 10
14.6185720403
 20
13.026705401
 30
0.0
 10
14.6189157371
 20
13.0274861494
 30
0.0
  0
SPLINE
  5
2CB
100
AcDbEntity
  8
LAYER_FEATURE
100
AcDbSpline
 62
7
  6
CONTINUOUS
 70
0
 71
3
 72
16
 73
12
 74
0
 42
0.0000001
 43
0.0000001
 44
0.0000000001
 40
0.0
 40
0.0
 40
0.0
 40
0.0
 40
0.0378304144
 40
0.0767954578
 40
0.1616874187
 40
0.2607243238
 40
0.3765946712
 40
0.5098116954
 40
0.6594694072
 40
0.8237012163
 40
1.0
 40
1.0
 40
1.0
 40
1.0
 10
14.5954054596
 20
13.0160899892
 30
0.0
 10
14.5953180374
 20
13.0160899852
 30
0.0
 10
14.5951401392
 20
13.0160728347
 30
0.0
 10
14.5947794536
 20
13.0159684072
 30
0.0
 10
14.594331443
 20
13.0156968962
 30
0.0
 10
14.5938456962
 20
13.015196218
 30
0.0
 10
14.5933969186
 20
13.0145245795
 30
0.0
 10
14.5929921674
 20
13.013694442
 30
0.0
 10
14.5926386424
 20
13.0127219571
 30
0.0
 10
14.5923437939
 20
13.0116270686
 30
0.0
 10
14.5921949901
 20
13.0108535989
 30
0.0
 10
14.5921306915
 20
13.0104512963
 30
0.0
  0
SPLINE
  5
2CC
100
AcDbEntity
  8
02___PRT_ALL_AXES
100
AcDbSpline
 62
7
  6
CONTINUOUS
 70
0
 71
3
 72
14
 73
10
 74
0
 42
0.0000001
 43
0.0000001
 44
0.0000000001
 40
0.0
 40
0.0
 40
0.0
 40
0.0
 40
0.1179235004
 40
0.2360731774
 40
0.3554157795
 40
0.4768825775
 40
0.6013453452
 40
0.7295966885
 40
1.0
 40
1.0
 40
1.0
 40
1.0
 10
15.6561630816
 20
13.1355317874
 30
0.0
 10
15.6592776946
 20
13.1357683477
 30
0.0
 10
15.6655406942
 20
13.1359351526
 30
0.0
 10
15.6749447913
 20
13.1352517594
 30
0.0
 10
15.6843300122
 20
13.1336362361
 30
0.0
 10
15.6936793517
 20
13.1310923466
 30
0.0
 10
15.702979039
 20
13.1276250463
 30
0.0
 10
15.7155088349
 20
13.1216784943
 30
0.0
 10
15.7244643649
 20
13.1159830209
 30
0.0
 10
15.730238704
 20
13.1117452796
 30
0.0
  0
SPLINE
  5
2CD
100
AcDbEntity
  8
LAYER_FEATURE
100
AcDbSpline
 62
7
  6
CONTINUOUS
 70
0
 71
3
 72
9
 73
5
 74
0
 42
0.0000001
 43
0.0000001
 44
0.0000000001
 40
0.0
 40
0.0
 40
0.0
 40
0.0
 40
0.4672689105
 40
1.0
 40
1.0
 40
1.0
 40
1.0
 10
14.6359533762
 20
13.1411184606
 30
0.0
 10
14.6367183852
 20
13.1418911672
 30
0.0
 10
14.6381926766
 20
13.1437074632
 30
0.0
 10
14.6393950179
 20
13.1457065936
 30
0.0
 10
14.6399785976
 20
13.1468003153
 30
0.0
  0
SPLINE
  5
2CE
100
AcDbEntity
  8
LAYER_FEATURE
100
AcDbSpline
 62
7
  6
CONTINUOUS
 70
0
 71
3
 72
15
 73
11
 74
0
 42
0.0000001
 43
0.0000001
 44
0.0000000001
 40
0.0
 40
0.0
 40
0.0
 40
0.0
 40
0.0792340156
 40
0.1659695638
 40
0.2655868737
 40
0.3809211082
 40
0.5128685542
 40
0.6610124024
 40
0.8240365727
 40
1.0
 40
1.0
 40
1.0
 40
1.0
 10
14.6158245785
 20
13.1411475614
 30
0.0
 10
14.6156622293
 20
13.141147577
 30
0.0
 10
14.6153199544
 20
13.1410846255
 30
0.0
 10
14.6148381095
 20
13.1408169539
 30
0.0
 10
14.6143837805
 20
13.140391056
 30
0.0
 10
14.6139600247
 20
13.1398168563
 30
0.0
 10
14.6135712515
 20
13.1391038121
 30
0.0
 10
14.6132234325
 20
13.1382636495
 30
0.0
 10
14.6129225473
 20
13.1373109032
 30
0.0
 10
14.6127622407
 20
13.1366344268
 30
0.0
 10
14.6126900579
 20
13.1362811803
 30
0.0
  0
SPLINE
  5
2CF
100
AcDbEntity
  8
LAYER_FEATURE
100
AcDbSpline
 62
7
  6
CONTINUOUS
 70
0
 71
3
 72
15
 73
11
 74
0
 42
0.0000001
 43
0.0000001
 44
0.0000000001
 40
0.0
 40
0.0
 40
0.0
 40
0.0
 40
0.0823376687
 40
0.1712831955
 40
0.2718025833
 40
0.3867989469
 40
0.5174893999
 40
0.663891442
 40
0.8252018051
 40
1.0
 40
1.0
 40
1.0
 40
1.0
 10
14.6407142895
 20
13.2607455655
 30
0.0
 10
14.6405662425
 20
13.260745564
 30
0.0
 10
14.6402564838
 20
13.2606939497
 30
0.0
 10
14.6398148897
 20
13.2604717796
 30
0.0
 10
14.6393943742
 20
13.2601151822
 30
0.0
 10
14.6389979216
 20
13.2596320226
 30
0.0
 10
14.6386289036
 20
13.2590293038
 30
0.0
 10
14.638291848
 20
13.2583153658
 30
0.0
 10
14.6379915043
 20
13.2575004801
 30
0.0
 10
14.6378247872
 20
13.2569190172
 30
0.0
 10
14.6377475625
 20
13.256614357
 30
0.0
  0
SPLINE
  5
2D0
100
AcDbEntity
  8
02___PRT_ALL_AXES
100
AcDbSpline
 62
7
  6
CONTINUOUS
 70
0
 71
3
 72
20
 73
16
 74
0
 42
0.0000001
 43
0.0000001
 44
0.0000000001
 40
0.0
 40
0.0
 40
0.0
 40
0.0
 40
0.1741642277
 40
0.334739878
 40
0.4804777381
 40
0.5475729062
 40
0.6107691072
 40
0.6701128792
 40
0.7257220128
 40
0.7777993
 40
0.826648637
 40
0.8726895718
 40
0.9164665506
 40
0.9586469739
 40
1.0
 40
1.0
 40
1.0
 40
1.0
 10
15.6124157142
 20
13.1219609567
 30
0.0
 10
15.6118780217
 20
13.1239567217
 30
0.0
 10
15.6107251393
 20
13.1277622855
 30
0.0
 10
15.6086698191
 20
13.1330870176
 30
0.0
 10
15.6067120486
 20
13.1370718161
 30
0.0
 10
15.6050242453
 20
13.1398813869
 30
0.0
 10
15.6037471615
 20
13.1417364708
 30
0.0
 10
15.6024283532
 20
13.1433914296
 30
0.0
 10
15.6010721054
 20
13.1448403548
 30
0.0
 10
15.5996827572
 20
13.1460779327
 30
0.0
 10
15.5982646103
 20
13.1470993583
 30
0.0
 10
15.5968221238
 20
13.1479001931
 30
0.0
 10
15.5953599405
 20
13.1484762442
 30
0.0
 10
15.5938840932
 20
13.1488237269
 30
0.0
 10
15.5928910914
 20
13.148901443
 30
0.0
 10
15.5924003263
 20
13.1489014395
 30
0.0
  0
SPLINE
  5
2D1
100
AcDbEntity
  8
LAYER_FEATURE
100
AcDbSpline
 62
7
  6
CONTINUOUS
 70
0
 71
3
 72
15
 73
11
 74
0
 42
0.0000001
 43
0.0000001
 44
0.0000000001
 40
0.0
 40
0.0
 40
0.0
 40
0.0
 40
0.085851709
 40
0.1774225667
 40
0.2792248012
 40
0.3941414306
 40
0.5236377513
 40
0.6681055709
 40
0.8272097206
 40
1.0
 40
1.0
 40
1.0
 40
1.0
 10
14.6698558607
 20
13.3738329329
 30
0.0
 10
14.6697220177
 20
13.3738329241
 30
0.0
 10
14.6694440208
 20
13.3737913367
 30
0.0
 10
14.6690433612
 20
13.3736102592
 30
0.0
 10
14.668658246
 20
13.373317321
 30
0.0
 10
14.6682915103
 20
13.3729183727
 30
0.0
 10
14.667945747
 20
13.3724185346
 30
0.0
 10
14.6676242859
 20
13.3718235783
 30
0.0
 10
14.6673307796
 20
13.371140524
 30
0.0
 10
14.6671625332
 20
13.3706507059
 30
0.0
 10
14.6670829993
 20
13.3703933342
 30
0.0
  0
SPLINE
  5
2D2
100
AcDbEntity
  8
02___PRT_ALL_AXES
100
AcDbSpline
 62
7
  6
CONTINUOUS
 70
0
 71
3
 72
25
 73
21
 74
0
 42
0.0000001
 43
0.0000001
 44
0.0000000001
 40
0.0
 40
0.0
 40
0.0
 40
0.0
 40
0.0852803564
 40
0.1677109177
 40
0.2471667774
 40
0.323539781
 40
0.3967425453
 40
0.4667107717
 40
0.5334067081
 40
0.5968232068
 40
0.6569886159
 40
0.7139726215
 40
0.7678929929
 40
0.8189231457
 40
0.8673000264
 40
0.913331248
 40
0.9355925621
 40
0.9574174555
 40
0.9788653905
 40
1.0
 40
1.0
 40
1.0
 40
1.0
 10
15.4445025881
 20
13.3462487903
 30
0.0
 10
15.4499303549
 20
13.36381305
 30
0.0
 10
15.4611052993
 20
13.3982027358
 30
0.0
 10
15.4791567238
 20
13.4483427316
 30
0.0
 10
15.4981758868
 20
13.4960642205
 30
0.0
 10
15.5181138409
 20
13.5412443184
 30
0.0
 10
15.5389195792
 20
13.5837674558
 30
0.0
 10
15.5605401339
 20
13.6235250076
 30
0.0
 10
15.5829208655
 20
13.660415686
 30
0.0
 10
15.6060057771
 20
13.6943456934
 30
0.0
 10
15.6297378415
 20
13.7252288193
 30
0.0
 10
15.6540594586
 20
13.752986452
 30
0.0
 10
15.6789124237
 20
13.7775471337
 30
0.0
 10
15.7042394543
 20
13.7988465137
 30
0.0
 10
15.7299792825
 20
13.8168247118
 30
0.0
 10
15.7519712429
 20
13.8291313834
 30
0.0
 10
15.7696593417
 20
13.8371851767
 30
0.0
 10
15.7828367334
 20
13.8423005129
 30
0.0
 10
15.7960619505
 20
13.8465531013
 30
0.0
 10
15.8049628717
 20
13.8488256768
 30
0.0
 10
15.8094106014
 20
13.8498128527
 30
0.0
  0
SPLINE
  5
2D3
100
AcDbEntity
  8
02___PRT_ALL_AXES
100
AcDbSpline
 62
7
  6
CONTINUOUS
 70
0
 71
3
 72
23
 73
19
 74
0
 42
0.0000001
 43
0.0000001
 44
0.0000000001
 40
0.0
 40
0.0
 40
0.0
 40
0.0
 40
0.0174888405
 40
0.0351642968
 40
0.0717309766
 40
0.1110090463
 40
0.1539428288
 40
0.20116057
 40
0.2530211015
 40
0.3096706618
 40
0.3710915029
 40
0.4371387881
 40
0.5075676402
 40
0.5820530739
 40
0.6602052003
 40
0.741581049
 40
0.825695022
 40
1.0
 40
1.0
 40
1.0
 40
1.0
 10
15.6943161978
 20
11.8498116199
 30
0.0
 10
15.6946726536
 20
11.8498116212
 30
0.0
 10
15.6953900566
 20
11.8498522797
 30
0.0
 10
15.6968338654
 20
11.8500977871
 30
0.0
 10
15.6986491749
 20
11.8507269264
 30
0.0
 10
15.7007514123
 20
11.851952182
 30
0.0
 10
15.702792528
 20
11.8536387056
 30
0.0
 10
15.7047608184
 20
11.8557706216
 30
0.0
 10
15.7066452902
 20
11.8583313747
 30
0.0
 10
15.7084337496
 20
11.8613022266
 30
0.0
 10
15.7101137861
 20
11.8646614502
 30
0.0
 10
15.7116731374
 20
11.8683841927
 30
0.0
 10
15.7131001176
 20
11.8724425918
 30
0.0
 10
15.714383871
 20
11.8768060237
 30
0.0
 10
15.7155145259
 20
11.8814413278
 30
0.0
 10
15.7164834342
 20
11.8863133018
 30
0.0
 10
15.7175620987
 20
11.8931557422
 30
0.0
 10
15.7180857782
 20
11.8984028813
 30
0.0
 10
15.718317907
 20
11.9019479561
 30
0.0
  0
SPLINE
  5
2D4
100
AcDbEntity
  8
LAYER_FEATURE
100
AcDbSpline
 62
7
  6
CONTINUOUS
 70
0
 71
3
 72
51
 73
47
 74
0
 42
0.0000001
 43
0.0000001
 44
0.0000000001
 40
0.0
 40
0.0
 40
0.0
 40
0.0
 40
0.0077556045
 40
0.0156732998
 40
0.0237926581
 40
0.0321495096
 40
0.040775698
 40
0.0496990227
 40
0.0589433248
 40
0.0685286716
 40
0.0784715994
 40
0.0887853902
 40
0.0994803527
 40
0.110564095
 40
0.1220417803
 40
0.1339163594
 40
0.1461887832
 40
0.1588581942
 40
0.1719220958
 40
0.1853765009
 40
0.1992160636
 40
0.2134341938
 40
0.228023163
 40
0.2429741988
 40
0.2582775673
 40
0.273922648
 40
0.3061899901
 40
0.3396775223
 40
0.3742745286
 40
0.4098614193
 40
0.446311074
 40
0.4834900841
 40
0.5212598868
 40
0.5594778461
 40
0.597998299
 40
0.6366735601
 40
0.6753549193
 40
0.7138936258
 40
0.7521418733
 40
0.7899537954
 40
0.8271864693
 40
0.863700959
 40
0.8993633916
 40
0.9340460818
 40
0.9676287458
 40
1.0
 40
1.0
 40
1.0
 40
1.0
 10
15.8008810222
 20
11.1736902745
 30
0.0
 10
15.7949864784
 20
11.1749985756
 30
0.0
 10
15.7831798482
 20
11.1781434972
 30
0.0
 10
15.7657033551
 20
11.1843364277
 30
0.0
 10
15.7483237718
 20
11.1920373362
 30
0.0
 10
15.7310624287
 20
11.2012353083
 30
0.0
 10
15.7139379553
 20
11.2119184556
 30
0.0
 10
15.6969691476
 20
11.2240734329
 30
0.0
 10
15.6801743307
 20
11.2376856116
 30
0.0
 10
15.6635716572
 20
11.2527390042
 30
0.0
 10
15.6471790913
 20
11.2692162322
 30
0.0
 10
15.631014455
 20
11.2870984937
 30
0.0
 10
15.6150954164
 20
11.30636553
 30
0.0
 10
15.5994394729
 20
11.3269956034
 30
0.0
 10
15.5840639265
 20
11.3489654864
 30
0.0
 10
15.5689858452
 20
11.3722504554
 30
0.0
 10
15.5542220327
 20
11.3968243038
 30
0.0
 10
15.5397890018
 20
11.4226593662
 30
0.0
 10
15.525702942
 20
11.4497265423
 30
0.0
 10
15.5119796921
 20
11.4779953248
 30
0.0
 10
15.498634715
 20
11.5074338309
 30
0.0
 10
15.4856830663
 20
11.5380088288
 30
0.0
 10
15.4731393676
 20
11.5696857916
 30
0.0
 10
15.4610178323
 20
11.6024288975
 30
0.0
 10
15.4493320664
 20
11.6362012331
 30
0.0
 10
15.4341944788
 20
11.6830339541
 30
0.0
 10
15.4164982281
 20
11.7439028758
 30
0.0
 10
15.3974125328
 20
11.8196787226
 30
0.0
 10
15.3803503432
 20
11.8985811147
 30
0.0
 10
15.3653893016
 20
11.9802529549
 30
0.0
 10
15.3525974252
 20
12.0643255363
 30
0.0
 10
15.3420329584
 20
12.1504186948
 30
0.0
 10
15.3337440125
 20
12.2381430315
 30
0.0
 10
15.3277683177
 20
12.3271015961
 30
0.0
 10
15.3241331092
 20
12.4168917644
 30
0.0
 10
15.3228549484
 20
12.5071070826
 30
0.0
 10
15.3239396397
 20
12.5973391417
 30
0.0
 10
15.3273822612
 20
12.6871794555
 30
0.0
 10
15.3331671262
 20
12.7762213396
 30
0.0
 10
15.3412678706
 20
12.8640617869
 30
0.0
 10
15.3516476193
 20
12.9503033087
 30
0.0
 10
15.3642591071
 20
13.0345558348
 30
0.0
 10
15.3790448803
 20
13.1164383183
 30
0.0
 10
15.3959378151
 20
13.1955812211
 30
0.0
 10
15.4148606616
 20
13.2716257819
 30
0.0
 10
15.429048086
 20
13.3209890316
 30
0.0
 10
15.4364889292
 20
13.345067609
 30
0.0
  0
SPLINE
  5
2D5
100
AcDbEntity
  8
02___PRT_ALL_AXES
100
AcDbSpline
 62
7
  6
CONTINUOUS
 70
0
 71
3
 72
51
 73
47
 74
0
 42
0.0000001
 43
0.0000001
 44
0.0000000001
 40
0.0
 40
0.0
 40
0.0
 40
0.0
 40
0.0077556045
 40
0.0156732998
 40
0.0237926581
 40
0.0321495096
 40
0.040775698
 40
0.0496990227
 40
0.0589433248
 40
0.0685286716
 40
0.0784715994
 40
0.0887853902
 40
0.0994803527
 40
0.110564095
 40
0.1220417803
 40
0.1339163594
 40
0.1461887832
 40
0.1588581942
 40
0.1719220958
 40
0.1853765009
 40
0.1992160636
 40
0.2134341938
 40
0.228023163
 40
0.2429741988
 40
0.2582775673
 40
0.273922648
 40
0.3061899901
 40
0.3396775223
 40
0.3742745286
 40
0.4098614193
 40
0.446311074
 40
0.4834900841
 40
0.5212598868
 40
0.5594778461
 40
0.597998299
 40
0.6366735601
 40
0.6753549193
 40
0.7138936258
 40
0.7521418733
 40
0.7899537954
 40
0.8271864693
 40
0.863700959
 40
0.8993633916
 40
0.9340460818
 40
0.9676287458
 40
1.0
 40
1.0
 40
1.0
 40
1.0
 10
15.8094106015
 20
11.1717971359
 30
0.0
 10
15.803507712
 20
11.1731072893
 30
0.0
 10
15.7916843654
 20
11.1762566636
 30
0.0
 10
15.7741831285
 20
11.1824583623
 30
0.0
 10
15.7567789385
 20
11.190170174
 30
0.0
 10
15.7394931561
 20
11.199381169
 30
0.0
 10
15.7223444372
 20
11.2100794418
 30
0.0
 10
15.7053516044
 20
11.2222516287
 30
0.0
 10
15.6885330088
 20
11.23588308
 30
0.0
 10
15.6719068285
 20
11.2509577858
 30
0.0
 10
15.6554910534
 20
11.2674583429
 30
0.0
 10
15.6393035306
 20
11.2853659228
 30
0.0
 10
15.6233619532
 20
11.3046602381
 30
0.0
 10
15.6076838434
 20
11.3253195204
 30
0.0
 10
15.5922865277
 20
11.3473205092
 30
0.0
 10
15.5771870984
 20
11.3706384459
 30
0.0
 10
15.5624023827
 20
11.3952470869
 30
0.0
 10
15.5479489169
 20
11.4211187276
 30
0.0
 10
15.5338429135
 20
11.4482242264
 30
0.0
 10
15.5201002337
 20
11.476533033
 30
0.0
 10
15.5067363623
 20
11.5060132192
 30
0.0
 10
15.4937663761
 20
11.5366315065
 30
0.0
 10
15.4812049175
 20
11.5683533187
 30
0.0
 10
15.4690662202
 20
11.6011427836
 30
0.0
 10
15.4573639091
 20
11.6349629353
 30
0.0
 10
15.4422048891
 20
11.6818619639
 30
0.0
 10
15.4244835834
 20
11.7428170662
 30
0.0
 10
15.4053708658
 20
11.8187001993
 30
0.0
 10
15.3882845189
 20
11.8977143044
 30
0.0
 10
15.3733022949
 20
11.9795017788
 30
0.0
 10
15.3604923072
 20
12.0636933934
 30
0.0
 10
15.3499128829
 20
12.149908446
 30
0.0
 10
15.3416122012
 20
12.2377569861
 30
0.0
 10
15.3356280458
 20
12.3268415018
 30
0.0
 10
15.3319876904
 20
12.4167587984
 30
0.0
 10
15.3307077199
 20
12.507101847
 30
0.0
 10
15.3317939469
 20
12.5974616601
 30
0.0
 10
15.3352414427
 20
12.6874291733
 30
0.0
 10
15.3410344981
 20
12.7765971263
 30
0.0
 10
15.3491467118
 20
12.8645619415
 30
0.0
 10
15.3595411566
 20
12.9509255674
 30
0.0
 10
15.3721705002
 20
13.0352973815
 30
0.0
 10
15.3869772076
 20
13.1172957974
 30
0.0
 10
15.4038940601
 20
13.1965507537
 30
0.0
 10
15.4228436984
 20
13.2727029814
 30
0.0
 10
15.4370512099
 20
13.3221361215
 30
0.0
 10
15.4445025881
 20
13.3462487903
 30
0.0
  0
SPLINE
  5
2D6
100
AcDbEntity
  8
LAYER_FEATURE
100
AcDbSpline
 62
7
  6
CONTINUOUS
 70
0
 71
3
 72
25
 73
21
 74
0
 42
0.0000001
 43
0.0000001
 44
0.0000000001
 40
0.0
 40
0.0
 40
0.0
 40
0.0
 40
0.0852803564
 40
0.1677109177
 40
0.2471667774
 40
0.323539781
 40
0.3967425453
 40
0.4667107717
 40
0.5334067081
 40
0.5968232068
 40
0.6569886159
 40
0.7139726215
 40
0.7678929929
 40
0.8189231457
 40
0.8673000264
 40
0.913331248
 40
0.9355925621
 40
0.9574174555
 40
0.9788653905
 40
1.0
 40
1.0
 40
1.0
 40
1.0
 10
15.4364889292
 20
13.345067609
 30
0.0
 10
15.441909022
 20
13.3626070357
 30
0.0
 10
15.453068167
 20
13.3969481002
 30
0.0
 10
15.4710940696
 20
13.4470172062
 30
0.0
 10
15.4900863426
 20
13.4946712247
 30
0.0
 10
15.5099961077
 20
13.5397874453
 30
0.0
 10
15.5307724301
 20
13.5822504619
 30
0.0
 10
15.5523624169
 20
13.621951803
 30
0.0
 10
15.5747115058
 20
13.6587903241
 30
0.0
 10
15.5977637791
 20
13.6926723599
 30
0.0
 10
15.6214622902
 20
13.7235118222
 30
0.0
 10
15.6457495205
 20
13.75123021
 30
0.0
 10
15.6705673476
 20
13.775756167
 30
0.0
 10
15.6958585698
 20
13.7970254331
 30
0.0
 10
15.7215620062
 20
13.814978213
 30
0.0
 10
15.7435228735
 20
13.8272674849
 30
0.0
 10
15.7611859642
 20
13.8353098915
 30
0.0
 10
15.7743447252
 20
13.8404179954
 30
0.0
 10
15.787551244
 20
13.8446645714
 30
0.0
 10
15.7964395808
 20
13.8469339339
 30
0.0
 10
15.8008810221
 20
13.847919714
 30
0.0
  0
SPLINE
  5
2D7
100
AcDbEntity
  8
02___PRT_ALL_AXES
100
AcDbSpline
 62
7
  6
CONTINUOUS
 70
0
 71
3
 72
64
 73
60
 74
0
 42
0.0000001
 43
0.0000001
 44
0.0000000001
 40
0.0
 40
0.0
 40
0.0
 40
0.0
 40
0.0114383711
 40
0.0223684773
 40
0.0328126501
 40
0.0428001266
 40
0.0523677453
 40
0.061560521
 40
0.0704319557
 40
0.079043901
 40
0.0874658158
 40
0.0957732917
 40
0.1040458678
 40
0.1123643281
 40
0.120807824
 40
0.1294512251
 40
0.1383630219
 40
0.1476039572
 40
0.1523655194
 40
0.1572282676
 40
0.1672760332
 40
0.1777849162
 40
0.1887831674
 40
0.2002922351
 40
0.2123274971
 40
0.2248989483
 40
0.2380118395
 40
0.2516672332
 40
0.2658624872
 40
0.2805916809
 40
0.2958459699
 40
0.3116138985
 40
0.3278816708
 40
0.3446333765
 40
0.361851201
 40
0.3795156032
 40
0.3976054726
 40
0.4160982796
 40
0.4349702025
 40
0.4541962493
 40
0.4737503731
 40
0.4936055732
 40
0.5137339985
 40
0.5546938575
 40
0.5963952995
 40
0.6385941417
 40
0.6810410457
 40
0.7234841309
 40
0.7656715554
 40
0.8073540983
 40
0.8482877747
 40
0.8684004632
 40
0.8882382181
 40
0.9077732364
 40
0.9269785725
 40
0.945828241
 40
0.9642973189
 40
0.9823620292
 40
1.0
 40
1.0
 40
1.0
 40
1.0
 10
15.6386724754
 20
13.6986409608
 30
0.0
 10
15.6449804238
 20
13.7061981949
 30
0.0
 10
15.6577068093
 20
13.7206574426
 30
0.0
 10
15.6775874639
 20
13.7407358824
 30
0.0
 10
15.6977863064
 20
13.7586683499
 30
0.0
 10
15.7182698177
 20
13.7744216515
 30
0.0
 10
15.7390049214
 20
13.78796644
 30
0.0
 10
15.7599576123
 20
13.7992757726
 30
0.0
 10
15.7810926606
 20
13.8083254545
 30
0.0
 10
15.8023729287
 20
13.8150942233
 30
0.0
 10
15.8237588179
 20
13.8195645738
 30
0.0
 10
15.8452081678
 20
13.8217239342
 30
0.0
 10
15.8666768631
 20
13.8215658449
 30
0.0
 10
15.888120131
 20
13.8190907915
 30
0.0
 10
15.9094940151
 20
13.8143061462
 30
0.0
 10
15.9307568672
 20
13.8072251154
 30
0.0
 10
15.9518687284
 20
13.7978662259
 30
0.0
 10
15.9691332374
 20
13.7882824786
 30
0.0
 10
15.9828204541
 20
13.7795438499
 30
0.0
 10
15.9967204103
 20
13.7698719397
 30
0.0
 10
16.0139440087
 20
13.7563500821
 30
0.0
 10
16.0341007783
 20
13.7381234382
 30
0.0
 10
16.053936173
 20
13.7177542985
 30
0.0
 10
16.0734166848
 20
13.695279256
 30
0.0
 10
16.0925102441
 20
13.6707372628
 30
0.0
 10
16.1111847618
 20
13.6441709179
 30
0.0
 10
16.1294086408
 20
13.6156261587
 30
0.0
 10
16.147150777
 20
13.5851523698
 30
0.0
 10
16.1643807192
 20
13.5528023218
 30
0.0
 10
16.1810687252
 20
13.5186320977
 30
0.0
 10
16.1971858913
 20
13.4827010215
 30
0.0
 10
16.212704219
 20
13.4450715514
 30
0.0
 10
16.2275966746
 20
13.4058091657
 30
0.0
 10
16.2418372885
 20
13.3649822562
 30
0.0
 10
16.255401183
 20
13.3226619934
 30
0.0
 10
16.2682646366
 20
13.2789222004
 30
0.0
 10
16.2804051494
 20
13.233839223
 30
0.0
 10
16.2918014577
 20
13.187491783
 30
0.0
 10
16.3024335999
 20
13.1399608471
 30
0.0
 10
16.3122829578
 20
13.0913294612
 30
0.0
 10
16.3213322346
 20
13.0416826702
 30
0.0
 10
16.3295656729
 20
12.9911071001
 30
0.0
 10
16.3394934484
 20
12.9221548042
 30
0.0
 10
16.3497350572
 20
12.8342686097
 30
0.0
 10
16.3585100184
 20
12.7271528399
 30
0.0
 10
16.3637781548
 20
12.6185260701
 30
0.0
 10
16.3655023952
 20
12.5091475016
 30
0.0
 10
16.3636705632
 20
12.3997805047
 30
0.0
 10
16.3582955926
 20
12.2911883654
 30
0.0
 10
16.3494153082
 20
12.1841300409
 30
0.0
 10
16.3390868349
 20
12.0963066724
 30
0.0
 10
16.3290906404
 20
12.0274158775
 30
0.0
 10
16.3208073762
 20
11.9768940346
 30
0.0
 10
16.3117091919
 20
11.9273062761
 30
0.0
 10
16.3018119318
 20
11.8787391157
 30
0.0
 10
16.2911329838
 20
11.8312775096
 30
0.0
 10
16.2796910182
 20
11.7850043077
 30
0.0
 10
16.2675061862
 20
11.7400006575
 30
0.0
 10
16.2587941223
 20
11.7105323153
 30
0.0
 10
16.2543124835
 20
11.696029727
 30
0.0
  0
SPLINE
  5
2D8
100
AcDbEntity
  8
LAYER_FEATURE
100
AcDbSpline
 62
7
  6
CONTINUOUS
 70
0
 71
3
 72
78
 73
74
 74
0
 42
0.0000001
 43
0.0000001
 44
0.0000000001
 40
0.0
 40
0.0
 40
0.0
 40
0.0
 40
0.0178417771
 40
0.036184308
 40
0.0549960808
 40
0.0742433104
 40
0.0938904899
 40
0.1139004766
 40
0.1342347105
 40
0.1548533965
 40
0.1757156792
 40
0.1967798107
 40
0.2180033134
 40
0.2393431404
 40
0.260755834
 40
0.2821976795
 40
0.3036248596
 40
0.3249936089
 40
0.3462603675
 40
0.3673819354
 40
0.3883156291
 40
0.4090194414
 40
0.4294522035
 40
0.4495737507
 40
0.4693450949
 40
0.4887286048
 40
0.507688199
 40
0.5261895461
 40
0.5442002824
 40
0.5616902516
 40
0.5786317732
 40
0.5949999412
 40
0.6107729631
 40
0.6259325542
 40
0.6404644026
 40
0.6543587197
 40
0.6676108899
 40
0.6802222479
 40
0.6922010055
 40
0.7035633435
 40
0.7143346582
 40
0.7245509236
 40
0.7342600663
 40
0.7435231463
 40
0.748011933
 40
0.7524184428
 40
0.7567541276
 40
0.7610311788
 40
0.7652624426
 40
0.7694612945
 40
0.7736415008
 40
0.7778170574
 40
0.7820020181
 40
0.7862103193
 40
0.7904556124
 40
0.7947511095
 40
0.7991094446
 40
0.8035425712
 40
0.812673927
 40
0.822228128
 40
0.8322707595
 40
0.8428539784
 40
0.8540175632
 40
0.8657902538
 40
0.8781911341
 40
0.8912309223
 40
0.9049131167
 40
0.9192349766
 40
0.9341883465
 40
0.9497603426
 40
0.9659339573
 40
0.9826884321
 40
1.0
 40
1.0
 40
1.0
 40
1.0
 10
15.3952041026
 20
13.4291972403
 30
0.0
 10
15.3892657617
 20
13.4099807619
 30
0.0
 10
15.3777834042
 20
13.3708330805
 30
0.0
 10
15.3619326178
 20
13.3108894723
 30
0.0
 10
15.3472443362
 20
13.2490208566
 30
0.0
 10
15.333754178
 20
13.1853763928
 30
0.0
 10
15.3214946358
 20
13.120108919
 30
0.0
 10
15.3104953099
 20
13.0533753743
 30
0.0
 10
15.3007827367
 20
12.9853362302
 30
0.0
 10
15.2923803636
 20
12.9161551488
 30
0.0
 10
15.2853084779
 20
12.8459985626
 30
0.0
 10
15.2795841618
 20
12.7750352767
 30
0.0
 10
15.2752212326
 20
12.7034360579
 30
0.0
 10
15.272230222
 20
12.6313732172
 30
0.0
 10
15.2706183532
 20
12.5590201901
 30
0.0
 10
15.270389523
 20
12.4865511166
 30
0.0
 10
15.2715442873
 20
12.4141404184
 30
0.0
 10
15.2740798507
 20
12.3419623757
 30
0.0
 10
15.2779900889
 20
12.2701907034
 30
0.0
 10
15.2832655607
 20
12.1989981307
 30
0.0
 10
15.2898935344
 20
12.1285559817
 30
0.0
 10
15.297858003
 20
12.0590337559
 30
0.0
 10
15.3071397325
 20
11.9905987161
 30
0.0
 10
15.3177163154
 20
11.9234154826
 30
0.0
 10
15.3295622258
 20
11.8576456321
 30
0.0
 10
15.3426488821
 20
11.7934472987
 30
0.0
 10
15.3569447056
 20
11.7309747811
 30
0.0
 10
15.3724152204
 20
11.670378165
 30
0.0
 10
15.3890231417
 20
11.6118029542
 30
0.0
 10
15.4067284827
 20
11.5553897059
 30
0.0
 10
15.4254886542
 20
11.5012736707
 30
0.0
 10
15.4452585949
 20
11.4495844493
 30
0.0
 10
15.4659909262
 20
11.4004456712
 30
0.0
 10
15.4876361131
 20
11.3539746835
 30
0.0
 10
15.5101426553
 20
11.3102822561
 30
0.0
 10
15.5334572864
 20
11.2694723063
 30
0.0
 10
15.5575252446
 20
11.2316416914
 30
0.0
 10
15.5822905705
 20
11.1968800583
 30
0.0
 10
15.6076964025
 20
11.1652698064
 30
0.0
 10
15.6336854069
 20
11.1368861339
 30
0.0
 10
15.6601996501
 20
11.1117974762
 30
0.0
 10
15.6871820344
 20
11.0900655852
 30
0.0
 10
15.7145713102
 20
11.0717479646
 30
0.0
 10
15.7379327974
 20
11.0592401785
 30
0.0
 10
15.7567103822
 20
11.0510678288
 30
0.0
 10
15.7707039521
 20
11.0458820526
 30
0.0
 10
15.7847447035
 20
11.041580289
 30
0.0
 10
15.7988243334
 20
11.0381654313
 30
0.0
 10
15.8129339401
 20
11.0356399282
 30
0.0
 10
15.827064642
 20
11.0340056552
 30
0.0
 10
15.8412074191
 20
11.0332638584
 30
0.0
 10
15.8553532014
 20
11.0334150316
 30
0.0
 10
15.8694929032
 20
11.0344591429
 30
0.0
 10
15.8836174641
 20
11.036395341
 30
0.0
 10
15.8977179294
 20
11.0392222147
 30
0.0
 10
15.9117853165
 20
11.0429376756
 30
0.0
 10
15.9258112534
 20
11.0475392232
 30
0.0
 10
15.944628058
 20
11.0549229674
 30
0.0
 10
15.9680618194
 20
11.0664500883
 30
0.0
 10
15.9955732167
 20
11.0836273453
 30
0.0
 10
16.022697415
 20
11.1042363748
 30
0.0
 10
16.0493726827
 20
11.1282214549
 30
0.0
 10
16.0755418398
 20
11.1555227236
 30
0.0
 10
16.1011468826
 20
11.1860739139
 30
0.0
 10
16.1261303537
 20
11.2198021465
 30
0.0
 10
16.1504351741
 20
11.2566274104
 30
0.0
 10
16.1740050571
 20
11.2964624593
 30
0.0
 10
16.1967848092
 20
11.3392128042
 30
0.0
 10
16.2187206385
 20
11.38477685
 30
0.0
 10
16.2397604362
 20
11.4330460441
 30
0.0
 10
16.2598539954
 20
11.4839052665
 30
0.0
 10
16.2789531123
 20
11.5372324459
 30
0.0
 10
16.2908051447
 20
11.5737673288
 30
0.0
 10
16.2965670142
 20
11.5924127455
 30
0.0
  0
SPLINE
  5
2D9
100
AcDbEntity
  8
LAYER_FEATURE
100
AcDbSpline
 62
7
  6
CONTINUOUS
 70
0
 71
3
 72
54
 73
50
 74
0
 42
0.0000001
 43
0.0000001
 44
0.0000000001
 40
0.0
 40
0.0
 40
0.0
 40
0.0
 40
0.033050083
 40
0.0673809185
 40
0.1028689289
 40
0.1393805316
 40
0.1767738169
 40
0.214899975
 40
0.25360464
 40
0.2927291642
 40
0.332111844
 40
0.3715891171
 40
0.410996745
 40
0.4501709878
 40
0.4889497822
 40
0.5271739364
 40
0.5646883543
 40
0.6013432993
 40
0.6369957232
 40
0.6544041331
 40
0.6715120654
 40
0.6883041813
 40
0.7047658546
 40
0.7208832311
 40
0.736643294
 40
0.752033935
 40
0.7670440316
 40
0.7816635337
 40
0.7958835599
 40
0.8096965037
 40
0.823096154
 40
0.8360778312
 40
0.8486385411
 40
0.8607771508
 40
0.8724945867
 40
0.88379406
 40
0.8946813196
 40
0.905164933
 40
0.915256592
 40
0.9249714402
 40
0.9343284073
 40
0.9433505317
 40
0.9520652404
 40
0.9605045434
 40
0.9687050901
 40
0.9767080295
 40
0.9845586187
 40
0.9923055502
 40
1.0
 40
1.0
 40
1.0
 40
1.0
 10
15.3859102239
 20
13.4820705683
 30
0.0
 10
15.3768940368
 20
13.4528941762
 30
0.0
 10
15.359739525
 20
13.3930257704
 30
0.0
 10
15.3369791045
 20
13.300722158
 30
0.0
 10
15.3167821091
 20
13.2045536039
 30
0.0
 10
15.2992484469
 20
13.1049915251
 30
0.0
 10
15.2844642733
 20
13.0025217819
 30
0.0
 10
15.2725024427
 20
12.8976455452
 30
0.0
 10
15.2634218721
 20
12.7908758067
 30
0.0
 10
15.2572673132
 20
12.6827350647
 30
0.0
 10
15.2540691056
 20
12.5737526367
 30
0.0
 10
15.2538430103
 20
12.4644620392
 30
0.0
 10
15.2565901354
 20
12.3553983201
 30
0.0
 10
15.2622969408
 20
12.2470954039
 30
0.0
 10
15.2709353075
 20
12.1400834019
 30
0.0
 10
15.2824626666
 20
12.0348860811
 30
0.0
 10
15.296822219
 20
11.9320178194
 30
0.0
 10
15.3139432213
 20
11.8319825489
 30
0.0
 10
15.3305709554
 20
11.7507539782
 30
0.0
 10
15.3452230068
 20
11.6875935659
 30
0.0
 10
15.3567588701
 20
11.6416075368
 30
0.0
 10
15.3689141678
 20
11.5966869307
 30
0.0
 10
15.3816740892
 20
11.5528866189
 30
0.0
 10
15.3950229617
 20
11.5102602464
 30
0.0
 10
15.4089444308
 20
11.4688599637
 30
0.0
 10
15.4234214407
 20
11.4287364137
 30
0.0
 10
15.4384362693
 20
11.3899386541
 30
0.0
 10
15.4539705518
 20
11.3525140986
 30
0.0
 10
15.4700053056
 20
11.3165084541
 30
0.0
 10
15.4865209634
 20
11.2819656658
 30
0.0
 10
15.5034974047
 20
11.2489278633
 30
0.0
 10
15.5209139912
 20
11.2174353101
 30
0.0
 10
15.5387496034
 20
11.1875263574
 30
0.0
 10
15.5569826823
 20
11.1592374028
 30
0.0
 10
15.5755912724
 20
11.1326028568
 30
0.0
 10
15.5945530691
 20
11.1076551176
 30
0.0
 10
15.6138454626
 20
11.084424555
 30
0.0
 10
15.6334455846
 20
11.0629395127
 30
0.0
 10
15.6533303481
 20
11.0432263293
 30
0.0
 10
15.6734764705
 20
11.0253093761
 30
0.0
 10
15.6938604731
 20
11.0092111133
 30
0.0
 10
15.714458639
 20
10.9949521561
 30
0.0
 10
15.7352469276
 20
10.9825513348
 30
0.0
 10
15.7562008019
 20
10.9720257209
 30
0.0
 10
15.7772951053
 20
10.9633905769
 30
0.0
 10
15.7985035616
 20
10.956659192
 30
0.0
 10
15.8197996326
 20
10.9518425892
 30
0.0
 10
15.8411527801
 20
10.948949127
 30
0.0
 10
15.8554285941
 20
10.9483049958
 30
0.0
 10
15.8625381405
 20
10.9483050017
 30
0.0
  0
SPLINE
  5
2DA
100
AcDbEntity
  8
02___PRT_ALL_AXES
100
AcDbSpline
 62
7
  6
CONTINUOUS
 70
0
 71
3
 72
53
 73
49
 74
0
 42
0.0000001
 43
0.0000001
 44
0.0000000001
 40
0.0
 40
0.0
 40
0.0
 40
0.0
 40
0.0076944604
 40
0.0154414027
 40
0.0232920028
 40
0.0312949534
 40
0.0394955115
 40
0.0479348259
 40
0.0566495463
 40
0.0656716827
 40
0.0750286624
 40
0.084743524
 40
0.0948351972
 40
0.1053188254
 40
0.1162061005
 40
0.1275055896
 40
0.1392230413
 40
0.1513616671
 40
0.1639223937
 40
0.1769040884
 40
0.1903037572
 40
0.2041167204
 40
0.218336767
 40
0.2329562898
 40
0.2479664069
 40
0.2633570684
 40
0.2791171523
 40
0.2952345504
 40
0.3116962463
 40
0.3284883858
 40
0.3630034028
 40
0.3986558752
 40
0.4353108696
 40
0.4728253393
 40
0.5110495468
 40
0.5498283942
 40
0.5890026906
 40
0.6284103728
 40
0.6678877002
 40
0.707270434
 40
0.7463950122
 40
0.7850997305
 40
0.8232259406
 40
0.8606192771
 40
0.8971309309
 40
0.932618994
 40
0.9669499047
 40
1.0
 40
1.0
 40
1.0
 40
1.0
 10
15.8399721462
 20
13.8058049915
 30
0.0
 10
15.8458645383
 20
13.8058049879
 30
0.0
 10
15.8576963331
 20
13.8052711446
 30
0.0
 10
15.8753938218
 20
13.8028730368
 30
0.0
 10
15.8930440055
 20
13.7988810356
 30
0.0
 10
15.9106215738
 20
13.7933020614
 30
0.0
 10
15.9281045321
 20
13.7861452531
 30
0.0
 10
15.9454711034
 20
13.7774216254
 30
0.0
 10
15.9627004373
 20
13.7671438265
 30
0.0
 10
15.9797721975
 20
13.7553260044
 30
0.0
 10
15.9966664592
 20
13.7419837651
 30
0.0
 10
16.0133635656
 20
13.7271341943
 30
0.0
 10
16.0298440575
 20
13.7107959069
 30
0.0
 10
16.0460886383
 20
13.6929891023
 30
0.0
 10
16.0620781734
 20
13.6737356102
 30
0.0
 10
16.0777937099
 20
13.653058923
 30
0.0
 10
16.0932165099
 20
13.6309842121
 30
0.0
 10
16.1083280863
 20
13.6075383282
 30
0.0
 10
16.1231102424
 20
13.5827497898
 30
0.0
 10
16.1375451097
 20
13.5566487627
 30
0.0
 10
16.1516151845
 20
13.5292670318
 30
0.0
 10
16.1653033613
 20
13.5006379675
 30
0.0
 10
16.178592964
 20
13.4707964871
 30
0.0
 10
16.191467776
 20
13.4397790138
 30
0.0
 10
16.2039120666
 20
13.4076234305
 30
0.0
 10
16.2159106123
 20
13.3743690349
 30
0.0
 10
16.227448731
 20
13.3400564782
 30
0.0
 10
16.2385122622
 20
13.3047277581
 30
0.0
 10
16.2490877444
 20
13.2684259975
 30
0.0
 10
16.262643836
 20
13.2183278661
 30
0.0
 10
16.2782388795
 20
13.1535701886
 30
0.0
 10
16.2946476044
 20
13.0734135262
 30
0.0
 10
16.3088375086
 20
12.9905036677
 30
0.0
 10
16.320738701
 20
12.9052466262
 30
0.0
 10
16.3302925727
 20
12.8180590373
 30
0.0
 10
16.3374520519
 20
12.7293675032
 30
0.0
 10
16.3421818567
 20
12.639606043
 30
0.0
 10
16.3444586728
 20
12.5492140334
 30
0.0
 10
16.3442712813
 20
12.4586339857
 30
0.0
 10
16.3416206071
 20
12.3683093491
 30
0.0
 10
16.3365197127
 20
12.2786823015
 30
0.0
 10
16.328993735
 20
12.1901915421
 30
0.0
 10
16.3190797672
 20
12.1032701177
 30
0.0
 10
16.3068266436
 20
12.0183431943
 30
0.0
 10
16.2922947464
 20
11.9358261392
 30
0.0
 10
16.275555472
 20
11.8561216166
 30
0.0
 10
16.2566916275
 20
11.7796203854
 30
0.0
 10
16.2424739719
 20
11.7300014537
 30
0.0
 10
16.2350013635
 20
11.705820084
 30
0.0
  0
SPLINE
  5
2DB
100
AcDbEntity
  8
LAYER_CUT_FEAT
100
AcDbSpline
 62
7
  6
CONTINUOUS
 70
0
 71
3
 72
24
 73
20
 74
0
 42
0.0000001
 43
0.0000001
 44
0.0000000001
 40
0.0
 40
0.0
 40
0.0
 40
0.0
 40
0.1683770778
 40
0.2515273061
 40
0.3329843864
 40
0.4120376192
 40
0.4880154937
 40
0.5603001077
 40
0.628342747
 40
0.6916827425
 40
0.7499716235
 40
0.8030060514
 40
0.8507743729
 40
0.8935233225
 40
0.9318482286
 40
0.949685595
 40
0.9668494371
 40
0.9835449429
 40
1.0
 40
1.0
 40
1.0
 40
1.0
 10
15.7735438863
 20
13.0680889102
 30
0.0
 10
15.7736697655
 20
13.0723652167
 30
0.0
 10
15.7736028794
 20
13.078764842
 30
0.0
 10
15.7730017178
 20
13.0872056091
 30
0.0
 10
15.7723038365
 20
13.0933591746
 30
0.0
 10
15.7713648847
 20
13.0992961448
 30
0.0
 10
15.7701947814
 20
13.1049544347
 30
0.0
 10
15.7688060019
 20
13.1102747649
 30
0.0
 10
15.7672132337
 20
13.1152017321
 30
0.0
 10
15.7654331771
 20
13.1196843944
 30
0.0
 10
15.7634840599
 20
13.1236769796
 30
0.0
 10
15.7613852604
 20
13.1271393738
 30
0.0
 10
15.7591554817
 20
13.1300376456
 30
0.0
 10
15.7568138019
 20
13.1323424713
 30
0.0
 10
15.754730789
 20
13.1337802103
 30
0.0
 10
15.7530416014
 20
13.1345747801
 30
0.0
 10
15.751792738
 20
13.1349923838
 30
0.0
 10
15.7505359028
 20
13.135243783
 30
0.0
 10
15.7496925718
 20
13.1352998881
 30
0.0
 10
15.7492744784
 20
13.1352998857
 30
0.0
  0
SPLINE
  5
2DC
100
AcDbEntity
  8
02___PRT_ALL_AXES
100
AcDbSpline
 62
7
  6
CONTINUOUS
 70
0
 71
3
 72
23
 73
19
 74
0
 42
0.0000001
 43
0.0000001
 44
0.0000000001
 40
0.0
 40
0.0
 40
0.0
 40
0.0
 40
0.0673244234
 40
0.1317114216
 40
0.1935215978
 40
0.2531835609
 40
0.3111911296
 40
0.3680945506
 40
0.4244851776
 40
0.4809744864
 40
0.5381700248
 40
0.5966519907
 40
0.6569538405
 40
0.7195490638
 40
0.7848444786
 40
0.8531789978
 40
0.9248263322
 40
1.0
 40
1.0
 40
1.0
 40
1.0
 10
15.5384766875
 20
11.4816097548
 30
0.0
 10
15.5442409757
 20
11.4769974834
 30
0.0
 10
15.5558582837
 20
11.4683868419
 30
0.0
 10
15.5739186109
 20
11.4571965144
 30
0.0
 10
15.5921706962
 20
11.4480609234
 30
0.0
 10
15.6105787681
 20
11.4410040531
 30
0.0
 10
15.6291061757
 20
11.4360454648
 30
0.0
 10
15.6477129857
 20
11.4332006979
 30
0.0
 10
15.666356702
 20
11.4324793999
 30
0.0
 10
15.6849933124
 20
11.433884113
 30
0.0
 10
15.7035791161
 20
11.4374099052
 30
0.0
 10
15.7220723639
 20
11.4430451068
 30
0.0
 10
15.7404341477
 20
11.4507726744
 30
0.0
 10
15.758628379
 20
11.4605716753
 30
0.0
 10
15.7766210669
 20
11.4724181805
 30
0.0
 10
15.7943798447
 20
11.4862859336
 30
0.0
 10
15.8118721575
 20
11.5021450572
 30
0.0
 10
15.823060285
 20
11.5137394735
 30
0.0
 10
15.8286062512
 20
11.5198379391
 30
0.0
  0
SPLINE
  5
2DD
100
AcDbEntity
  8
LAYER_FEATURE
100
AcDbSpline
 62
7
  6
CONTINUOUS
 70
0
 71
3
 72
31
 73
27
 74
0
 42
0.0000001
 43
0.0000001
 44
0.0000000001
 40
0.0
 40
0.0
 40
0.0
 40
0.0
 40
0.0216861085
 40
0.0434597092
 40
0.0654070009
 40
0.087611657
 40
0.1101537606
 40
0.1331089192
 40
0.1565475653
 40
0.1805345306
 40
0.2303663331
 40
0.2830248184
 40
0.3388198474
 40
0.3679728878
 40
0.3979889873
 40
0.4288854047
 40
0.4606755403
 40
0.4933691779
 40
0.5269728243
 40
0.5614899594
 40
0.5969212137
 40
0.670510639
 40
0.7477037779
 40
0.8284240901
 40
0.912565996
 40
1.0
 40
1.0
 40
1.0
 40
1.0
 10
15.1245380191
 20
13.9664299843
 30
0.0
 10
15.1194521779
 20
13.9664299888
 30
0.0
 10
15.1092564909
 20
13.9660771009
 30
0.0
 10
15.0939879553
 20
13.9644907249
 30
0.0
 10
15.0787424482
 20
13.9618483668
 30
0.0
 10
15.0635326267
 20
13.9581525129
 30
0.0
 10
15.0483696977
 20
13.9534064442
 30
0.0
 10
15.0332651134
 20
13.9476143073
 30
0.0
 10
15.0182295219
 20
13.9407807975
 30
0.0
 10
14.998034806
 20
13.930155078
 30
0.0
 10
14.9729793398
 20
13.9141669692
 30
0.0
 10
14.9437725837
 20
13.8911727948
 30
0.0
 10
14.9202434595
 20
13.8690270966
 30
0.0
 10
14.9017113838
 20
13.8494379738
 30
0.0
 10
14.8877707836
 20
13.8335628916
 30
0.0
 10
14.8740026433
 20
13.8167321837
 30
0.0
 10
14.860416359
 20
13.7989574432
 30
0.0
 10
14.8470216772
 20
13.7802516423
 30
0.0
 10
14.8338281594
 20
13.7606282286
 30
0.0
 10
14.8208451401
 20
13.7401012513
 30
0.0
 10
14.8036101752
 20
13.7111815764
 30
0.0
 10
14.7826928068
 20
13.6728247596
 30
0.0
 10
14.7588875633
 20
13.6240115815
 30
0.0
 10
14.736137403
 20
13.5719860886
 30
0.0
 10
14.7145079583
 20
13.5168989658
 30
0.0
 10
14.7011250818
 20
13.4789419981
 30
0.0
 10
14.6946180435
 20
13.4594967701
 30
0.0
  0
SPLINE
  5
2DE
100
AcDbEntity
  8
02___PRT_ALL_AXES
100
AcDbSpline
 62
7
  6
CONTINUOUS
 70
0
 71
3
 72
40
 73
36
 74
0
 42
0.0000001
 43
0.0000001
 44
0.0000000001
 40
0.0
 40
0.0
 40
0.0
 40
0.0
 40
0.0316445262
 40
0.0618855436
 40
0.090784545
 40
0.1184220102
 40
0.14489932
 40
0.1703403352
 40
0.1948922603
 40
0.218725282
 40
0.2420305519
 40
0.2650161695
 40
0.2879012098
 40
0.3109083212
 40
0.3342558227
 40
0.3581504059
 40
0.3827813334
 40
0.4083166268
 40
0.4214723269
 40
0.4349064703
 40
0.4626619981
 40
0.4916877411
 40
0.5220622507
 40
0.5538452906
 40
0.5870798536
 40
0.6217940541
 40
0.6580028837
 40
0.6957097557
 40
0.7349078338
 40
0.7755812113
 40
0.8177058983
 40
0.8612506778
 40
0.9061778653
 40
0.9524438389
 40
1.0
 40
1.0
 40
1.0
 40
1.0
 10
15.6386724754
 20
11.3229690249
 30
0.0
 10
15.6449687595
 20
11.3154257651
 30
0.0
 10
15.6576714233
 20
11.300992066
 30
0.0
 10
15.6775135308
 20
11.2809457817
 30
0.0
 10
15.6976727122
 20
11.2630372565
 30
0.0
 10
15.7181156315
 20
11.2472995074
 30
0.0
 10
15.7388093919
 20
11.2337617236
 30
0.0
 10
15.7597201813
 20
11.2224507064
 30
0.0
 10
15.780812981
 20
11.2133905255
 30
0.0
 10
15.8020508906
 20
11.2066023394
 30
0.0
 10
15.8233945833
 20
11.2021035966
 30
0.0
 10
15.8448021928
 20
11.1999068664
 30
0.0
 10
15.8662299045
 20
11.2000186783
 30
0.0
 10
15.887633225
 20
11.2024386943
 30
0.0
 10
15.9089684376
 20
11.2071597313
 30
0.0
 10
15.9301940909
 20
11.2141688063
 30
0.0
 10
15.9512703893
 20
11.2234476253
 30
0.0
 10
15.9685078658
 20
11.2329592581
 30
0.0
 10
15.9821742142
 20
11.2416365904
 30
0.0
 10
15.996052373
 20
11.2512425657
 30
0.0
 10
16.0132503096
 20
11.2646771715
 30
0.0
 10
16.0333795874
 20
11.2827936605
 30
0.0
 10
16.0531899081
 20
11.3030458008
 30
0.0
 10
16.0726479359
 20
11.3253973215
 30
0.0
 10
16.0917217667
 20
11.3498096202
 30
0.0
 10
16.11037947
 20
11.3762404771
 30
0.0
 10
16.1285896092
 20
11.4046443556
 30
0.0
 10
16.1463212234
 20
11.4349723024
 30
0.0
 10
16.1635440011
 20
11.4671719976
 30
0.0
 10
16.1802283325
 20
11.5011878289
 30
0.0
 10
16.1963454292
 20
11.5369609733
 30
0.0
 10
16.2118674008
 20
11.5744294644
 30
0.0
 10
16.2267673249
 20
11.6135284104
 30
0.0
 10
16.2410192446
 20
11.6541896886
 30
0.0
 10
16.2499527817
 20
11.6819217266
 30
0.0
 10
16.2543124835
 20
11.696029727
 30
0.0
  0
SPLINE
  5
2DF
100
AcDbEntity
  8
02___PRT_ALL_AXES
100
AcDbSpline
 62
7
  6
CONTINUOUS
 70
0
 71
3
 72
33
 73
29
 74
0
 42
0.0000001
 43
0.0000001
 44
0.0000000001
 40
0.0
 40
0.0
 40
0.0
 40
0.0
 40
0.0212777905
 40
0.0426493661
 40
0.064206994
 40
0.0860400045
 40
0.1082335516
 40
0.1308676111
 40
0.1540162451
 40
0.1777471282
 40
0.2271755464
 40
0.2529930296
 40
0.2795977005
 40
0.3070251981
 40
0.3353055647
 40
0.3644636298
 40
0.3945193951
 40
0.4254884086
 40
0.4573821194
 40
0.4902082086
 40
0.5239708942
 40
0.5586712106
 40
0.5943072609
 40
0.668360425
 40
0.7460707473
 40
0.8273381675
 40
0.9120330163
 40
1.0
 40
1.0
 40
1.0
 40
1.0
 10
15.8399721462
 20
11.2158049943
 30
0.0
 10
15.8447023866
 20
11.2158049915
 30
0.0
 10
15.8541872584
 20
11.2161482395
 30
0.0
 10
15.8683890792
 20
11.2176911564
 30
0.0
 10
15.882567348
 20
11.2202608996
 30
0.0
 10
15.8967091496
 20
11.2238548395
 30
0.0
 10
15.9108030894
 20
11.2284694366
 30
0.0
 10
15.924837533
 20
11.2341001932
 30
0.0
 10
15.9388018058
 20
11.2407422038
 30
0.0
 10
15.957563982
 20
11.251076914
 30
0.0
 10
15.9758975378
 20
11.2633346892
 30
0.0
 10
15.9937348462
 20
11.2772901196
 30
0.0
 10
16.0071855993
 20
11.2888847289
 30
0.0
 10
16.0205015197
 20
11.3014439796
 30
0.0
 10
16.0336734076
 20
11.314958553
 30
0.0
 10
16.0466908549
 20
11.3294175312
 30
0.0
 10
16.0595439027
 20
11.3448095434
 30
0.0
 10
16.0722225858
 20
11.3611224397
 30
0.0
 10
16.0847170698
 20
11.3783433799
 30
0.0
 10
16.0970176377
 20
11.3964588184
 30
0.0
 10
16.1091146607
 20
11.4154544863
 30
0.0
 10
16.1209988047
 20
11.4353155139
 30
0.0
 10
16.1367493901
 20
11.4632881568
 30
0.0
 10
16.1558047964
 20
11.5003550682
 30
0.0
 10
16.1773907371
 20
11.5474653231
 30
0.0
 10
16.1979133507
 20
11.5976133595
 30
0.0
 10
16.2173077939
 20
11.6506404895
 30
0.0
 10
16.2292275543
 20
11.6871360307
 30
0.0
 10
16.2350013635
 20
11.705820084
 30
0.0
  0
SPLINE
  5
2E0
100
AcDbEntity
  8
LAYER_FEATURE
100
AcDbSpline
 62
7
  6
CONTINUOUS
 70
0
 71
3
 72
78
 73
74
 74
0
 42
0.0000001
 43
0.0000001
 44
0.0000000001
 40
0.0
 40
0.0
 40
0.0
 40
0.0
 40
0.0173115679
 40
0.0340660427
 40
0.0502396574
 40
0.0658116535
 40
0.0807650234
 40
0.0950868833
 40
0.1087690777
 40
0.1218088659
 40
0.1342097462
 40
0.1459824368
 40
0.1571460216
 40
0.1677292405
 40
0.177771872
 40
0.187326073
 40
0.1964574288
 40
0.2008905554
 40
0.2052488905
 40
0.2095443876
 40
0.2137896807
 40
0.2179979819
 40
0.2221829426
 40
0.2263584992
 40
0.2305387055
 40
0.2347375574
 40
0.2389688212
 40
0.2432458724
 40
0.2475815572
 40
0.251988067
 40
0.2564768537
 40
0.2657399337
 40
0.2754490764
 40
0.2856653418
 40
0.2964366565
 40
0.3077989945
 40
0.3197777521
 40
0.3323891101
 40
0.3456412803
 40
0.3595355974
 40
0.3740674458
 40
0.3892270369
 40
0.4050000588
 40
0.4213682268
 40
0.4383097484
 40
0.4557997176
 40
0.4738104539
 40
0.492311801
 40
0.5112713952
 40
0.5306549051
 40
0.5504262493
 40
0.5705477965
 40
0.5909805586
 40
0.6116843709
 40
0.6326180646
 40
0.6537396325
 40
0.6750063911
 40
0.6963751404
 40
0.7178023205
 40
0.739244166
 40
0.7606568596
 40
0.7819966866
 40
0.8032201893
 40
0.8242843208
 40
0.8451466035
 40
0.8657652895
 40
0.8860995234
 40
0.9061095101
 40
0.9257566896
 40
0.9450039192
 40
0.963815692
 40
0.9821582229
 40
1.0
 40
1.0
 40
1.0
 40
1.0
 10
15.3952041026
 20
13.4291972403
 30
0.0
 10
15.4009659722
 20
13.4478426571
 30
0.0
 10
15.4128180045
 20
13.4843775399
 30
0.0
 10
15.4319171215
 20
13.5377047193
 30
0.0
 10
15.4520106806
 20
13.5885639417
 30
0.0
 10
15.4730504784
 20
13.6368331359
 30
0.0
 10
15.4949863077
 20
13.6823971816
 30
0.0
 10
15.5177660597
 20
13.7251475265
 30
0.0
 10
15.5413359427
 20
13.7649825754
 30
0.0
 10
15.5656407631
 20
13.8018078393
 30
0.0
 10
15.5906242342
 20
13.8355360719
 30
0.0
 10
15.6162292771
 20
13.8660872622
 30
0.0
 10
15.6423984342
 20
13.8933885309
 30
0.0
 10
15.6690737018
 20
13.917373611
 30
0.0
 10
15.6961979001
 20
13.9379826405
 30
0.0
 10
15.7237092975
 20
13.9551598975
 30
0.0
 10
15.7471430589
 20
13.9666870184
 30
0.0
 10
15.7659598634
 20
13.9740707626
 30
0.0
 10
15.7799858004
 20
13.9786723102
 30
0.0
 10
15.7940531874
 20
13.9823877711
 30
0.0
 10
15.8081536527
 20
13.9852146448
 30
0.0
 10
15.8222782136
 20
13.9871508429
 30
0.0
 10
15.8364179155
 20
13.9881949543
 30
0.0
 10
15.8505636977
 20
13.9883461274
 30
0.0
 10
15.8647064749
 20
13.9876043306
 30
0.0
 10
15.8788371767
 20
13.9859700576
 30
0.0
 10
15.8929467835
 20
13.9834445546
 30
0.0
 10
15.9070264133
 20
13.9800296968
 30
0.0
 10
15.9210671648
 20
13.9757279332
 30
0.0
 10
15.9350607346
 20
13.970542157
 30
0.0
 10
15.9538383195
 20
13.9623698073
 30
0.0
 10
15.9771998067
 20
13.9498620212
 30
0.0
 10
16.0045890824
 20
13.9315444006
 30
0.0
 10
16.0315714668
 20
13.9098125096
 30
0.0
 10
16.0580857099
 20
13.8847238519
 30
0.0
 10
16.0840747144
 20
13.8563401795
 30
0.0
 10
16.1094805464
 20
13.8247299275
 30
0.0
 10
16.1342458723
 20
13.7899682944
 30
0.0
 10
16.1583138304
 20
13.7521376795
 30
0.0
 10
16.1816284616
 20
13.7113277297
 30
0.0
 10
16.2041350038
 20
13.6676353023
 30
0.0
 10
16.2257801906
 20
13.6211643146
 30
0.0
 10
16.246512522
 20
13.5720255365
 30
0.0
 10
16.2662824627
 20
13.5203363151
 30
0.0
 10
16.2850426341
 20
13.4662202799
 30
0.0
 10
16.3027479751
 20
13.4098070317
 30
0.0
 10
16.3193558965
 20
13.3512318208
 30
0.0
 10
16.3348264113
 20
13.2906352047
 30
0.0
 10
16.3491222348
 20
13.2281626871
 30
0.0
 10
16.3622088911
 20
13.1639643537
 30
0.0
 10
16.3740548015
 20
13.0981945032
 30
0.0
 10
16.3846313844
 20
13.0310112697
 30
0.0
 10
16.3939131139
 20
12.9625762299
 30
0.0
 10
16.4018775825
 20
12.8930540041
 30
0.0
 10
16.4085055561
 20
12.8226118551
 30
0.0
 10
16.4137810279
 20
12.7514192825
 30
0.0
 10
16.4176912662
 20
12.6796476101
 30
0.0
 10
16.4202268295
 20
12.6074695674
 30
0.0
 10
16.4213815938
 20
12.5350588692
 30
0.0
 10
16.4211527637
 20
12.4625897957
 30
0.0
 10
16.4195408948
 20
12.3902367686
 30
0.0
 10
16.4165498843
 20
12.3181739279
 30
0.0
 10
16.412186955
 20
12.2465747091
 30
0.0
 10
16.4064626389
 20
12.1756114232
 30
0.0
 10
16.3993907532
 20
12.105454837
 30
0.0
 10
16.3909883801
 20
12.0362737556
 30
0.0
 10
16.3812758069
 20
11.9682346115
 30
0.0
 10
16.370276481
 20
11.9015010668
 30
0.0
 10
16.3580169389
 20
11.836233593
 30
0.0
 10
16.3445267806
 20
11.7725891292
 30
0.0
 10
16.3298384991
 20
11.7107205135
 30
0.0
 10
16.3139877127
 20
11.6507769054
 30
0.0
 10
16.3025053552
 20
11.6116292239
 30
0.0
 10
16.2965670142
 20
11.5924127455
 30
0.0
  0
SPLINE
  5
2E1
100
AcDbEntity
  8
LAYER_FEATURE
100
AcDbSpline
 62
7
  6
CONTINUOUS
 70
0
 71
3
 72
35
 73
31
 74
0
 42
0.0000001
 43
0.0000001
 44
0.0000000001
 40
0.0
 40
0.0
 40
0.0
 40
0.0
 40
0.0879660256
 40
0.1726596292
 40
0.2539260382
 40
0.2932345385
 40
0.3316399259
 40
0.3691306809
 40
0.4056974107
 40
0.4413330071
 40
0.4760328805
 40
0.5097951444
 40
0.5426208216
 40
0.5745141239
 40
0.6054827476
 40
0.6355381388
 40
0.6646958309
 40
0.6929758371
 40
0.7204029924
 40
0.7728096573
 40
0.7978812372
 40
0.82225512
 40
0.8459856999
 40
0.8691340408
 40
0.8917678177
 40
0.9139610836
 40
0.9357938166
 40
0.9573511729
 40
0.9787224787
 40
1.0
 40
1.0
 40
1.0
 40
1.0
 10
15.3859102239
 20
13.4820705683
 30
0.0
 10
15.3928767047
 20
13.5046141083
 30
0.0
 10
15.4072586776
 20
13.5486484186
 30
0.0
 10
15.4306592097
 20
13.6126285088
 30
0.0
 10
15.4515190169
 20
13.6636012653
 30
0.0
 10
15.4688975283
 20
13.7025462811
 30
0.0
 10
15.4820982321
 20
13.7304893918
 30
0.0
 10
15.4955995515
 20
13.757468649
 30
0.0
 10
15.5093909741
 20
13.7834628888
 30
0.0
 10
15.5234616507
 20
13.8084516062
 30
0.0
 10
15.5378005362
 20
13.832415141
 30
0.0
 10
15.5523963847
 20
13.8553346435
 30
0.0
 10
15.5672377933
 20
13.8771920726
 30
0.0
 10
15.5823131956
 20
13.8979702329
 30
0.0
 10
15.5976108221
 20
13.9176527716
 30
0.0
 10
15.6131188747
 20
13.9362242615
 30
0.0
 10
15.6288251217
 20
13.9536697933
 30
0.0
 10
15.6447183393
 20
13.9699764856
 30
0.0
 10
15.6658189263
 20
13.9898778814
 30
0.0
 10
15.6875577996
 20
14.0078252473
 30
0.0
 10
15.70990515
 20
14.023559055
 30
0.0
 10
15.726544162
 20
14.0339904087
 30
0.0
 10
15.7432941411
 20
14.0432168242
 30
0.0
 10
15.7601425749
 20
14.0512306146
 30
0.0
 10
15.7770761116
 20
14.0580245505
 30
0.0
 10
15.7940813262
 20
14.0635923375
 30
0.0
 10
15.8111443187
 20
14.0679286494
 30
0.0
 10
15.8282512997
 20
14.0710292138
 30
0.0
 10
15.8453867017
 20
14.0728908545
 30
0.0
 10
15.8568308042
 20
14.0733049794
 30
0.0
 10
15.8625381405
 20
14.0733049841
 30
0.0
  0
SPLINE
  5
2E2
100
AcDbEntity
  8
LAYER_FEATURE
100
AcDbSpline
 62
7
  6
CONTINUOUS
 70
0
 71
3
 72
54
 73
50
 74
0
 42
0.0000001
 43
0.0000001
 44
0.0000000001
 40
0.0
 40
0.0
 40
0.0
 40
0.0
 40
0.0330500869
 40
0.0673809189
 40
0.1028689286
 40
0.1393805316
 40
0.1767738172
 40
0.214899975
 40
0.2536046397
 40
0.2927291642
 40
0.332111844
 40
0.3715891169
 40
0.4109967451
 40
0.4501709878
 40
0.4889497815
 40
0.5271739361
 40
0.5646883551
 40
0.6013432992
 40
0.6369957215
 40
0.6544041318
 40
0.6715120649
 40
0.6883041821
 40
0.7047658562
 40
0.7208832323
 40
0.736643294
 40
0.7520339335
 40
0.7670440292
 40
0.7816635318
 40
0.7958835594
 40
0.8096965048
 40
0.823096156
 40
0.8360778326
 40
0.8486385411
 40
0.8607771491
 40
0.8724945842
 40
0.8837940579
 40
0.894681319
 40
0.9051649339
 40
0.9152565937
 40
0.9249714414
 40
0.9343284073
 40
0.9433505306
 40
0.9520652387
 40
0.9605045419
 40
0.9687050894
 40
0.9767080294
 40
0.9845586188
 40
0.9923055502
 40
1.0
 40
1.0
 40
1.0
 40
1.0
 10
14.6312575204
 20
13.4820705683
 30
0.0
 10
14.6222413322
 20
13.4528941727
 30
0.0
 10
14.6050868203
 20
13.3930257665
 30
0.0
 10
14.5823264008
 20
13.3007221542
 30
0.0
 10
14.5621294043
 20
13.204553604
 30
0.0
 10
14.5445957431
 20
13.1049915251
 30
0.0
 10
14.5298115719
 20
13.0025217813
 30
0.0
 10
14.5178497396
 20
12.8976455451
 30
0.0
 10
14.5087691659
 20
12.7908758071
 30
0.0
 10
14.5026146094
 20
12.6827350649
 30
0.0
 10
14.4994164057
 20
12.5737526366
 30
0.0
 10
14.4991903072
 20
12.4644620391
 30
0.0
 10
14.5019374278
 20
12.3553983198
 30
0.0
 10
14.5076442368
 20
12.2470954042
 30
0.0
 10
14.5162826088
 20
12.1400834031
 30
0.0
 10
14.5278099636
 20
12.0348860811
 30
0.0
 10
14.5421695103
 20
11.9320178178
 30
0.0
 10
14.5592905172
 20
11.8319825492
 30
0.0
 10
14.5759182566
 20
11.7507539817
 30
0.0
 10
14.5905703059
 20
11.6875935693
 30
0.0
 10
14.6021061668
 20
11.6416075373
 30
0.0
 10
14.6142614621
 20
11.5966869277
 30
0.0
 10
14.6270213817
 20
11.5528866138
 30
0.0
 10
14.6403702553
 20
11.5102602424
 30
0.0
 10
14.6542917271
 20
11.4688599636
 30
0.0
 10
14.6687687396
 20
11.4287364181
 30
0.0
 10
14.6837835697
 20
11.389938661
 30
0.0
 10
14.6993178509
 20
11.3525141039
 30
0.0
 10
14.7153526023
 20
11.3165084549
 30
0.0
 10
14.7318682576
 20
11.2819656614
 30
0.0
 10
14.7488446975
 20
11.248927856
 30
0.0
 10
14.7662612852
 20
11.2174353047
 30
0.0
 10
14.7840968997
 20
11.1875263572
 30
0.0
 10
14.8023299807
 20
11.1592374083
 30
0.0
 10
14.820938572
 20
11.1326028656
 30
0.0
 10
14.8399003679
 20
11.1076551246
 30
0.0
 10
14.8591927592
 20
11.084424556
 30
0.0
 10
14.878792879
 20
11.062939507
 30
0.0
 10
14.8986776417
 20
11.0432263204
 30
0.0
 10
14.9188237655
 20
11.0253093699
 30
0.0
 10
14.9392077696
 20
11.009211113
 30
0.0
 10
14.9598059366
 20
10.994952162
 30
0.0
 10
14.9805942258
 20
10.9825513445
 30
0.0
 10
15.0015480996
 20
10.9720257291
 30
0.0
 10
15.0226424015
 20
10.9633905781
 30
0.0
 10
15.0438508569
 20
10.9566591847
 30
0.0
 10
15.0651469284
 20
10.9518425819
 30
0.0
 10
15.0865000766
 20
10.9489491145
 30
0.0
 10
15.1007758906
 20
10.9483050086
 30
0.0
 10
15.107885437
 20
10.9483050017
 30
0.0
  0
SPLINE
  5
2E3
100
AcDbEntity
  8
LAYER_FEATURE
100
AcDbSpline
 62
7
  6
CONTINUOUS
 70
0
 71
3
 72
39
 73
35
 74
0
 42
0.0000001
 43
0.0000001
 44
0.0000000001
 40
0.0
 40
0.0
 40
0.0
 40
0.0
 40
0.0465507074
 40
0.0921005962
 40
0.1366169915
 40
0.1800716788
 40
0.2224381144
 40
0.2636931439
 40
0.3038167706
 40
0.34279257
 40
0.3806080022
 40
0.4172547757
 40
0.4527292737
 40
0.4870330283
 40
0.5201732651
 40
0.5521634945
 40
0.5830241717
 40
0.6127834228
 40
0.6414778241
 40
0.6691532169
 40
0.6958655136
 40
0.7216814293
 40
0.7466790754
 40
0.7709483028
 40
0.7945906705
 40
0.8177189113
 40
0.8404557768
 40
0.8629322195
 40
0.885284949
 40
0.9076534992
 40
0.9301770408
 40
0.952991224
 40
0.9762253377
 40
1.0
 40
1.0
 40
1.0
 40
1.0
 10
14.6738565633
 20
13.4291972403
 30
0.0
 10
14.6778054262
 20
13.4419757652
 30
0.0
 10
14.6858609227
 20
13.4671839453
 30
0.0
 10
14.6985631632
 20
13.5043269281
 30
0.0
 10
14.7117421028
 20
13.5403580874
 30
0.0
 10
14.7253828147
 20
13.5752368398
 30
0.0
 10
14.7394701721
 20
13.6089244227
 30
0.0
 10
14.7539884038
 20
13.6413831729
 30
0.0
 10
14.7689213387
 20
13.6725769086
 30
0.0
 10
14.7842523437
 20
13.7024708625
 30
0.0
 10
14.7999643799
 20
13.7310317416
 30
0.0
 10
14.816040025
 20
13.7582277561
 30
0.0
 10
14.8324615018
 20
13.7840286509
 30
0.0
 10
14.8492107136
 20
13.808405734
 30
0.0
 10
14.8662692649
 20
13.8313319075
 30
0.0
 10
14.8836185054
 20
13.8527816752
 30
0.0
 10
14.9012395647
 20
13.8727311418
 30
0.0
 10
14.9191133804
 20
13.8911580052
 30
0.0
 10
14.9372207232
 20
13.9080415366
 30
0.0
 10
14.9555422019
 20
13.9233625544
 30
0.0
 10
14.974058245
 20
13.9371033914
 30
0.0
 10
14.9927490685
 20
13.9492478375
 30
0.0
 10
15.0115945909
 20
13.9597811071
 30
0.0
 10
15.0305743143
 20
13.9686898416
 30
0.0
 10
15.0496671812
 20
13.9759621676
 30
0.0
 10
15.0688514254
 20
13.9815878622
 30
0.0
 10
15.0881044888
 20
13.9855585754
 30
0.0
 10
15.1074030401
 20
13.9878681135
 30
0.0
 10
15.1267231189
 20
13.988512741
 30
0.0
 10
15.1460404665
 20
13.9874913784
 30
0.0
 10
15.1653307511
 20
13.9848057352
 30
0.0
 10
15.1845704779
 20
13.9804599951
 30
0.0
 10
15.2037351794
 20
13.9744614218
 30
0.0
 10
15.216286109
 20
13.9694306625
 30
0.0
 10
15.2225295786
 20
13.9666594792
 30
0.0
  0
SPLINE
  5
2E4
100
AcDbEntity
  8
LAYER_FEATURE
100
AcDbSpline
 62
7
  6
CONTINUOUS
 70
0
 71
3
 72
59
 73
55
 74
0
 42
0.0000001
 43
0.0000001
 44
0.0000000001
 40
0.0
 40
0.0
 40
0.0
 40
0.0
 40
0.0169682632
 40
0.0343088766
 40
0.0520043009
 40
0.070036308
 40
0.0883856691
 40
0.1070324381
 40
0.1451334757
 40
0.1841681109
 40
0.223955163
 40
0.2643069038
 40
0.3050307999
 40
0.3459311998
 40
0.3868109864
 40
0.4274732133
 40
0.4677227439
 40
0.507367908
 40
0.5462221979
 40
0.5841060287
 40
0.6026309912
 40
0.6208501173
 40
0.6387437614
 40
0.6562930878
 40
0.6734801469
 40
0.6902879562
 40
0.7067005881
 40
0.7227032664
 40
0.7382824726
 40
0.7534260638
 40
0.7681234055
 40
0.782365521
 40
0.796145261
 40
0.8094574971
 40
0.822299344
 40
0.8346704137
 40
0.8465731062
 40
0.8580129412
 40
0.8689989312
 40
0.8795439962
 40
0.889665411
 40
0.8993852705
 40
0.9087309417
 40
0.9177354568
 40
0.9264377796
 40
0.9348828592
 40
0.9431213788
 40
0.9512091174
 40
0.9592058849
 40
0.9671740621
 40
0.9751768603
 40
0.9832764866
 40
0.9915324228
 40
1.0
 40
1.0
 40
1.0
 40
1.0
 10
14.6738565633
 20
13.4291972403
 30
0.0
 10
14.6693104845
 20
13.4144861238
 30
0.0
 10
14.6604466006
 20
13.3846387412
 30
0.0
 10
14.6479580725
 20
13.3391277157
 30
0.0
 10
14.6361457833
 20
13.2924401089
 30
0.0
 10
14.62502663
 20
13.2446425695
 30
0.0
 10
14.614616308
 20
13.1958026325
 30
0.0
 10
14.601608112
 20
13.1289071441
 30
0.0
 10
14.5872603752
 20
13.0431650493
 30
0.0
 10
14.5732010197
 20
12.9379835268
 30
0.0
 10
14.5622588249
 20
12.8303793336
 30
0.0
 10
14.5544962978
 20
12.7209632631
 30
0.0
 10
14.5499578046
 20
12.6103553577
 30
0.0
 10
14.5486692811
 20
12.4991829018
 30
0.0
 10
14.5506380915
 20
12.388076358
 30
0.0
 10
14.555852982
 20
12.2776658064
 30
0.0
 10
14.5642841492
 20
12.1685773904
 30
0.0
 10
14.5758834098
 20
12.0614292471
 30
0.0
 10
14.5905845083
 20
11.9568295512
 30
0.0
 10
14.6054589344
 20
11.8716552958
 30
0.0
 10
14.6188793928
 20
11.805275596
 30
0.0
 10
14.629587822
 20
11.7568628603
 30
0.0
 10
14.6409985936
 20
11.7095210132
 30
0.0
 10
14.6530955852
 20
11.6633170855
 30
0.0
 10
14.6658615719
 20
11.6183166574
 30
0.0
 10
14.6792784191
 20
11.5745835349
 30
0.0
 10
14.6933270677
 20
11.5321797156
 30
0.0
 10
14.7079875759
 20
11.4911652832
 30
0.0
 10
14.7232391498
 20
11.451598323
 30
0.0
 10
14.7390601794
 20
11.4135348359
 30
0.0
 10
14.7554282775
 20
11.3770286561
 30
0.0
 10
14.772320321
 20
11.3421313724
 30
0.0
 10
14.7897124982
 20
11.3088922553
 30
0.0
 10
14.8075803587
 20
11.2773581889
 30
0.0
 10
14.8258988688
 20
11.2475736095
 30
0.0
 10
14.8446424723
 20
11.219580455
 30
0.0
 10
14.8637851547
 20
11.1934181253
 30
0.0
 10
14.8833005123
 20
11.1691234612
 30
0.0
 10
14.9031618183
 20
11.1467307434
 30
0.0
 10
14.9233420834
 20
11.1262717207
 30
0.0
 10
14.9438140946
 20
11.1077756675
 30
0.0
 10
14.9645504171
 20
11.0912694738
 30
0.0
 10
14.9855233338
 20
11.0767777541
 30
0.0
 10
15.0067046981
 20
11.0643229487
 30
0.0
 10
15.0280656869
 20
11.0539253658
 30
0.0
 10
15.0495764714
 20
11.0456030956
 30
0.0
 10
15.0712058739
 20
11.0393717225
 30
0.0
 10
15.092921146
 20
11.0352438104
 30
0.0
 10
15.1146879976
 20
11.0332282224
 30
0.0
 10
15.136471062
 20
11.0333294899
 30
0.0
 10
15.1582344239
 20
11.0355473293
 30
0.0
 10
15.1799432455
 20
11.0398769876
 30
0.0
 10
15.2015615298
 20
11.0463084368
 30
0.0
 10
15.2156893588
 20
11.0519086108
 30
0.0
 10
15.222710195
 20
11.055030746
 30
0.0
  0
SPLINE
  5
2E5
100
AcDbEntity
  8
LAYER_FEATURE
100
AcDbSpline
 62
7
  6
CONTINUOUS
 70
0
 71
3
 72
13
 73
9
 74
0
 42
0.0000001
 43
0.0000001
 44
0.0000000001
 40
0.0
 40
0.0
 40
0.0
 40
0.0
 40
0.1176970545
 40
0.2421503236
 40
0.5021882562
 40
0.7610932326
 40
0.8841671818
 40
1.0
 40
1.0
 40
1.0
 40
1.0
 10
14.661912397
 20
13.3519474858
 30
0.0
 10
14.6618133667
 20
13.3515567995
 30
0.0
 10
14.6616414537
 20
13.3507446988
 30
0.0
 10
14.6613988882
 20
13.3490412256
 30
0.0
 10
14.6612900127
 20
13.346835365
 30
0.0
 10
14.6614276305
 20
13.3446357134
 30
0.0
 10
14.6616932823
 20
13.3429508202
 30
0.0
 10
14.6618762943
 20
13.342152494
 30
0.0
 10
14.6619807784
 20
13.3417698444
 30
0.0
  0
SPLINE
  5
2E6
100
AcDbEntity
  8
LAYER_FEATURE
100
AcDbSpline
 62
7
  6
CONTINUOUS
 70
0
 71
3
 72
12
 73
8
 74
0
 42
0.0000001
 43
0.0000001
 44
0.0000000001
 40
0.0
 40
0.0
 40
0.0
 40
0.0
 40
0.2609163172
 40
0.5192920298
 40
0.7678825227
 40
0.8863972927
 40
1.0
 40
1.0
 40
1.0
 40
1.0
 10
14.6716729268
 20
13.2856681347
 30
0.0
 10
14.671804846
 20
13.288479271
 30
0.0
 10
14.6718662336
 20
13.2940856427
 30
0.0
 10
14.6713718714
 20
13.3023596334
 30
0.0
 10
14.6704723005
 20
13.309053679
 30
0.0
 10
14.6694598066
 20
13.3141400854
 30
0.0
 10
14.6688610979
 20
13.3165722204
 30
0.0
 10
14.6685383369
 20
13.3177542597
 30
0.0
  0
SPLINE
  5
2E7
100
AcDbEntity
  8
02___PRT_ALL_AXES
100
AcDbSpline
 62
7
  6
CONTINUOUS
 70
0
 71
3
 72
23
 73
19
 74
0
 42
0.0000001
 43
0.0000001
 44
0.0000000001
 40
0.0
 40
0.0
 40
0.0
 40
0.0
 40
0.0673584987
 40
0.1317816461
 40
0.1936287951
 40
0.2533270185
 40
0.3113683638
 40
0.3683011864
 40
0.4247149561
 40
0.4812194428
 40
0.5384208163
 40
0.5968983166
 40
0.6571849037
 40
0.7197539777
 40
0.7850126064
 40
0.8533002313
 40
0.9248912558
 40
1.0
 40
1.0
 40
1.0
 40
1.0
 10
15.5384356615
 20
13.5399673977
 30
0.0
 10
15.5441913083
 20
13.5445744201
 30
0.0
 10
15.5557910567
 20
13.55317632
 30
0.0
 10
15.5738232626
 20
13.5643589829
 30
0.0
 10
15.5920467769
 20
13.573493196
 30
0.0
 10
15.6104259971
 20
13.580555087
 30
0.0
 10
15.6289244657
 20
13.5855251595
 30
0.0
 10
15.6475024623
 20
13.5883879256
 30
0.0
 10
15.6661177259
 20
13.5891337303
 30
0.0
 10
15.6847264728
 20
13.5877599399
 30
0.0
 10
15.7032852035
 20
13.58427137
 30
0.0
 10
15.7217523387
 20
13.5786795384
 30
0.0
 10
15.7400891001
 20
13.5710013013
 30
0.0
 10
15.7582595183
 20
13.5612574286
 30
0.0
 10
15.7762297218
 20
13.5494716819
 30
0.0
 10
15.7939674526
 20
13.5356701219
 30
0.0
 10
15.8114402819
 20
13.5198824343
 30
0.0
 10
15.8226172089
 20
13.5083373811
 30
0.0
 10
15.8281577875
 20
13.5022643966
 30
0.0
  0
SPLINE
  5
2E8
100
AcDbEntity
  8
LAYER_FEATURE
100
AcDbSpline
 62
7
  6
CONTINUOUS
 70
0
 71
3
 72
12
 73
8
 74
0
 42
0.0000001
 43
0.0000001
 44
0.0000000001
 40
0.0
 40
0.0
 40
0.0
 40
0.0
 40
0.2509317992
 40
0.5140446779
 40
0.7698508447
 40
0.8891881224
 40
1.0
 40
1.0
 40
1.0
 40
1.0
 10
14.633272321
 20
13.237006211
 30
0.0
 10
14.6331011502
 20
13.2361685388
 30
0.0
 10
14.6328746573
 20
13.2344260037
 30
0.0
 10
14.6328377086
 20
13.2317985344
 30
0.0
 10
14.6330531349
 20
13.2296283191
 30
0.0
 10
14.6333803941
 20
13.2280041137
 30
0.0
 10
14.6335927181
 20
13.2272481116
 30
0.0
 10
14.6337115369
 20
13.2268897337
 30
0.0
  0
SPLINE
  5
2E9
100
AcDbEntity
  8
LAYER_FEATURE
100
AcDbSpline
 62
7
  6
CONTINUOUS
 70
0
 71
3
 72
13
 73
9
 74
0
 42
0.0000001
 43
0.0000001
 44
0.0000000001
 40
0.0
 40
0.0
 40
0.0
 40
0.0
 40
0.2666558823
 40
0.5268693431
 40
0.6523117652
 40
0.7734914898
 40
0.8896244586
 40
1.0
 40
1.0
 40
1.0
 40
1.0
 10
14.6454068868
 20
13.1733651586
 30
0.0
 10
14.645435507
 20
13.1761751258
 30
0.0
 10
14.6452960031
 20
13.1817310049
 30
0.0
 10
14.6446304576
 20
13.1885798436
 30
0.0
 10
14.6438004698
 20
13.1938574763
 30
0.0
 10
14.6430495624
 20
13.197607109
 30
0.0
 10
14.642169216
 20
13.2011651159
 30
0.0
 10
14.6414820793
 20
13.2034524612
 30
0.0
 10
14.6411160269
 20
13.2045565374
 30
0.0
  0
SPLINE
  5
2EA
100
AcDbEntity
  8
LAYER_FEATURE
100
AcDbSpline
 62
7
  6
CONTINUOUS
 70
0
 71
3
 72
13
 73
9
 74
0
 42
0.0000001
 43
0.0000001
 44
0.0000000001
 40
0.0
 40
0.0
 40
0.0
 40
0.0
 40
0.2599216633
 40
0.5259994519
 40
0.6552129894
 40
0.778668484
 40
0.8942113747
 40
1.0
 40
1.0
 40
1.0
 40
1.0
 10
14.6089495057
 20
13.1156830538
 30
0.0
 10
14.6088113956
 20
13.1148189286
 30
0.0
 10
14.608648798
 20
13.1130504863
 30
0.0
 10
14.6086952001
 20
13.1108400903
 30
0.0
 10
14.608886939
 20
13.1091031787
 30
0.0
 10
14.6091015233
 20
13.107881215
 30
0.0
 10
14.6093832082
 20
13.1067540669
 30
0.0
 10
14.6096233569
 20
13.1060473096
 30
0.0
 10
14.6097556962
 20
13.1057166446
 30
0.0
  0
SPLINE
  5
2EB
100
AcDbEntity
  8
LAYER_FEATURE
100
AcDbSpline
 62
7
  6
CONTINUOUS
 70
0
 71
3
 72
13
 73
9
 74
0
 42
0.0000001
 43
0.0000001
 44
0.0000000001
 40
0.0
 40
0.0
 40
0.0
 40
0.0
 40
0.2726057282
 40
0.534689626
 40
0.6595628602
 40
0.7792105154
 40
0.8929017034
 40
1.0
 40
1.0
 40
1.0
 40
1.0
 10
14.6233514683
 20
13.0552395799
 30
0.0
 10
14.6232780332
 20
13.0580236917
 30
0.0
 10
14.6229419109
 20
13.0634813431
 30
0.0
 10
14.6220301638
 20
13.070165303
 30
0.0
 10
14.6210081959
 20
13.0752406218
 30
0.0
 10
14.620124524
 20
13.078793467
 30
0.0
 10
14.6191190094
 20
13.0821245337
 30
0.0
 10
14.6183486057
 20
13.0842462667
 30
0.0
 10
14.6179420467
 20
13.0852621015
 30
0.0
  0
SPLINE
  5
2EC
100
AcDbEntity
  8
02___PRT_ALL_AXES
100
AcDbSpline
 62
7
  6
CONTINUOUS
 70
0
 71
3
 72
14
 73
10
 74
0
 42
0.0000001
 43
0.0000001
 44
0.0000000001
 40
0.0
 40
0.0
 40
0.0
 40
0.0
 40
0.262270721
 40
0.3893738153
 40
0.5142515595
 40
0.6373123415
 40
0.7589880355
 40
0.8797293146
 40
1.0
 40
1.0
 40
1.0
 40
1.0
 10
15.5592530117
 20
13.5800806126
 30
0.0
 10
15.5664355725
 20
13.5840494214
 30
0.0
 10
15.5774296203
 20
13.5893806683
 30
0.0
 10
15.5924900754
 20
13.5950658163
 30
0.0
 10
15.6037121311
 20
13.5985242014
 30
0.0
 10
15.614967269
 20
13.6012169508
 30
0.0
 10
15.6262481048
 20
13.6031421199
 30
0.0
 10
15.6375453899
 20
13.6042979058
 30
0.0
 10
15.6450888659
 20
13.604554991
 30
0.0
 10
15.6488519899
 20
13.6045549927
 30
0.0
  0
SPLINE
  5
2ED
100
AcDbEntity
  8
LAYER_FEATURE
100
AcDbSpline
 62
7
  6
CONTINUOUS
 70
0
 71
3
 72
52
 73
48
 74
0
 42
0.0000001
 43
0.0000001
 44
0.0000000001
 40
0.0
 40
0.0
 40
0.0
 40
0.0
 40
0.038584215
 40
0.0777520646
 40
0.1173866922
 40
0.1573684153
 40
0.1975757735
 40
0.2378861164
 40
0.2781762523
 40
0.3183230958
 40
0.3582043134
 40
0.3976989828
 40
0.436688246
 40
0.4750559983
 40
0.5126895737
 40
0.5494804902
 40
0.5853252035
 40
0.6201259533
 40
0.6537916488
 40
0.686238895
 40
0.7173931218
 40
0.7324656162
 40
0.7471916399
 40
0.761565
 40
0.7755803564
 40
0.7892332852
 40
0.8025203578
 40
0.815439236
 40
0.8279887609
 40
0.8401690548
 40
0.8519816424
 40
0.8634295912
 40
0.8745176485
 40
0.8852523958
 40
0.895642422
 40
0.9056985116
 40
0.9154338203
 40
0.9248640557
 40
0.9340076501
 40
0.9428859078
 40
0.9515230919
 40
0.9599464495
 40
0.9681861481
 40
0.9762750952
 40
0.9842486196
 40
0.9921440217
 40
1.0
 40
1.0
 40
1.0
 40
1.0
 10
14.5921306915
 20
13.0104512963
 30
0.0
 10
14.5882033813
 20
12.9828554485
 30
0.0
 10
14.5810167478
 20
12.9271403547
 30
0.0
 10
14.5722804967
 20
12.8427811576
 30
0.0
 10
14.5655277164
 20
12.7572270014
 30
0.0
 10
14.560782885
 20
12.6707863066
 30
0.0
 10
14.55806318
 20
12.5837699195
 30
0.0
 10
14.5573783995
 20
12.4964909968
 30
0.0
 10
14.5587310609
 20
12.409263577
 30
0.0
 10
14.5621162313
 20
12.3224015313
 30
0.0
 10
14.5675217101
 20
12.2362173953
 30
0.0
 10
14.5749279117
 20
12.1510212332
 30
0.0
 10
14.5843080959
 20
12.0671195078
 30
0.0
 10
14.5956283145
 20
11.984813955
 30
0.0
 10
14.6088476862
 20
11.9044004803
 30
0.0
 10
14.6239184093
 20
11.82616807
 30
0.0
 10
14.6407860883
 20
11.7503976954
 30
0.0
 10
14.6593898009
 20
11.6773613766
 30
0.0
 10
14.6796625443
 20
11.6073207313
 30
0.0
 10
14.701531156
 20
11.540527527
 30
0.0
 10
14.7212307616
 20
11.487198137
 30
0.0
 10
14.7377602824
 20
11.4463820333
 30
0.0
 10
14.750369221
 20
11.4170654132
 30
0.0
 10
14.7633148843
 20
11.3887333732
 30
0.0
 10
14.7765857642
 20
11.3614112505
 30
0.0
 10
14.790169939
 20
11.3351235826
 30
0.0
 10
14.8040552702
 20
11.3098939457
 30
0.0
 10
14.8182293386
 20
11.2857449485
 30
0.0
 10
14.8326794985
 20
11.2626982196
 30
0.0
 10
14.847392893
 20
11.240774402
 30
0.0
 10
14.8623564767
 20
11.2199931379
 30
0.0
 10
14.8775569987
 20
11.20037303
 30
0.0
 10
14.8929810526
 20
11.1819316565
 30
0.0
 10
14.9086150921
 20
11.164685577
 30
0.0
 10
14.9244454489
 20
11.1486503332
 30
0.0
 10
14.9404583115
 20
11.1338404212
 30
0.0
 10
14.9566397645
 20
11.1202693375
 30
0.0
 10
14.9729757802
 20
11.1079496028
 30
0.0
 10
14.989452201
 20
11.096892776
 30
0.0
 10
15.0060546804
 20
11.087109426
 30
0.0
 10
15.0227686703
 20
11.0786091781
 30
0.0
 10
15.039579341
 20
11.0714007006
 30
0.0
 10
15.0564715552
 20
11.0654916443
 30
0.0
 10
15.0734296376
 20
11.0608885105
 30
0.0
 10
15.0904379649
 20
11.0575965908
 30
0.0
 10
15.1074788172
 20
11.0556198167
 30
0.0
 10
15.1188627244
 20
11.0551800067
 30
0.0
 10
15.1245380191
 20
11.0551800006
 30
0.0
  0
SPLINE
  5
2EE
100
AcDbEntity
  8
LAYER_FEATURE
100
AcDbSpline
 62
7
  6
CONTINUOUS
 70
0
 71
3
 72
12
 73
8
 74
0
 42
0.0000001
 43
0.0000001
 44
0.0000000001
 40
0.0
 40
0.0
 40
0.0
 40
0.0
 40
0.1126607354
 40
0.2333806489
 40
0.4903500916
 40
0.7523504178
 40
1.0
 40
1.0
 40
1.0
 40
1.0
 10
14.6946180435
 20
13.4594967701
 30
0.0
 10
14.6945044109
 20
13.4591290546
 30
0.0
 10
14.6943027157
 20
13.4583566576
 30
0.0
 10
14.6939979163
 20
13.4567084324
 30
0.0
 10
14.6938109827
 20
13.454525067
 30
0.0
 10
14.6938819629
 20
13.451902414
 30
0.0
 10
14.6941317937
 20
13.4501733568
 30
0.0
 10
14.6943149895
 20
13.4493474061
 30
0.0
  0
SPLINE
  5
2EF
100
AcDbEntity
  8
LAYER_FEATURE
100
AcDbSpline
 62
7
  6
CONTINUOUS
 70
0
 71
3
 72
11
 73
7
 74
0
 42
0.0000001
 43
0.0000001
 44
0.0000000001
 40
0.0
 40
0.0
 40
0.0
 40
0.0
 40
0.2553250409
 40
0.5118768144
 40
0.7624153647
 40
1.0
 40
1.0
 40
1.0
 40
1.0
 10
14.7019187616
 20
13.3911615857
 30
0.0
 10
14.7021543335
 20
13.3939490269
 30
0.0
 10
14.7024188884
 20
13.3995566858
 30
0.0
 10
14.7022241921
 20
13.4079142821
 30
0.0
 10
14.7014494827
 20
13.4160431542
 30
0.0
 10
14.7005316385
 20
13.4213192299
 30
0.0
 10
14.6999679886
 20
13.4238604829
 30
0.0
  0
SPLINE
  5
2F0
100
AcDbEntity
  8
LAYER_FEATURE
100
AcDbSpline
 62
7
  6
CONTINUOUS
 70
0
 71
3
 72
36
 73
32
 74
0
 42
0.0000001
 43
0.0000001
 44
0.0000000001
 40
0.0
 40
0.0
 40
0.0
 40
0.0
 40
0.0879647301
 40
0.1726570648
 40
0.2539222764
 40
0.2932301914
 40
0.3316350098
 40
0.3691252116
 40
0.4056913988
 40
0.4413264641
 40
0.4760258261
 40
0.5097875916
 40
0.542612777
 40
0.5745056085
 40
0.6054737773
 40
0.6355287187
 40
0.6646859772
 40
0.6929655693
 40
0.7203923177
 40
0.746996252
 40
0.7728130251
 40
0.7978842365
 40
0.8222577519
 40
0.8459879813
 40
0.8691359833
 40
0.8917694219
 40
0.9139623571
 40
0.9357947692
 40
0.9573518063
 40
0.9787227939
 40
1.0
 40
1.0
 40
1.0
 40
1.0
 10
14.6312575204
 20
13.4820705683
 30
0.0
 10
14.6382240018
 20
13.5046141104
 30
0.0
 10
14.6526059734
 20
13.5486484196
 30
0.0
 10
14.6760065089
 20
13.6126285089
 30
0.0
 10
14.6968663106
 20
13.6636012649
 30
0.0
 10
14.7142448256
 20
13.7025462804
 30
0.0
 10
14.7274455299
 20
13.7304893908
 30
0.0
 10
14.7409468466
 20
13.7574686498
 30
0.0
 10
14.7547382695
 20
13.7834628892
 30
0.0
 10
14.7688089498
 20
13.8084516042
 30
0.0
 10
14.7831478324
 20
13.8324151414
 30
0.0
 10
14.7977436776
 20
13.8553346456
 30
0.0
 10
14.8125850938
 20
13.8771920706
 30
0.0
 10
14.8276604906
 20
13.8979702291
 30
0.0
 10
14.842958124
 20
13.9176527844
 30
0.0
 10
14.8584661388
 20
13.9362242265
 30
0.0
 10
14.8741725421
 20
13.9536699086
 30
0.0
 10
14.8900652027
 20
13.9699760641
 30
0.0
 10
14.9061319111
 20
13.9851297519
 30
0.0
 10
14.9223603674
 20
13.9991188596
 30
0.0
 10
14.9387381344
 20
14.0119321544
 30
0.0
 10
14.9552526879
 20
14.0235592069
 30
0.0
 10
14.9718913994
 20
14.0339903642
 30
0.0
 10
14.9886414554
 20
14.0432168295
 30
0.0
 10
15.0054898632
 20
14.0512306216
 30
0.0
 10
15.02242341
 20
14.0580245494
 30
0.0
 10
15.0394286249
 20
14.0635923273
 30
0.0
 10
15.0564916136
 20
14.0679286553
 30
0.0
 10
15.0735985954
 20
14.071029224
 30
0.0
 10
15.0907339993
 20
14.0728908332
 30
0.0
 10
15.1021781006
 20
14.0733049897
 30
0.0
 10
15.107885437
 20
14.0733049841
 30
0.0
  0
SPLINE
  5
2F1
100
AcDbEntity
  8
LAYER_CUT_FEAT
100
AcDbSpline
 62
7
  6
CONTINUOUS
 70
0
 71
3
 72
37
 73
33
 74
0
 42
0.0000001
 43
0.0000001
 44
0.0000000001
 40
0.0
 40
0.0
 40
0.0
 40
0.0
 40
0.020834928
 40
0.0428602681
 40
0.0660778686
 40
0.0904755964
 40
0.1160298113
 40
0.1427067653
 40
0.1704640025
 40
0.1992514528
 40
0.229012372
 40
0.2596841438
 40
0.2911989853
 40
0.3234845726
 40
0.3564646077
 40
0.3900593397
 40
0.4241860525
 40
0.4587595266
 40
0.4936924813
 40
0.5288960034
 40
0.5997493382
 40
0.6705954184
 40
0.7057899041
 40
0.7407102643
 40
0.7752676425
 40
0.8093748318
 40
0.8429467028
 40
0.875900652
 40
0.9081570401
 40
0.9396397772
 40
0.9702765267
 40
1.0
 40
1.0
 40
1.0
 40
1.0
 10
15.7735438863
 20
13.0680889102
 30
0.0
 10
15.7776456567
 20
13.062740986
 30
0.0
 10
15.7857132907
 20
13.0514520633
 30
0.0
 10
15.7971066171
 20
13.0333543772
 30
0.0
 10
15.8080942725
 20
13.013676939
 30
0.0
 10
15.8186430777
 20
12.9924794008
 30
0.0
 10
15.8287218783
 20
12.9698248738
 30
0.0
 10
15.8383004027
 20
12.94578136
 30
0.0
 10
15.8473498282
 20
12.9204211088
 30
0.0
 10
15.8558428035
 20
12.8938205068
 30
0.0
 10
15.8637536051
 20
12.8660597959
 30
0.0
 10
15.8710582332
 20
12.8372228251
 30
0.0
 10
15.8777345016
 20
12.8073967771
 30
0.0
 10
15.8837621158
 20
12.7766718922
 30
0.0
 10
15.8891227436
 20
12.7451411819
 30
0.0
 10
15.8938000727
 20
12.7129001433
 30
0.0
 10
15.8977798731
 20
12.6800464432
 30
0.0
 10
15.9010500081
 20
12.6466796884
 30
0.0
 10
15.9036006022
 20
12.6129008423
 30
0.0
 10
15.906036358
 20
12.5673547467
 30
0.0
 10
15.9072346953
 20
12.5101230324
 30
0.0
 10
15.9059877598
 20
12.4528952706
 30
0.0
 10
15.9035131065
 20
12.4073606263
 30
0.0
 10
15.9009337618
 20
12.3735962002
 30
0.0
 10
15.8976352303
 20
12.3402479093
 30
0.0
 10
15.8936274734
 20
12.3074166602
 30
0.0
 10
15.8889227143
 20
12.2752019919
 30
0.0
 10
15.8835352619
 20
12.2437014865
 30
0.0
 10
15.8774815225
 20
12.2130105616
 30
0.0
 10
15.8707798707
 20
12.1832220624
 30
0.0
 10
15.863450802
 20
12.1544264397
 30
0.0
 10
15.8580759979
 20
12.1356513506
 30
0.0
 10
15.8552819523
 20
12.1264511553
 30
0.0
  0
SPLINE
  5
2F2
100
AcDbEntity
  8
02___PRT_ALL_AXES
100
AcDbSpline
 62
7
  6
CONTINUOUS
 70
0
 71
3
 72
16
 73
12
 74
0
 42
0.0000001
 43
0.0000001
 44
0.0000000001
 40
0.0
 40
0.0
 40
0.0
 40
0.0
 40
0.1526258801
 40
0.2972753598
 40
0.4338296657
 40
0.5622777209
 40
0.6827403352
 40
0.7400701451
 40
0.795523311
 40
0.9010375086
 40
1.0
 40
1.0
 40
1.0
 40
1.0
 10
15.823296872
 20
12.0396978396
 30
0.0
 10
15.8196511407
 20
12.0315360711
 30
0.0
 10
15.8121936864
 20
12.015794441
 30
0.0
 10
15.8001586459
 20
11.9934037135
 30
0.0
 10
15.7876118247
 20
11.972936014
 30
0.0
 10
15.7745987989
 20
11.954467645
 30
0.0
 10
15.763221362
 20
11.9405763004
 30
0.0
 10
15.7539144242
 20
11.9305709642
 30
0.0
 10
15.7447979482
 20
11.9216019626
 30
0.0
 10
15.7332099675
 20
11.9116898704
 30
0.0
 10
15.7232984013
 20
11.904912547
 30
0.0
 10
15.718317907
 20
11.9019479561
 30
0.0
  0
SPLINE
  5
2F3
100
AcDbEntity
  8
02___PRT_ALL_AXES
100
AcDbSpline
 62
7
  6
CONTINUOUS
 70
0
 71
3
 72
14
 73
10
 74
0
 42
0.0000001
 43
0.0000001
 44
0.0000000001
 40
0.0
 40
0.0
 40
0.0
 40
0.0
 40
0.2622653596
 40
0.3893674963
 40
0.5142452624
 40
0.6373068749
 40
0.7589840293
 40
0.8797272014
 40
1.0
 40
1.0
 40
1.0
 40
1.0
 10
15.5592743824
 20
11.4415175648
 30
0.0
 10
15.5664553473
 20
11.4375506252
 30
0.0
 10
15.5774468753
 20
11.4322219424
 30
0.0
 10
15.59250369
 20
11.4265395666
 30
0.0
 10
15.6037230602
 20
11.4230828544
 30
0.0
 10
15.6149754886
 20
11.4203914124
 30
0.0
 10
15.6262535954
 20
11.4184671793
 30
0.0
 10
15.6375481387
 20
11.417311959
 30
0.0
 10
15.6450897779
 20
11.4170549915
 30
0.0
 10
15.6488519899
 20
11.4170549932
 30
0.0
  0
SPLINE
  5
2F4
100
AcDbEntity
  8
02___PRT_ALL_AXES
100
AcDbSpline
 62
7
  6
CONTINUOUS
 70
0
 71
3
 72
12
 73
8
 74
0
 42
0.0000001
 43
0.0000001
 44
0.0000000001
 40
0.0
 40
0.0
 40
0.0
 40
0.0
 40
0.2506851877
 40
0.5009328108
 40
0.6258863122
 40
0.7507210377
 40
1.0
 40
1.0
 40
1.0
 40
1.0
 10
15.4653044794
 20
12.1479287428
 30
0.0
 10
15.4979149928
 20
12.1465974114
 30
0.0
 10
15.5630700454
 20
12.1437104179
 30
0.0
 10
15.644450662
 20
12.1395427843
 30
0.0
 10
15.7094482556
 20
12.1358616428
 30
0.0
 10
15.7743059352
 20
12.1319490693
 30
0.0
 10
15.8229076935
 20
12.128733299
 30
0.0
 10
15.8552819523
 20
12.1264511553
 30
0.0
  0
ENDSEC
  0
SECTION
  2
OBJECTS
  0
DICTIONARY
  5
C
100
AcDbDictionary
280
0
281
1
  3
ACAD_GROUP
350
D
  3
ACAD_MLINESTYLE
350
17
  3
ACAD_LAYOUT
350
1A
  3
ACAD_PLOTSETTINGS
350
19
  3
ACAD_PLOTSTYLENAME
350
E
  0
DICTIONARY
  5
D
102
{ACAD_REACTORS
330
C
102
}
100
AcDbDictionary
280
0
281
1
  0
ACDBDICTIONARYWDFLT
  5
E
102
{ACAD_REACTORS
330
C
102
}
100
AcDbDictionary
281
1
  3
Normal
350
F
100
AcDbDictionaryWithDefault
340
F
  0
DICTIONARY
  5
17
102
{ACAD_REACTORS
330
C
102
}
100
AcDbDictionary
280
0
281
1
  3
Standard
350
18
  0
DICTIONARY
  5
19
102
{ACAD_REACTORS
330
C
102
}
100
AcDbDictionary
281
1
  0
DICTIONARY
  5
1A
102
{ACAD_REACTORS
330
C
102
}
100
AcDbDictionary
281
1
  3
Model
350
2F5
  3
Layout1
350
2F6
  0
ACDBPLACEHOLDER
  5
F
102
{ACAD_REACTORS
330
E
102
}
  0
MLINESTYLE
  5
18
102
{ACAD_REACTORS
330
17
102
}
100
AcDbMlineStyle
  2
STANDARD
 70
0
  3

 62
256
 51
90.0
 52
90.0
 71
2
 49
0.5
 62
256
  6
BYLAYER
 49
-0.5
 62
256
  6
BYLAYER
  0
LAYOUT
  5
2F5
102
{ACAD_REACTORS
330
1A
102
}
100
AcDbPlotSettings
  1

  2
none_device
  4
ANSI_C_(22.00_x_17.00_Inches)
  6

 40
0.0
 41
0.0
 42
0.0
 43
0.0
 44
558.8
 45
431.8
 46
0.0
 47
0.0
 48
0.0
 49
0.0
140
0.0
141
0.0
142
1.0
143
1.0
 70
1024
 72
0
 73
0
 74
0
  7

 75
0
147
1.0
148
0.0
149
0.0
100
AcDbLayout
  1
Model
 70
0
 71
0
 10
0.0
 20
0.0
 11
22.0
 21
17.0
 12
0.0
 22
0.0
 32
0.0
 14
0.0
 24
0.0
 34
0.0
 15
0.0
 25
0.0
 35
0.0
146
0.0
 13
0.0
 23
0.0
 33
0.0
 16
1.0
 26
0.0
 36
0.0
 17
0.0
 27
1.0
 37
0.0
 76
0
330
222
345
0
346
0
  0
LAYOUT
  5
2F6
102
{ACAD_REACTORS
330
1A
102
}
100
AcDbPlotSettings
  1

  2
none_device
  4
ANSI_C_(22.00_x_17.00_Inches)
  6

 40
0.0
 41
0.0
 42
0.0
 43
0.0
 44
558.8
 45
431.8
 46
0.0
 47
0.0
 48
0.0
 49
0.0
140
0.0
141
0.0
142
1.0
143
1.0
 70
0
 72
0
 73
0
 74
0
  7

 75
0
147
1.0
148
0.0
149
0.0
100
AcDbLayout
  1
Layout1
 70
0
 71
1
 10
0.0
 20
0.0
 11
22.0
 21
17.0
 12
0.0
 22
0.0
 32
0.0
 14
0.0
 24
0.0
 34
0.0
 15
0.0
 25
0.0
 35
0.0
146
0.0
 13
0.0
 23
0.0
 33
0.0
 16
1.0
 26
0.0
 36
0.0
 17
0.0
 27
1.0
 37
0.0
 76
0
330
223
345
0
346
0
  0
ENDSEC
  0
EOF