999
DXF file: _cgs_temp_output.dxf
999
Pro/ENGINEER 2016360 by Parametric Technology Corporation
  0
SECTION
  2
HEADER
  9
$ACADVER
  1
AC1021
  9
$DWGCODEPAGE
  3
ANSI_1252
  9
$EXTMAX
 10
22.0
 20
17.0
 30
0.0
  9
$EXTMIN
 10
0.0
 20
0.0
 30
0.0
  9
$LIMMIN
 10
0.0
 20
0.0
  9
$LIMMAX
 10
22.0
 20
17.0
  9
$VIEWCTR
 10
11.0
 20
8.5
  9
$VIEWSIZE
 40
17.0
  9
$CLAYER
  8
0
  9
$LTSCALE
 40
1.21
  9
$CELTYPE
  6
BYLAYER
  9
$DIMSCALE
 40
1.0
  9
$DIMASZ
 40
0.1875
  9
$DIMEXO
 40
0.0625
  9
$DIMDLI
 40
0.836
  9
$DIMEXE
 40
0.125
  9
$DIMCEN
 40
0.198
  9
$DIMLFAC
 40
1.0
  9
$DIMBLK
  1
_CLOSED
  9
$DIMALT
 70
0
  9
$DIMALTF
 40
25.4
  9
$DIMTXT
 40
0.15625
  9
$DIMTOL
 70
0
  9
$DIMLIM
 70
0
  9
$DIMTFAC
 40
1.0
  9
$DIMGAP
 40
0.09
  9
$DIMDSEP
 70
46
  9
$AUNITS
 70
0
  9
$PDMODE
 70
3
  9
$PDSIZE
 40
0.3125
  9
$HANDSEED
  5
34E
  9
$TILEMODE
 70
1
  9
$MEASUREMENT
 70
0
  9
$INSUNITS
 70
1
  0
ENDSEC
  0
SECTION
  2
CLASSES
  0
CLASS
  1
ACDBDICTIONARYWDFLT
  2
AcDbDictionaryWithDefault
  3
AutoCAD 2000
 90
0
 91
1
280
0
281
0
  0
CLASS
  1
ACDBPLACEHOLDER
  2
AcDbPlaceHolder
  3
AutoCAD 2000
 90
0
 91
1
280
0
281
0
  0
CLASS
  1
LAYOUT
  2
AcDbLayout
  3
AutoCAD 2000
 90
0
 91
0
280
0
281
0
  0
ENDSEC
  0
SECTION
  2
TABLES
  0
TABLE
  2
VPORT
  5
8
100
AcDbSymbolTable
 70
2
  0
VPORT
  5
1F4
100
AcDbSymbolTableRecord
100
AcDbViewportTableRecord
  2
*ACTIVE
 70
0
 10
0.0
 20
0.0
 11
1.0
 21
1.0
 12
11.0
 22
8.5
 13
0.0
 23
0.0
 14
1.0
 24
1.0
 15
0.0
 25
0.0
 16
0.0
 26
0.0
 36
1.0
 17
0.0
 27
0.0
 37
0.0
 40
17.0
 41
1.2941176471
 42
50.0
 43
0.0
 44
0.0
 50
0.0
 51
0.0
 71
0
 72
100
 73
1
 74
1
 75
0
 76
0
 77
0
 78
0
  0
ENDTAB
  0
TABLE
  2
LTYPE
  5
5
100
AcDbSymbolTable
 70
6
  0
LTYPE
  5
14
100
AcDbSymbolTableRecord
100
AcDbLinetypeTableRecord
  2
BYBLOCK
 70
0
  3

 72
65
 73
0
 40
0.0
  0
LTYPE
  5
15
100
AcDbSymbolTableRecord
100
AcDbLinetypeTableRecord
  2
BYLAYER
 70
0
  3

 72
65
 73
0
 40
0.0
  0
LTYPE
  5
16
100
AcDbSymbolTableRecord
100
AcDbLinetypeTableRecord
  2
CONTINUOUS
 70
64
  3
Solid line
 72
65
 73
0
 40
0.0
  0
LTYPE
  5
1F5
100
AcDbSymbolTableRecord
100
AcDbLinetypeTableRecord
  2
CENTER
 70
64
  3
____ _ ____ _ ____ _ ____ _ ____ _ ____ _ ____
 72
65
 73
4
 40
0.6
 49
0.375
 74
0
 49
-0.075
 74
0
 49
0.075
 74
0
 49
-0.075
 74
0
  0
LTYPE
  5
1F6
100
AcDbSymbolTableRecord
100
AcDbLinetypeTableRecord
  2
HIDDEN
 70
64
  3
- - - - - - - - - - - - - - - - - - - -
 72
65
 73
2
 40
0.2
 49
0.1
 74
0
 49
-0.1
 74
0
  0
LTYPE
  5
1F7
100
AcDbSymbolTableRecord
100
AcDbLinetypeTableRecord
  2
PHANTOM
 70
64
  3
_____ _ _ _____ _ _ _____ _ _ _____
 72
65
 73
6
 40
0.8
 49
0.45
 74
0
 49
-0.05
 74
0
 49
0.1
 74
0
 49
-0.05
 74
0
 49
0.1
 74
0
 49
-0.05
 74
0
  0
LTYPE
  5
1F8
100
AcDbSymbolTableRecord
100
AcDbLinetypeTableRecord
  2
DOT
 70
64
  3
. . . . . . . . . . . . . . . . . . . .
 72
65
 73
2
 40
0.2
 49
0.1
 74
0
 49
-0.1
 74
0
  0
LTYPE
  5
1F9
100
AcDbSymbolTableRecord
100
AcDbLinetypeTableRecord
  2
DASHED
 70
64
  3
- - - - - - - - - - - - - - - - - - - -
 72
65
 73
2
 40
0.2
 49
0.1
 74
0
 49
-0.1
 74
0
  0
ENDTAB
  0
TABLE
  2
LAYER
  5
2
100
AcDbSymbolTable
 70
36
  0
LAYER
  5
10
100
AcDbSymbolTableRecord
100
AcDbLayerTableRecord
  2
0
 70
0
 62
7
  6
CONTINUOUS
370
-3
390
F
  0
LAYER
  5
1FA
100
AcDbSymbolTableRecord
100
AcDbLayerTableRecord
  2
DEFAULT_1
 70
0
 62
7
  6
CENTER
370
-3
390
F
  0
LAYER
  5
1FB
100
AcDbSymbolTableRecord
100
AcDbLayerTableRecord
  2
DEFAULT_2
 70
0
 62
8
  6
HIDDEN
370
-3
390
F
  0
LAYER
  5
1FC
100
AcDbSymbolTableRecord
100
AcDbLayerTableRecord
  2
DEFAULT_3
 70
0
 62
7
  6
PHANTOM
370
-3
390
F
  0
LAYER
  5
1FD
100
AcDbSymbolTableRecord
100
AcDbLayerTableRecord
  2
01_ALL_DTM_PLN
 70
0
 62
7
  6
CONTINUOUS
370
-3
390
F
  0
LAYER
  5
1FE
100
AcDbSymbolTableRecord
100
AcDbLayerTableRecord
  2
01__ASM_ALL_DTM_PLN
 70
0
 62
7
  6
CONTINUOUS
370
-3
390
F
  0
LAYER
  5
1FF
100
AcDbSymbolTableRecord
100
AcDbLayerTableRecord
  2
01__ASM_DEF_DTM_PLN
 70
0
 62
7
  6
CONTINUOUS
370
-3
390
F
  0
LAYER
  5
200
100
AcDbSymbolTableRecord
100
AcDbLayerTableRecord
  2
01___PRT_ALL_DTM_PLN
 70
0
 62
7
  6
CONTINUOUS
370
-3
390
F
  0
LAYER
  5
201
100
AcDbSymbolTableRecord
100
AcDbLayerTableRecord
  2
01___PRT_DEF_DTM_PLN
 70
0
 62
7
  6
CONTINUOUS
370
-3
390
F
  0
LAYER
  5
202
100
AcDbSymbolTableRecord
100
AcDbLayerTableRecord
  2
02_ALL_AXES
 70
0
 62
7
  6
CONTINUOUS
370
-3
390
F
  0
LAYER
  5
203
100
AcDbSymbolTableRecord
100
AcDbLayerTableRecord
  2
02__ASM_ALL_AXES
 70
0
 62
7
  6
CONTINUOUS
370
-3
390
F
  0
LAYER
  5
204
100
AcDbSymbolTableRecord
100
AcDbLayerTableRecord
  2
02___PRT_ALL_AXES
 70
0
 62
7
  6
CONTINUOUS
370
-3
390
F
  0
LAYER
  5
205
100
AcDbSymbolTableRecord
100
AcDbLayerTableRecord
  2
03_ALL_CURVES
 70
0
 62
7
  6
CONTINUOUS
370
-3
390
F
  0
LAYER
  5
206
100
AcDbSymbolTableRecord
100
AcDbLayerTableRecord
  2
03__ASM_ALL_CURVES
 70
0
 62
7
  6
CONTINUOUS
370
-3
390
F
  0
LAYER
  5
207
100
AcDbSymbolTableRecord
100
AcDbLayerTableRecord
  2
03___PRT_ALL_CURVES
 70
0
 62
7
  6
CONTINUOUS
370
-3
390
F
  0
LAYER
  5
208
100
AcDbSymbolTableRecord
100
AcDbLayerTableRecord
  2
04_ALL_DTM_PNT
 70
0
 62
7
  6
CONTINUOUS
370
-3
390
F
  0
LAYER
  5
209
100
AcDbSymbolTableRecord
100
AcDbLayerTableRecord
  2
04__ASM_ALL_DTM_PNT
 70
0
 62
7
  6
CONTINUOUS
370
-3
390
F
  0
LAYER
  5
20A
100
AcDbSymbolTableRecord
100
AcDbLayerTableRecord
  2
04___PRT_ALL_DTM_PNT
 70
0
 62
7
  6
CONTINUOUS
370
-3
390
F
  0
LAYER
  5
20B
100
AcDbSymbolTableRecord
100
AcDbLayerTableRecord
  2
05_ALL_DTM_CSYS
 70
0
 62
7
  6
CONTINUOUS
370
-3
390
F
  0
LAYER
  5
20C
100
AcDbSymbolTableRecord
100
AcDbLayerTableRecord
  2
05__ASM_ALL_DTM_CSYS
 70
0
 62
7
  6
CONTINUOUS
370
-3
390
F
  0
LAYER
  5
20D
100
AcDbSymbolTableRecord
100
AcDbLayerTableRecord
  2
05__ASM_DEF_DTM_CSYS
 70
0
 62
7
  6
CONTINUOUS
370
-3
390
F
  0
LAYER
  5
20E
100
AcDbSymbolTableRecord
100
AcDbLayerTableRecord
  2
05___PRT_ALL_DTM_CSYS
 70
0
 62
7
  6
CONTINUOUS
370
-3
390
F
  0
LAYER
  5
20F
100
AcDbSymbolTableRecord
100
AcDbLayerTableRecord
  2
05___PRT_DEF_DTM_CSYS
 70
0
 62
7
  6
CONTINUOUS
370
-3
390
F
  0
LAYER
  5
210
100
AcDbSymbolTableRecord
100
AcDbLayerTableRecord
  2
06_ALL_SURFS
 70
0
 62
7
  6
CONTINUOUS
370
-3
390
F
  0
LAYER
  5
211
100
AcDbSymbolTableRecord
100
AcDbLayerTableRecord
  2
06__ASM_ALL_SURFS
 70
0
 62
7
  6
CONTINUOUS
370
-3
390
F
  0
LAYER
  5
212
100
AcDbSymbolTableRecord
100
AcDbLayerTableRecord
  2
06___PRT_ALL_SURFS
 70
0
 62
7
  6
CONTINUOUS
370
-3
390
F
  0
LAYER
  5
213
100
AcDbSymbolTableRecord
100
AcDbLayerTableRecord
  2
07__ASM_ALL_SKELETONS
 70
0
 62
7
  6
CONTINUOUS
370
-3
390
F
  0
LAYER
  5
214
100
AcDbSymbolTableRecord
100
AcDbLayerTableRecord
  2
LAYER_AXIS
 70
0
 62
7
  6
CONTINUOUS
370
-3
390
F
  0
LAYER
  5
215
100
AcDbSymbolTableRecord
100
AcDbLayerTableRecord
  2
LAYER_CHAMFER_FEAT
 70
0
 62
7
  6
CONTINUOUS
370
-3
390
F
  0
LAYER
  5
216
100
AcDbSymbolTableRecord
100
AcDbLayerTableRecord
  2
LAYER_CUT_FEAT
 70
0
 62
7
  6
CONTINUOUS
370
-3
390
F
  0
LAYER
  5
217
100
AcDbSymbolTableRecord
100
AcDbLayerTableRecord
  2
LAYER_DATUM
 70
0
 62
7
  6
CONTINUOUS
370
-3
390
F
  0
LAYER
  5
218
100
AcDbSymbolTableRecord
100
AcDbLayerTableRecord
  2
LAYER_DIM
 70
0
 62
7
  6
CONTINUOUS
370
-3
390
F
  0
LAYER
  5
219
100
AcDbSymbolTableRecord
100
AcDbLayerTableRecord
  2
LAYER_FEATURE
 70
0
 62
7
  6
CONTINUOUS
370
-3
390
F
  0
LAYER
  5
21A
100
AcDbSymbolTableRecord
100
AcDbLayerTableRecord
  2
LAYER_GEOM_FEAT
 70
0
 62
7
  6
CONTINUOUS
370
-3
390
F
  0
LAYER
  5
21B
100
AcDbSymbolTableRecord
100
AcDbLayerTableRecord
  2
LAYER_NOGEOM_FEAT
 70
0
 62
7
  6
CONTINUOUS
370
-3
390
F
  0
LAYER
  5
21C
100
AcDbSymbolTableRecord
100
AcDbLayerTableRecord
  2
LAYER_PARAMETER_DIM
 70
0
 62
7
  6
CONTINUOUS
370
-3
390
F
  0
LAYER
  5
21D
100
AcDbSymbolTableRecord
100
AcDbLayerTableRecord
  2
LAYER_PROTRUSION_FEAT
 70
0
 62
7
  6
CONTINUOUS
370
-3
390
F
  0
LAYER
  5
21E
100
AcDbSymbolTableRecord
100
AcDbLayerTableRecord
  2
LAYER_QUILT
 70
0
 62
7
  6
CONTINUOUS
370
-3
390
F
  0
LAYER
  5
21F
100
AcDbSymbolTableRecord
100
AcDbLayerTableRecord
  2
LAYER_ROUND_FEAT
 70
0
 62
7
  6
CONTINUOUS
370
-3
390
F
  0
ENDTAB
  0
TABLE
  2
STYLE
  5
3
100
AcDbSymbolTable
 70
1
  0
STYLE
  5
11
100
AcDbSymbolTableRecord
100
AcDbTextStyleTableRecord
  2
STANDARD
 70
0
 40
0.0
 41
0.8
 50
0.0
 71
0
 42
0.2
  3
txt
  4

  0
STYLE
  5
220
100
AcDbSymbolTableRecord
100
AcDbTextStyleTableRecord
  2
TEXTSTYLE_1
 70
0
 40
0.0
 41
0.8
 50
0.0
 71
0
 42
0.2
  3
gdt
  4

  0
ENDTAB
  0
TABLE
  2
VIEW
  5
6
100
AcDbSymbolTable
 70
0
  0
ENDTAB
  0
TABLE
  2
UCS
  5
7
100
AcDbSymbolTable
 70
0
  0
ENDTAB
  0
TABLE
  2
APPID
  5
9
100
AcDbSymbolTable
 70
1
  0
APPID
  5
221
100
AcDbSymbolTableRecord
100
AcDbRegAppTableRecord
  2
ACAD
 70
0
  0
ENDTAB
  0
TABLE
  2
BLOCK_RECORD
  5
1
100
AcDbSymbolTable
 70
0
  0
BLOCK_RECORD
  5
222
100
AcDbSymbolTableRecord
100
AcDbBlockTableRecord
  2
*Model_Space
  0
BLOCK_RECORD
  5
223
100
AcDbSymbolTableRecord
100
AcDbBlockTableRecord
  2
*Paper_Space
  0
ENDTAB
  0
TABLE
  2
DIMSTYLE
  5
A
100
AcDbSymbolTable
 70
1
100
AcDbDimStyleTable
 71
0
  0
DIMSTYLE
105
224
100
AcDbSymbolTableRecord
100
AcDbDimStyleTableRecord
  2
STANDARD
 70
0
  3

  4

 40
1.0
 41
0.1875
 42
0.0625
 43
0.38
 44
0.125
 45
0.0
 46
0.0
 47
0.0001
 48
0.0001
140
0.15625
141
0.09
142
0.0
143
25.4
144
1.0
145
0.0
146
1.0
147
0.09
 71
0.0
 72
0.0
 73
1
 74
1
 75
0
 76
0
 77
0
 78
4
 79
1
170
0
171
3
172
0
173
0
174
0
175
0
176
0
177
0
178
0
270
2
179
4
271
4
272
4
273
2
274
2
275
0
280
0
281
0
282
0
283
1
284
4
285
0
286
0
287
3
288
0
340
11
278
46
  0
ENDTAB
  0
ENDSEC
  0
SECTION
  2
BLOCKS
  0
BLOCK
  5
20
100
AcDbEntity
  8
0
100
AcDbBlockBegin
  2
*Model_Space
 70
0
 10
0.0
 20
0.0
 30
0.0
  3
*Model_Space
  1

  0
ENDBLK
  5
21
100
AcDbEntity
  8
0
100
AcDbBlockEnd
  0
BLOCK
  5
1C
100
AcDbEntity
  8
0
100
AcDbBlockBegin
  2
*Paper_Space
 70
0
 10
0.0
 20
0.0
 30
0.0
  3
*Paper_Space
  1

  0
ENDBLK
  5
1D
100
AcDbEntity
  8
0
100
AcDbBlockEnd
  0
ENDSEC
  0
SECTION
  2
ENTITIES
  0
MTEXT
  5
225
100
AcDbEntity
  8
0
100
AcDbMText
 62
7
  6
CONTINUOUS
  7
STANDARD
 71
1
 72
1
 10
15.9560215477
 20
0.9479130325
 30
0.0
 11
1.0
 21
0.0
 31
0.0
 44
0.9
  1
SCALE: 1:0.200
 40
0.3
 41
3.36
  0
LINE
  5
226
100
AcDbEntity
  8
0
100
AcDbLine
 62
7
  6
CONTINUOUS
 10
0.0
 20
0.0
 11
0.0
 21
17.0
  0
LINE
  5
227
100
AcDbEntity
  8
0
100
AcDbLine
 62
7
  6
CONTINUOUS
 10
0.0
 20
0.0
 11
22.0
 21
0.0
  0
LINE
  5
228
100
AcDbEntity
  8
0
100
AcDbLine
 62
7
  6
CONTINUOUS
 10
0.0
 20
17.0
 11
22.0
 21
17.0
  0
LINE
  5
229
100
AcDbEntity
  8
0
100
AcDbLine
 62
7
  6
CONTINUOUS
 10
22.0
 20
0.0
 11
22.0
 21
17.0
  0
LINE
  5
22A
100
AcDbEntity
  8
LAYER_FEATURE
100
AcDbLine
 62
7
  6
CONTINUOUS
 10
6.2998672762
 20
4.0581198968
 11
6.2753311019
 21
4.0581198968
  0
LINE
  5
22B
100
AcDbEntity
  8
LAYER_FEATURE
100
AcDbLine
 62
7
  6
CONTINUOUS
 10
5.8778672762
 20
4.0581198968
 11
5.9024034504
 21
4.0581198968
  0
LINE
  5
22C
100
AcDbEntity
  8
02___PRT_ALL_AXES
100
AcDbLine
 62
7
  6
CONTINUOUS
 10
5.9148672762
 20
4.1275198968
 11
6.2628672762
 21
4.1275198968
  0
LINE
  5
22D
100
AcDbEntity
  8
02___PRT_ALL_AXES
100
AcDbLine
 62
7
  6
CONTINUOUS
 10
6.3702672762
 20
4.6451198968
 11
6.2998672762
 21
4.6451198968
  0
LINE
  5
22E
100
AcDbEntity
  8
LAYER_FEATURE
100
AcDbLine
 62
7
  6
CONTINUOUS
 10
5.8778672762
 20
6.9821198968
 11
5.8778672762
 21
4.0581198968
  0
LINE
  5
22F
100
AcDbEntity
  8
LAYER_FEATURE
100
AcDbLine
 62
7
  6
CONTINUOUS
 10
5.9024034504
 20
6.9821198968
 11
5.9024034504
 21
4.0581198968
  0
LINE
  5
230
100
AcDbEntity
  8
LAYER_FEATURE
100
AcDbLine
 62
7
  6
CONTINUOUS
 10
5.9148672762
 20
6.923482207
 11
5.9148672762
 21
4.1167575865
  0
LINE
  5
231
100
AcDbEntity
  8
LAYER_FEATURE
100
AcDbLine
 62
7
  6
CONTINUOUS
 10
6.2753311019
 20
6.9821198968
 11
6.2628672762
 21
6.923482207
  0
LINE
  5
232
100
AcDbEntity
  8
LAYER_FEATURE
100
AcDbLine
 62
7
  6
CONTINUOUS
 10
6.2753311019
 20
4.0581198968
 11
6.2628672762
 21
4.1167575865
  0
LINE
  5
233
100
AcDbEntity
  8
LAYER_FEATURE
100
AcDbLine
 62
7
  6
CONTINUOUS
 10
5.9024034504
 20
4.0581198968
 11
5.9148672762
 21
4.1167575865
  0
LINE
  5
234
100
AcDbEntity
  8
LAYER_FEATURE
100
AcDbLine
 62
7
  6
CONTINUOUS
 10
5.9024034504
 20
6.9821198968
 11
5.9148672762
 21
6.923482207
  0
LINE
  5
235
100
AcDbEntity
  8
LAYER_FEATURE
100
AcDbLine
 62
7
  6
CONTINUOUS
 10
6.2628672762
 20
6.923482207
 11
6.2628672762
 21
4.1167575865
  0
LINE
  5
236
100
AcDbEntity
  8
LAYER_FEATURE
100
AcDbLine
 62
7
  6
CONTINUOUS
 10
6.2753311019
 20
6.9821198968
 11
6.2753311019
 21
4.0581198968
  0
LINE
  5
237
100
AcDbEntity
  8
LAYER_FEATURE
100
AcDbLine
 62
7
  6
CONTINUOUS
 10
6.2998672762
 20
6.9821198968
 11
6.2998672762
 21
4.0581198968
  0
LINE
  5
238
100
AcDbEntity
  8
02___PRT_ALL_AXES
100
AcDbLine
 62
7
  6
CONTINUOUS
 10
6.3702672762
 20
6.3951198968
 11
6.3702672762
 21
4.6451198968
  0
LINE
  5
239
100
AcDbEntity
  8
02___PRT_ALL_AXES
100
AcDbLine
 62
7
  6
CONTINUOUS
 10
6.3828672762
 20
6.3825198968
 11
6.3828672762
 21
4.6577198968
  0
LINE
  5
23A
100
AcDbEntity
  8
02___PRT_ALL_AXES
100
AcDbLine
 62
7
  6
CONTINUOUS
 10
6.3828672762
 20
4.6577198968
 11
6.3702672762
 21
4.6451198968
  0
LINE
  5
23B
100
AcDbEntity
  8
02___PRT_ALL_AXES
100
AcDbLine
 62
7
  6
CONTINUOUS
 10
6.3828672762
 20
6.3825198968
 11
6.3702672762
 21
6.3951198968
  0
LINE
  5
23C
100
AcDbEntity
  8
02___PRT_ALL_AXES
100
AcDbLine
 62
7
  6
CONTINUOUS
 10
6.3702672762
 20
6.3951198968
 11
6.2998672762
 21
6.3951198968
  0
LINE
  5
23D
100
AcDbEntity
  8
LAYER_FEATURE
100
AcDbLine
 62
7
  6
CONTINUOUS
 10
5.9148672762
 20
6.8628975245
 11
6.2628672762
 21
6.8628975245
  0
LINE
  5
23E
100
AcDbEntity
  8
0
100
AcDbLine
 62
7
  6
CONTINUOUS
 10
5.9148672762
 20
6.863096057
 11
6.2628672762
 21
6.863096057
  0
LINE
  5
23F
100
AcDbEntity
  8
LAYER_FEATURE
100
AcDbLine
 62
7
  6
CONTINUOUS
 10
5.9148672762
 20
6.8841410526
 11
6.2628672762
 21
6.8841410526
  0
LINE
  5
240
100
AcDbEntity
  8
LAYER_FEATURE
100
AcDbLine
 62
7
  6
CONTINUOUS
 10
5.9148672762
 20
6.8877225631
 11
6.2628672762
 21
6.8877225631
  0
LINE
  5
241
100
AcDbEntity
  8
0
100
AcDbLine
 62
7
  6
CONTINUOUS
 10
5.9148672762
 20
6.887811027
 11
6.2628672762
 21
6.887811027
  0
LINE
  5
242
100
AcDbEntity
  8
LAYER_FEATURE
100
AcDbLine
 62
7
  6
CONTINUOUS
 10
5.9148672762
 20
6.9019580994
 11
6.2628672762
 21
6.9019580994
  0
LINE
  5
243
100
AcDbEntity
  8
LAYER_FEATURE
100
AcDbLine
 62
7
  6
CONTINUOUS
 10
5.9148672762
 20
6.9041158765
 11
6.2628672762
 21
6.9041158765
  0
LINE
  5
244
100
AcDbEntity
  8
0
100
AcDbLine
 62
7
  6
CONTINUOUS
 10
5.9148672762
 20
6.9041380266
 11
6.2628672762
 21
6.9041380266
  0
LINE
  5
245
100
AcDbEntity
  8
LAYER_FEATURE
100
AcDbLine
 62
7
  6
CONTINUOUS
 10
5.9148672762
 20
6.9112556542
 11
6.2628672762
 21
6.9112556542
  0
LINE
  5
246
100
AcDbEntity
  8
LAYER_FEATURE
100
AcDbLine
 62
7
  6
CONTINUOUS
 10
5.9148672762
 20
6.9119763944
 11
6.2628672762
 21
6.9119763944
  0
LINE
  5
247
100
AcDbEntity
  8
LAYER_FEATURE
100
AcDbLine
 62
7
  6
CONTINUOUS
 10
6.2998672762
 20
6.9821198968
 11
6.2753311019
 21
6.9821198968
  0
LINE
  5
248
100
AcDbEntity
  8
LAYER_FEATURE
100
AcDbLine
 62
7
  6
CONTINUOUS
 10
5.8778672762
 20
6.9821198968
 11
5.9024034504
 21
6.9821198968
  0
LINE
  5
249
100
AcDbEntity
  8
LAYER_FEATURE
100
AcDbLine
 62
7
  6
CONTINUOUS
 10
5.8183720839
 20
11.1380477814
 11
5.8429082581
 21
11.1380477814
  0
LINE
  5
24A
100
AcDbEntity
  8
LAYER_FEATURE
100
AcDbLine
 62
7
  6
CONTINUOUS
 10
6.2158359096
 20
11.1380477814
 11
6.2403720839
 21
11.1380477814
  0
LINE
  5
24B
100
AcDbEntity
  8
02___PRT_ALL_AXES
100
AcDbLine
 62
7
  6
CONTINUOUS
 10
5.8553720839
 20
11.2074477814
 11
6.2033720839
 21
11.2074477814
  0
LINE
  5
24C
100
AcDbEntity
  8
02___PRT_ALL_AXES
100
AcDbLine
 62
7
  6
CONTINUOUS
 10
6.2403720839
 20
11.7250477814
 11
6.3107720839
 21
11.7250477814
  0
LINE
  5
24D
100
AcDbEntity
  8
LAYER_FEATURE
100
AcDbLine
 62
7
  6
CONTINUOUS
 10
5.8553720839
 20
12.2308825035
 11
6.2033720839
 21
12.2308825035
  0
LINE
  5
24E
100
AcDbEntity
  8
LAYER_FEATURE
100
AcDbLine
 62
7
  6
CONTINUOUS
 10
6.2033720839
 20
12.2741665515
 11
5.8553720839
 21
12.2741665515
  0
LINE
  5
24F
100
AcDbEntity
  8
LAYER_FEATURE
100
AcDbLine
 62
7
  6
CONTINUOUS
 10
6.2033720839
 20
12.2975034296
 11
5.8553720839
 21
12.2975034296
  0
LINE
  5
250
100
AcDbEntity
  8
LAYER_FEATURE
100
AcDbLine
 62
7
  6
CONTINUOUS
 10
5.8183720839
 20
11.1380477814
 11
5.8183720839
 21
14.0620477814
  0
LINE
  5
251
100
AcDbEntity
  8
LAYER_FEATURE
100
AcDbLine
 62
7
  6
CONTINUOUS
 10
5.8429082581
 20
11.1380477814
 11
5.8429082581
 21
14.0620477814
  0
LINE
  5
252
100
AcDbEntity
  8
LAYER_FEATURE
100
AcDbLine
 62
7
  6
CONTINUOUS
 10
5.8553720839
 20
11.1966855623
 11
5.8553720839
 21
14.0034100005
  0
LINE
  5
253
100
AcDbEntity
  8
LAYER_FEATURE
100
AcDbLine
 62
7
  6
CONTINUOUS
 10
5.8553720839
 20
12.3193681662
 11
6.2033720839
 21
12.3193681662
  0
LINE
  5
254
100
AcDbEntity
  8
LAYER_FEATURE
100
AcDbLine
 62
7
  6
CONTINUOUS
 10
5.8553720839
 20
12.3373736353
 11
6.2033720839
 21
12.3373736353
  0
LINE
  5
255
100
AcDbEntity
  8
LAYER_FEATURE
100
AcDbLine
 62
7
  6
CONTINUOUS
 10
6.2033720839
 20
12.37763786
 11
5.8553720839
 21
12.37763786
  0
LINE
  5
256
100
AcDbEntity
  8
LAYER_FEATURE
100
AcDbLine
 62
7
  6
CONTINUOUS
 10
6.2033720839
 20
12.4013423802
 11
5.8553720839
 21
12.4013423802
  0
LINE
  5
257
100
AcDbEntity
  8
LAYER_FEATURE
100
AcDbLine
 62
7
  6
CONTINUOUS
 10
6.2033720839
 20
14.0034100916
 11
6.2158359096
 21
14.0620477814
  0
LINE
  5
258
100
AcDbEntity
  8
LAYER_FEATURE
100
AcDbLine
 62
7
  6
CONTINUOUS
 10
5.8553720839
 20
12.4272532742
 11
6.2033720839
 21
12.4272532742
  0
LINE
  5
259
100
AcDbEntity
  8
LAYER_FEATURE
100
AcDbLine
 62
7
  6
CONTINUOUS
 10
5.8553720839
 20
12.4454842405
 11
6.2033720839
 21
12.4454842405
  0
LINE
  5
25A
100
AcDbEntity
  8
LAYER_FEATURE
100
AcDbLine
 62
7
  6
CONTINUOUS
 10
6.2033720839
 20
12.4824803997
 11
5.8553720839
 21
12.4824803997
  0
LINE
  5
25B
100
AcDbEntity
  8
LAYER_FEATURE
100
AcDbLine
 62
7
  6
CONTINUOUS
 10
6.2033720839
 20
12.5064064157
 11
5.8553720839
 21
12.5064064157
  0
LINE
  5
25C
100
AcDbEntity
  8
LAYER_FEATURE
100
AcDbLine
 62
7
  6
CONTINUOUS
 10
6.2033720839
 20
11.1966854711
 11
6.2158359096
 21
11.1380477814
  0
LINE
  5
25D
100
AcDbEntity
  8
LAYER_FEATURE
100
AcDbLine
 62
7
  6
CONTINUOUS
 10
5.8553720839
 20
12.5362037179
 11
6.2033720839
 21
12.5362037179
  0
LINE
  5
25E
100
AcDbEntity
  8
LAYER_FEATURE
100
AcDbLine
 62
7
  6
CONTINUOUS
 10
5.8553720839
 20
12.5545477814
 11
6.2033720839
 21
12.5545477814
  0
LINE
  5
25F
100
AcDbEntity
  8
LAYER_FEATURE
100
AcDbLine
 62
7
  6
CONTINUOUS
 10
6.2033720839
 20
12.5880477814
 11
5.8553720839
 21
12.5880477814
  0
LINE
  5
260
100
AcDbEntity
  8
LAYER_FEATURE
100
AcDbLine
 62
7
  6
CONTINUOUS
 10
6.2033720839
 20
12.6120477814
 11
5.8553720839
 21
12.6120477814
  0
LINE
  5
261
100
AcDbEntity
  8
LAYER_FEATURE
100
AcDbLine
 62
7
  6
CONTINUOUS
 10
5.8429082581
 20
11.1380477814
 11
5.8553720839
 21
11.1966854711
  0
LINE
  5
262
100
AcDbEntity
  8
LAYER_FEATURE
100
AcDbLine
 62
7
  6
CONTINUOUS
 10
5.8553720839
 20
12.6455477814
 11
6.2033720839
 21
12.6455477814
  0
LINE
  5
263
100
AcDbEntity
  8
LAYER_FEATURE
100
AcDbLine
 62
7
  6
CONTINUOUS
 10
5.8429082581
 20
14.0620477814
 11
5.8553720839
 21
14.0034100916
  0
LINE
  5
264
100
AcDbEntity
  8
LAYER_FEATURE
100
AcDbLine
 62
7
  6
CONTINUOUS
 10
6.2033720839
 20
11.1966854711
 11
6.2033720839
 21
14.0034100916
  0
LINE
  5
265
100
AcDbEntity
  8
LAYER_FEATURE
100
AcDbLine
 62
7
  6
CONTINUOUS
 10
6.2158359096
 20
11.1380477814
 11
6.2158359096
 21
14.0620477814
  0
LINE
  5
266
100
AcDbEntity
  8
LAYER_FEATURE
100
AcDbLine
 62
7
  6
CONTINUOUS
 10
6.2403720839
 20
11.1380477814
 11
6.2403720839
 21
14.0620477814
  0
LINE
  5
267
100
AcDbEntity
  8
02___PRT_ALL_AXES
100
AcDbLine
 62
7
  6
CONTINUOUS
 10
6.3107720839
 20
11.7250477814
 11
6.3107720839
 21
13.4750477814
  0
LINE
  5
268
100
AcDbEntity
  8
02___PRT_ALL_AXES
100
AcDbLine
 62
7
  6
CONTINUOUS
 10
6.3233720839
 20
11.7376478127
 11
6.3233720839
 21
13.46244775
  0
LINE
  5
269
100
AcDbEntity
  8
02___PRT_ALL_AXES
100
AcDbLine
 62
7
  6
CONTINUOUS
 10
6.3107720839
 20
11.7250477814
 11
6.3233720839
 21
11.7376477814
  0
LINE
  5
26A
100
AcDbEntity
  8
02___PRT_ALL_AXES
100
AcDbLine
 62
7
  6
CONTINUOUS
 10
6.3107720839
 20
13.4750477814
 11
6.3233720839
 21
13.4624477814
  0
LINE
  5
26B
100
AcDbEntity
  8
02___PRT_ALL_AXES
100
AcDbLine
 62
7
  6
CONTINUOUS
 10
6.2403720839
 20
13.4750477814
 11
6.3107720839
 21
13.4750477814
  0
LINE
  5
26C
100
AcDbEntity
  8
02___PRT_ALL_AXES
100
AcDbLine
 62
7
  6
CONTINUOUS
 10
5.8553720839
 20
13.9926477814
 11
6.2033720839
 21
13.9926477814
  0
LINE
  5
26D
100
AcDbEntity
  8
LAYER_FEATURE
100
AcDbLine
 62
7
  6
CONTINUOUS
 10
5.8183720839
 20
14.0620477814
 11
5.8429082581
 21
14.0620477814
  0
LINE
  5
26E
100
AcDbEntity
  8
LAYER_FEATURE
100
AcDbLine
 62
7
  6
CONTINUOUS
 10
6.2158359096
 20
14.0620477814
 11
6.2403720839
 21
14.0620477814
  0
LINE
  5
26F
100
AcDbEntity
  8
LAYER_CUT_FEAT
100
AcDbLine
 62
7
  6
CONTINUOUS
 10
15.6258523275
 20
6.4208457741
 11
15.6606735626
 21
6.5347409023
  0
LINE
  5
270
100
AcDbEntity
  8
LAYER_CUT_FEAT
100
AcDbLine
 62
7
  6
CONTINUOUS
 10
14.5853270733
 20
4.9989869569
 11
14.6804439209
 21
5.0706626427
  0
LINE
  5
271
100
AcDbEntity
  8
LAYER_CUT_FEAT
100
AcDbLine
 62
7
  6
CONTINUOUS
 10
16.6205134874
 20
5.2609903005
 11
16.5014324302
 21
5.2589117329
  0
LINE
  5
272
100
AcDbEntity
  8
LAYER_CUT_FEAT
100
AcDbLine
 62
7
  6
CONTINUOUS
 10
14.6673704594
 20
5.8196407491
 11
14.569810109
 21
5.8879532419
  0
LINE
  5
273
100
AcDbEntity
  8
LAYER_CUT_FEAT
100
AcDbLine
 62
7
  6
CONTINUOUS
 10
15.6980985661
 20
4.3906638876
 11
15.6593236605
 21
4.5032743903
  0
LINE
  5
274
100
AcDbEntity
  8
LAYER_CUT_FEAT
100
AcDbLine
 62
7
  6
CONTINUOUS
 10
16.0778257676
 20
6.4072046744
 11
16.0430045325
 21
6.2933095462
  0
LINE
  5
275
100
AcDbEntity
  8
LAYER_CUT_FEAT
100
AcDbLine
 62
7
  6
CONTINUOUS
 10
14.9429632301
 20
4.7222877529
 11
14.8478463824
 21
4.6506120671
  0
LINE
  5
276
100
AcDbEntity
  8
LAYER_CUT_FEAT
100
AcDbLine
 62
7
  6
CONTINUOUS
 10
16.4938194702
 20
5.6950579176
 11
16.6129005275
 21
5.6971364852
  0
LINE
  5
277
100
AcDbEntity
  8
LAYER_CUT_FEAT
100
AcDbLine
 62
7
  6
CONTINUOUS
 10
14.8200113902
 20
6.2452777029
 11
14.9175717406
 21
6.1769652101
  0
LINE
  5
278
100
AcDbEntity
  8
LAYER_CUT_FEAT
100
AcDbLine
 62
7
  6
CONTINUOUS
 10
16.0717707975
 20
4.6452913286
 11
16.1105457031
 21
4.5326808258
  0
LINE
  5
279
100
AcDbEntity
  8
LAYER_FEATURE
100
AcDbLine
 62
7
  6
CONTINUOUS
 10
15.2767449725
 20
11.0488049929
 11
15.2993442855
 21
11.0488049929
  0
LINE
  5
27A
100
AcDbEntity
  8
LAYER_FEATURE
100
AcDbLine
 62
7
  6
CONTINUOUS
 10
15.6428333989
 20
11.0488049929
 11
15.6654327119
 21
11.0488049929
  0
LINE
  5
27B
100
AcDbEntity
  8
02___PRT_ALL_AXES
100
AcDbLine
 62
7
  6
CONTINUOUS
 10
15.3108242292
 20
11.1182049929
 11
15.4698593992
 21
11.1182049929
  0
LINE
  5
27C
100
AcDbEntity
  8
02___PRT_ALL_AXES
100
AcDbLine
 62
7
  6
CONTINUOUS
 10
15.5930294051
 20
13.79404852
 11
15.5862790206
 21
13.7916967031
  0
LINE
  5
27D
100
AcDbEntity
  8
02___PRT_ALL_AXES
100
AcDbLine
 62
7
  6
CONTINUOUS
 10
15.5930294051
 20
11.2275614658
 11
15.5862790206
 21
11.2299132827
  0
LINE
  5
27E
100
AcDbEntity
  8
02___PRT_ALL_AXES
100
AcDbLine
 62
7
  6
CONTINUOUS
 10
15.5305893824
 20
11.6358049929
 11
15.7302754059
 21
11.6358049929
  0
LINE
  5
27F
100
AcDbEntity
  8
LAYER_FEATURE
100
AcDbLine
 62
7
  6
CONTINUOUS
 10
14.8735970724
 20
13.2532111594
 11
14.8785550387
 21
13.2721338394
  0
LINE
  5
280
100
AcDbEntity
  8
LAYER_FEATURE
100
AcDbLine
 62
7
  6
CONTINUOUS
 10
14.8988826643
 20
13.3430743665
 11
14.9031487735
 21
13.3568795009
  0
LINE
  5
281
100
AcDbEntity
  8
LAYER_FEATURE
100
AcDbLine
 62
7
  6
CONTINUOUS
 10
14.8335579988
 20
13.0673493123
 11
14.8374980164
 21
13.0891124041
  0
LINE
  5
282
100
AcDbEntity
  8
LAYER_FEATURE
100
AcDbLine
 62
7
  6
CONTINUOUS
 10
14.8520335786
 20
13.1617921544
 11
14.8566263872
 21
13.1826943323
  0
LINE
  5
283
100
AcDbEntity
  8
LAYER_FEATURE
100
AcDbLine
 62
7
  6
CONTINUOUS
 10
14.8336024474
 20
13.1136131964
 11
14.8272939788
 21
13.1308856247
  0
LINE
  5
284
100
AcDbEntity
  8
LAYER_FEATURE
100
AcDbLine
 62
7
  6
CONTINUOUS
 10
14.8534914097
 20
13.207904467
 11
14.8477301196
 21
13.2263946657
  0
LINE
  5
285
100
AcDbEntity
  8
LAYER_FEATURE
100
AcDbLine
 62
7
  6
CONTINUOUS
 10
14.8761999809
 20
13.2978978876
 11
14.8710213896
 21
13.3174918583
  0
LINE
  5
286
100
AcDbEntity
  8
LAYER_FEATURE
100
AcDbLine
 62
7
  6
CONTINUOUS
 10
14.9015881551
 20
13.3830386187
 11
14.8970241903
 21
13.4036155582
  0
LINE
  5
287
100
AcDbEntity
  8
02___PRT_ALL_AXES
100
AcDbLine
 62
7
  6
CONTINUOUS
 10
15.4364833575
 20
12.9540296522
 11
15.4363382727
 21
12.9533693617
  0
LINE
  5
288
100
AcDbEntity
  8
02___PRT_ALL_AXES
100
AcDbLine
 62
7
  6
CONTINUOUS
 10
15.4364833575
 20
12.9540296522
 11
15.4363339382
 21
12.953375888
  0
LINE
  5
289
100
AcDbEntity
  8
LAYER_CUT_FEAT
100
AcDbLine
 62
7
  6
CONTINUOUS
 10
15.5380996984
 20
13.4342982019
 11
15.5524119016
 21
13.4823101074
  0
LINE
  5
28A
100
AcDbEntity
  8
LAYER_CUT_FEAT
100
AcDbLine
 62
7
  6
CONTINUOUS
 10
15.4237813665
 20
11.4600805534
 11
15.4249418671
 21
11.5791424605
  0
LINE
  5
28B
100
AcDbEntity
  8
LAYER_CUT_FEAT
100
AcDbLine
 62
7
  6
CONTINUOUS
 10
15.6734323191
 20
13.3877386525
 11
15.7016237827
 21
13.4823101074
  0
LINE
  5
28C
100
AcDbEntity
  8
LAYER_CUT_FEAT
100
AcDbLine
 62
7
  6
CONTINUOUS
 10
15.2419310215
 20
13.1589935994
 11
15.238878077
 21
13.1703723262
  0
LINE
  5
28D
100
AcDbEntity
  8
LAYER_CUT_FEAT
100
AcDbLine
 62
7
  6
CONTINUOUS
 10
15.5947578778
 20
11.5682275954
 11
15.5935973771
 21
11.4491656884
  0
LINE
  5
28E
100
AcDbEntity
  8
LAYER_CUT_FEAT
100
AcDbLine
 62
7
  6
CONTINUOUS
 10
15.3554996769
 20
13.5045571139
 11
15.3818134111
 21
13.4064823564
  0
LINE
  5
28F
100
AcDbEntity
  8
LAYER_FEATURE
100
AcDbLine
 62
7
  6
CONTINUOUS
 10
14.8118583536
 20
13.0563118552
 11
15.114711153
 21
13.0563118552
  0
LINE
  5
290
100
AcDbEntity
  8
0
100
AcDbLine
 62
7
  6
CONTINUOUS
 10
14.8143956737
 20
13.0604680865
 11
15.1153436559
 21
13.0604680865
  0
LINE
  5
291
100
AcDbEntity
  8
LAYER_FEATURE
100
AcDbLine
 62
7
  6
CONTINUOUS
 10
15.1163908533
 20
13.0673493123
 11
14.8335579988
 21
13.0673493123
  0
LINE
  5
292
100
AcDbEntity
  8
LAYER_FEATURE
100
AcDbLine
 62
7
  6
CONTINUOUS
 10
15.1200509779
 20
13.0891124041
 11
14.8374980164
 21
13.0891124041
  0
LINE
  5
293
100
AcDbEntity
  8
LAYER_FEATURE
100
AcDbLine
 62
7
  6
CONTINUOUS
 10
14.8267975872
 20
13.1388302448
 11
15.1288130388
 21
13.1388302448
  0
LINE
  5
294
100
AcDbEntity
  8
LAYER_FEATURE
100
AcDbLine
 62
7
  6
CONTINUOUS
 10
14.8300635943
 20
13.1551607158
 11
15.1319012855
 21
13.1551607158
  0
LINE
  5
295
100
AcDbEntity
  8
0
100
AcDbLine
 62
7
  6
CONTINUOUS
 10
14.8325005419
 20
13.1588150716
 11
15.1325923588
 21
13.1588150716
  0
LINE
  5
296
100
AcDbEntity
  8
LAYER_FEATURE
100
AcDbLine
 62
7
  6
CONTINUOUS
 10
15.1331553533
 20
13.1617921544
 11
14.8520335786
 21
13.1617921544
  0
LINE
  5
297
100
AcDbEntity
  8
LAYER_FEATURE
100
AcDbLine
 62
7
  6
CONTINUOUS
 10
15.1372490151
 20
13.1826943323
 11
14.8566263872
 21
13.1826943323
  0
LINE
  5
298
100
AcDbEntity
  8
LAYER_FEATURE
100
AcDbLine
 62
7
  6
CONTINUOUS
 10
14.8474779935
 20
13.2344148069
 11
15.1481964088
 21
13.2344148069
  0
LINE
  5
299
100
AcDbEntity
  8
LAYER_FEATURE
100
AcDbLine
 62
7
  6
CONTINUOUS
 10
14.8512328841
 20
13.2500369091
 11
15.1517740388
 21
13.2500369091
  0
LINE
  5
29A
100
AcDbEntity
  8
0
100
AcDbLine
 62
7
  6
CONTINUOUS
 10
14.8535544348
 20
13.2532111594
 11
15.1525009763
 21
13.2532111594
  0
LINE
  5
29B
100
AcDbEntity
  8
LAYER_FEATURE
100
AcDbLine
 62
7
  6
CONTINUOUS
 10
15.1568344743
 20
13.2721338394
 11
14.8785550387
 21
13.2721338394
  0
LINE
  5
29C
100
AcDbEntity
  8
02___PRT_ALL_AXES
100
AcDbLine
 62
7
  6
CONTINUOUS
 10
15.874338411
 20
11.7178570831
 11
15.8838692722
 21
11.729275533
  0
LINE
  5
29D
100
AcDbEntity
  8
LAYER_FEATURE
100
AcDbLine
 62
7
  6
CONTINUOUS
 10
14.8710150833
 20
13.325538074
 11
15.1701045095
 21
13.325538074
  0
LINE
  5
29E
100
AcDbEntity
  8
LAYER_FEATURE
100
AcDbLine
 62
7
  6
CONTINUOUS
 10
14.8752357074
 20
13.3403554918
 11
15.1741427564
 21
13.3403554918
  0
LINE
  5
29F
100
AcDbEntity
  8
0
100
AcDbLine
 62
7
  6
CONTINUOUS
 10
14.8774275479
 20
13.3430743665
 11
15.1748845647
 21
13.3430743665
  0
LINE
  5
2A0
100
AcDbEntity
  8
LAYER_FEATURE
100
AcDbLine
 62
7
  6
CONTINUOUS
 10
15.1786511097
 20
13.3568795009
 11
14.9031487735
 21
13.3568795009
  0
LINE
  5
2A1
100
AcDbEntity
  8
02___PRT_ALL_AXES
100
AcDbLine
 62
7
  6
CONTINUOUS
 10
15.5305893824
 20
13.3858049929
 11
15.7302754059
 21
13.3858049929
  0
LINE
  5
2A2
100
AcDbEntity
  8
02___PRT_ALL_AXES
100
AcDbLine
 62
7
  6
CONTINUOUS
 10
15.874338411
 20
13.3037529028
 11
15.8838692722
 21
13.2923344529
  0
LINE
  5
2A3
100
AcDbEntity
  8
LAYER_FEATURE
100
AcDbLine
 62
7
  6
CONTINUOUS
 10
14.8972637428
 20
13.4116382406
 11
15.1945011072
 21
13.4116382406
  0
LINE
  5
2A4
100
AcDbEntity
  8
LAYER_CUT_FEAT
100
AcDbLine
 62
7
  6
CONTINUOUS
 10
15.373946065
 20
13.4358049929
 11
15.5189840139
 21
13.4358049929
  0
LINE
  5
2A5
100
AcDbEntity
  8
02___PRT_ALL_AXES
100
AcDbLine
 62
7
  6
CONTINUOUS
 10
15.3108242292
 20
13.9034049929
 11
15.4696833117
 21
13.9034049929
  0
LINE
  5
2A6
100
AcDbEntity
  8
LAYER_FEATURE
100
AcDbLine
 62
7
  6
CONTINUOUS
 10
15.2767449725
 20
13.9728049929
 11
15.2993442855
 21
13.9728049929
  0
LINE
  5
2A7
100
AcDbEntity
  8
LAYER_FEATURE
100
AcDbLine
 62
7
  6
CONTINUOUS
 10
15.6428333989
 20
13.9728049929
 11
15.6654327119
 21
13.9728049929
  0
ARC
  5
2A8
100
AcDbEntity
  8
LAYER_CUT_FEAT
100
AcDbCircle
 62
7
  6
CONTINUOUS
 10
14.9730539812
 20
4.6823559774
 40
0.05
100
AcDbArc
 50
52.9608718649
 51
127.0
  0
ARC
  5
2A9
100
AcDbEntity
  8
LAYER_CUT_FEAT
100
AcDbCircle
 62
7
  6
CONTINUOUS
 10
14.8779371336
 20
4.6106802916
 40
0.05
100
AcDbArc
 50
127.0
 51
231.2391113145
  0
ARC
  5
2AA
100
AcDbEntity
  8
LAYER_CUT_FEAT
100
AcDbCircle
 62
7
  6
CONTINUOUS
 10
14.5552363221
 20
5.0389187324
 40
0.05
100
AcDbArc
 50
202.7608886855
 51
307.0
  0
ARC
  5
2AB
100
AcDbEntity
  8
LAYER_CUT_FEAT
100
AcDbCircle
 62
7
  6
CONTINUOUS
 10
14.6503531697
 20
5.1105944182
 40
0.05
100
AcDbArc
 50
307.0
 51
21.0391281351
  0
ARC
  5
2AC
100
AcDbEntity
  8
02___PRT_ALL_AXES
100
AcDbCircle
 62
7
  6
CONTINUOUS
 10
15.5182590332
 20
4.9794626653
 40
0.05
100
AcDbArc
 50
151.1497787952
 51
18.8502212048
  0
CIRCLE
  5
2AD
100
AcDbEntity
  8
LAYER_FEATURE
100
AcDbCircle
 62
7
  6
CONTINUOUS
 10
15.5603552569
 20
5.4606247044
 40
1.462
  0
CIRCLE
  5
2AE
100
AcDbEntity
  8
LAYER_FEATURE
100
AcDbCircle
 62
7
  6
CONTINUOUS
 10
15.5603552569
 20
5.4606247044
 40
1.4033623102
  0
CIRCLE
  5
2AF
100
AcDbEntity
  8
02___PRT_ALL_AXES
100
AcDbCircle
 62
7
  6
CONTINUOUS
 10
15.5603552569
 20
5.4606247044
 40
1.295
  0
CIRCLE
  5
2B0
100
AcDbEntity
  8
02___PRT_ALL_AXES
100
AcDbCircle
 62
7
  6
CONTINUOUS
 10
15.5603552569
 20
5.4606247044
 40
1.2686
  0
CIRCLE
  5
2B1
100
AcDbEntity
  8
02___PRT_ALL_AXES
100
AcDbCircle
 62
7
  6
CONTINUOUS
 10
15.5603552569
 20
5.4606247044
 40
1.256
  0
ARC
  5
2B2
100
AcDbEntity
  8
LAYER_CUT_FEAT
100
AcDbCircle
 62
7
  6
CONTINUOUS
 10
15.5603552569
 20
5.4606247044
 40
1.14
100
AcDbArc
 50
303.2391113145
 51
346.7608886855
  0
ARC
  5
2B3
100
AcDbEntity
  8
LAYER_CUT_FEAT
100
AcDbCircle
 62
7
  6
CONTINUOUS
 10
15.5603552569
 20
5.4606247044
 40
1.14
100
AcDbArc
 50
15.2391113145
 51
58.7608886855
  0
ARC
  5
2B4
100
AcDbEntity
  8
LAYER_CUT_FEAT
100
AcDbCircle
 62
7
  6
CONTINUOUS
 10
15.5603552569
 20
5.4606247044
 40
1.14
100
AcDbArc
 50
87.2391113145
 51
130.7608886855
  0
ARC
  5
2B5
100
AcDbEntity
  8
LAYER_CUT_FEAT
100
AcDbCircle
 62
7
  6
CONTINUOUS
 10
15.5603552569
 20
5.4606247044
 40
1.14
100
AcDbArc
 50
159.2391113145
 51
202.7608886855
  0
ARC
  5
2B6
100
AcDbEntity
  8
LAYER_CUT_FEAT
100
AcDbCircle
 62
7
  6
CONTINUOUS
 10
15.5603552569
 20
5.4606247044
 40
1.14
100
AcDbArc
 50
231.2391113145
 51
274.7608886855
  0
ARC
  5
2B7
100
AcDbEntity
  8
LAYER_CUT_FEAT
100
AcDbCircle
 62
7
  6
CONTINUOUS
 10
15.5603552569
 20
5.4606247044
 40
0.925
100
AcDbArc
 50
304.9608718649
 51
345.0391281351
  0
ARC
  5
2B8
100
AcDbEntity
  8
LAYER_CUT_FEAT
100
AcDbCircle
 62
7
  6
CONTINUOUS
 10
15.5603552569
 20
5.4606247044
 40
0.925
100
AcDbArc
 50
16.9608718649
 51
57.0391281351
  0
ARC
  5
2B9
100
AcDbEntity
  8
LAYER_CUT_FEAT
100
AcDbCircle
 62
7
  6
CONTINUOUS
 10
15.5603552569
 20
5.4606247044
 40
0.925
100
AcDbArc
 50
88.9608718649
 51
129.0391281351
  0
ARC
  5
2BA
100
AcDbEntity
  8
LAYER_CUT_FEAT
100
AcDbCircle
 62
7
  6
CONTINUOUS
 10
15.5603552569
 20
5.4606247044
 40
0.925
100
AcDbArc
 50
160.9608718649
 51
201.0391281351
  0
ARC
  5
2BB
100
AcDbEntity
  8
LAYER_CUT_FEAT
100
AcDbCircle
 62
7
  6
CONTINUOUS
 10
15.5603552569
 20
5.4606247044
 40
0.925
100
AcDbArc
 50
232.9608718649
 51
273.0391281351
  0
CIRCLE
  5
2BC
100
AcDbEntity
  8
02___PRT_ALL_AXES
100
AcDbCircle
 62
7
  6
CONTINUOUS
 10
15.5603552569
 20
5.4606247044
 40
0.875
  0
CIRCLE
  5
2BD
100
AcDbEntity
  8
02___PRT_ALL_AXES
100
AcDbCircle
 62
7
  6
CONTINUOUS
 10
15.5603552569
 20
5.4606247044
 40
0.8624
  0
ARC
  5
2BE
100
AcDbEntity
  8
02___PRT_ALL_AXES
100
AcDbCircle
 62
7
  6
CONTINUOUS
 10
15.5603552569
 20
5.4606247044
 40
0.5
100
AcDbArc
 50
61.4843384185
 51
139.5156615815
  0
ARC
  5
2BF
100
AcDbEntity
  8
02___PRT_ALL_AXES
100
AcDbCircle
 62
7
  6
CONTINUOUS
 10
15.5603552569
 20
5.4606247044
 40
0.5
100
AcDbArc
 50
22.4843384185
 51
50.5156615815
  0
ARC
  5
2C0
100
AcDbEntity
  8
02___PRT_ALL_AXES
100
AcDbCircle
 62
7
  6
CONTINUOUS
 10
15.5603552569
 20
5.4606247044
 40
0.5
100
AcDbArc
 50
231.4843384185
 51
259.5156615815
  0
ARC
  5
2C1
100
AcDbEntity
  8
02___PRT_ALL_AXES
100
AcDbCircle
 62
7
  6
CONTINUOUS
 10
15.5603552569
 20
5.4606247044
 40
0.5
100
AcDbArc
 50
150.4843384185
 51
220.5156615815
  0
ARC
  5
2C2
100
AcDbEntity
  8
LAYER_CUT_FEAT
100
AcDbCircle
 62
7
  6
CONTINUOUS
 10
15.5603552569
 20
5.4606247044
 40
0.5
100
AcDbArc
 50
270.4843384185
 51
11.5156615815
  0
ARC
  5
2C3
100
AcDbEntity
  8
02___PRT_ALL_AXES
100
AcDbCircle
 62
7
  6
CONTINUOUS
 10
15.5603552569
 20
5.4606247044
 40
0.482518297
100
AcDbArc
 50
50.0634202313
 51
61.9365797687
  0
ARC
  5
2C4
100
AcDbEntity
  8
02___PRT_ALL_AXES
100
AcDbCircle
 62
7
  6
CONTINUOUS
 10
15.5603552569
 20
5.4606247044
 40
0.482518297
100
AcDbArc
 50
220.0634202313
 51
231.9365797687
  0
ARC
  5
2C5
100
AcDbEntity
  8
LAYER_CUT_FEAT
100
AcDbCircle
 62
7
  6
CONTINUOUS
 10
15.5603552569
 20
5.4606247044
 40
0.465036594
100
AcDbArc
 50
22.6434126524
 51
139.3565873476
  0
ARC
  5
2C6
100
AcDbEntity
  8
02___PRT_ALL_AXES
100
AcDbCircle
 62
7
  6
CONTINUOUS
 10
15.5603552569
 20
5.4606247044
 40
0.465036594
100
AcDbArc
 50
150.6434126524
 51
259.3565873476
  0
ARC
  5
2C7
100
AcDbEntity
  8
LAYER_CUT_FEAT
100
AcDbCircle
 62
7
  6
CONTINUOUS
 10
15.5603552569
 20
5.4606247044
 40
0.465036594
100
AcDbArc
 50
270.6434126524
 51
11.3565873476
  0
ARC
  5
2C8
100
AcDbEntity
  8
02___PRT_ALL_AXES
100
AcDbCircle
 62
7
  6
CONTINUOUS
 10
15.224835264
 20
5.1131835809
 40
0.05
100
AcDbArc
 50
132.4804512298
 51
319.5195487702
  0
ARC
  5
2C9
100
AcDbEntity
  8
02___PRT_ALL_AXES
100
AcDbCircle
 62
7
  6
CONTINUOUS
 10
15.1647048195
 20
5.7376621232
 40
0.05
100
AcDbArc
 50
31.1497787952
 51
258.8502212048
  0
ARC
  5
2CA
100
AcDbEntity
  8
LAYER_CUT_FEAT
100
AcDbCircle
 62
7
  6
CONTINUOUS
 10
15.5780370897
 20
6.4354643594
 40
0.05
100
AcDbArc
 50
268.9608718649
 51
343.0
  0
ARC
  5
2CB
100
AcDbEntity
  8
LAYER_CUT_FEAT
100
AcDbCircle
 62
7
  6
CONTINUOUS
 10
14.848690212
 20
6.2862353051
 40
0.05
100
AcDbArc
 50
130.7608886855
 51
235.0
  0
ARC
  5
2CC
100
AcDbEntity
  8
LAYER_CUT_FEAT
100
AcDbCircle
 62
7
  6
CONTINUOUS
 10
14.9462505624
 20
6.2179228123
 40
0.05
100
AcDbArc
 50
235.0
 51
309.0391281351
  0
ARC
  5
2CD
100
AcDbEntity
  8
LAYER_CUT_FEAT
100
AcDbCircle
 62
7
  6
CONTINUOUS
 10
14.6386916376
 20
5.7786831469
 40
0.05
100
AcDbArc
 50
340.9608718649
 51
55.0
  0
ARC
  5
2CE
100
AcDbEntity
  8
LAYER_CUT_FEAT
100
AcDbCircle
 62
7
  6
CONTINUOUS
 10
14.5411312872
 20
5.8469956396
 40
0.05
100
AcDbArc
 50
55.0
 51
159.2391113145
  0
ARC
  5
2CF
100
AcDbEntity
  8
LAYER_CUT_FEAT
100
AcDbCircle
 62
7
  6
CONTINUOUS
 10
16.1190467262
 20
4.6615697363
 40
0.05
100
AcDbArc
 50
124.9608718649
 51
199.0
  0
ARC
  5
2D0
100
AcDbEntity
  8
LAYER_CUT_FEAT
100
AcDbCircle
 62
7
  6
CONTINUOUS
 10
16.1578216319
 20
4.5489592336
 40
0.05
100
AcDbArc
 50
199.0
 51
303.2391113145
  0
ARC
  5
2D1
100
AcDbEntity
  8
LAYER_CUT_FEAT
100
AcDbCircle
 62
7
  6
CONTINUOUS
 10
16.6213861077
 20
5.2109979158
 40
0.05
100
AcDbArc
 50
346.7608886855
 51
91.0
  0
ARC
  5
2D2
100
AcDbEntity
  8
LAYER_CUT_FEAT
100
AcDbCircle
 62
7
  6
CONTINUOUS
 10
16.5023050505
 20
5.2089193482
 40
0.05
100
AcDbArc
 50
91.0
 51
165.0391281351
  0
ARC
  5
2D3
100
AcDbEntity
  8
LAYER_CUT_FEAT
100
AcDbCircle
 62
7
  6
CONTINUOUS
 10
15.6508226374
 20
4.3743854798
 40
0.05
100
AcDbArc
 50
274.7608886855
 51
19.0
  0
ARC
  5
2D4
100
AcDbEntity
  8
LAYER_CUT_FEAT
100
AcDbCircle
 62
7
  6
CONTINUOUS
 10
15.6120477317
 20
4.4869959826
 40
0.05
100
AcDbArc
 50
19.0
 51
93.0391281351
  0
ARC
  5
2D5
100
AcDbEntity
  8
02___PRT_ALL_AXES
100
AcDbCircle
 62
7
  6
CONTINUOUS
 10
15.8304454293
 20
5.861049852
 40
0.05
100
AcDbArc
 50
322.4804512298
 51
149.5195487702
  0
ARC
  5
2D6
100
AcDbEntity
  8
LAYER_CUT_FEAT
100
AcDbCircle
 62
7
  6
CONTINUOUS
 10
16.0222504541
 20
5.6018402378
 40
0.05
100
AcDbArc
 50
263.1497787952
 51
130.8502212048
  0
ARC
  5
2D7
100
AcDbEntity
  8
LAYER_CUT_FEAT
100
AcDbCircle
 62
7
  6
CONTINUOUS
 10
16.4929468499
 20
5.7450503023
 40
0.05
100
AcDbArc
 50
196.9608718649
 51
271.0
  0
ARC
  5
2D8
100
AcDbEntity
  8
LAYER_CUT_FEAT
100
AcDbCircle
 62
7
  6
CONTINUOUS
 10
16.6120279071
 20
5.7471288699
 40
0.05
100
AcDbArc
 50
271.0
 51
15.2391113145
  0
ARC
  5
2D9
100
AcDbEntity
  8
LAYER_CUT_FEAT
100
AcDbCircle
 62
7
  6
CONTINUOUS
 10
16.1256410054
 20
6.3925860891
 40
0.05
100
AcDbArc
 50
58.7608886855
 51
163.0
  0
ARC
  5
2DA
100
AcDbEntity
  8
LAYER_CUT_FEAT
100
AcDbCircle
 62
7
  6
CONTINUOUS
 10
16.0908197703
 20
6.278690961
 40
0.05
100
AcDbArc
 50
163.0
 51
237.0391281351
  0
ARC
  5
2DB
100
AcDbEntity
  8
LAYER_CUT_FEAT
100
AcDbCircle
 62
7
  6
CONTINUOUS
 10
15.6128583248
 20
6.5493594875
 40
0.05
100
AcDbArc
 50
343.0
 51
87.2391113145
  0
ARC
  5
2DC
100
AcDbEntity
  8
02___PRT_ALL_AXES
100
AcDbCircle
 62
7
  6
CONTINUOUS
 10
13.3291833244
 20
-18.1277222973
 40
30.2513575933
100
AcDbArc
 50
85.341971135
 51
85.5307060771
  0
ARC
  5
2DD
100
AcDbEntity
  8
LAYER_CUT_FEAT
100
AcDbCircle
 62
7
  6
CONTINUOUS
 10
17.4581552154
 20
-13.3212955562
 40
26.3653376021
100
AcDbArc
 50
93.6158458221
 51
93.8972457002
  0
ARC
  5
2DE
100
AcDbEntity
  8
LAYER_CUT_FEAT
100
AcDbCircle
 62
7
  6
CONTINUOUS
 10
14.4638306264
 20
29.702811725
 40
16.8018162388
100
AcDbArc
 50
274.0274159311
 51
274.6640143581
  0
ARC
  5
2DF
100
AcDbEntity
  8
02___PRT_ALL_AXES
100
AcDbCircle
 62
7
  6
CONTINUOUS
 10
16.3268152224
 20
24.8357817388
 40
12.7100804271
100
AcDbArc
 50
266.7612719436
 51
267.9395178412
  0
ARC
  5
2E0
100
AcDbEntity
  8
LAYER_FEATURE
100
AcDbCircle
 62
7
  6
CONTINUOUS
 10
17.4426372167
 20
12.6241681069
 40
2.6659883876
100
AcDbArc
 50
168.5114039984
 51
168.8693190978
  0
ARC
  5
2E1
100
AcDbEntity
  8
LAYER_FEATURE
100
AcDbCircle
 62
7
  6
CONTINUOUS
 10
17.1764406154
 20
12.6828933026
 40
2.3933747856
100
AcDbArc
 50
166.2925792026
 51
166.6772136669
  0
ARC
  5
2E2
100
AcDbEntity
  8
LAYER_FEATURE
100
AcDbCircle
 62
7
  6
CONTINUOUS
 10
17.2946391652
 20
12.7787241199
 40
2.1718845832
100
AcDbArc
 50
162.8378050182
 51
164.9317628346
  0
ARC
  5
2E3
100
AcDbEntity
  8
LAYER_FEATURE
100
AcDbCircle
 62
7
  6
CONTINUOUS
 10
16.9021426978
 20
12.7549972826
 40
2.1097384153
100
AcDbArc
 50
163.8916094486
 51
164.3100246754
  0
ARC
  5
2E4
100
AcDbEntity
  8
02___PRT_ALL_AXES
100
AcDbCircle
 62
7
  6
CONTINUOUS
 10
15.8354694122
 20
13.3213064185
 40
0.5117399378
100
AcDbArc
 50
138.5048214528
 51
139.2782697351
  0
ARC
  5
2E5
100
AcDbEntity
  8
02___PRT_ALL_AXES
100
AcDbCircle
 62
7
  6
CONTINUOUS
 10
15.8335455156
 20
11.6986188042
 40
0.5091826674
100
AcDbArc
 50
220.9225669246
 51
221.4935342001
  0
ARC
  5
2E6
100
AcDbEntity
  8
02___PRT_ALL_AXES
100
AcDbCircle
 62
7
  6
CONTINUOUS
 10
15.6163008064
 20
11.9523661773
 40
0.3483709505
100
AcDbArc
 50
317.7345365572
 51
320.1796560624
  0
ARC
  5
2E7
100
AcDbEntity
  8
02___PRT_ALL_AXES
100
AcDbCircle
 62
7
  6
CONTINUOUS
 10
15.616303361
 20
13.0692460217
 40
0.3483675711
100
AcDbArc
 50
39.8203334128
 51
42.2658111692
  0
ARC
  5
2E8
100
AcDbEntity
  8
LAYER_CUT_FEAT
100
AcDbCircle
 62
7
  6
CONTINUOUS
 10
15.4364526435
 20
13.5262486873
 40
0.0838087534
100
AcDbArc
 50
193.3486718717
 51
195.0001924107
  0
ARC
  5
2E9
100
AcDbEntity
  8
02___PRT_ALL_AXES
100
AcDbCircle
 62
7
  6
CONTINUOUS
 10
15.741881675
 20
12.0867560907
 40
0.075951067
100
AcDbArc
 50
265.6525795056
 51
275.3429789402
  0
ARC
  5
2EA
100
AcDbEntity
  8
LAYER_CUT_FEAT
100
AcDbCircle
 62
7
  6
CONTINUOUS
 10
15.6071118661
 20
13.4074842251
 40
0.069197472
100
AcDbArc
 50
341.7123179353
 51
343.4201652197
  0
SPLINE
  5
2EB
100
AcDbEntity
  8
02___PRT_ALL_AXES
100
AcDbSpline
 62
7
  6
CONTINUOUS
 70
0
 71
3
 72
54
 73
50
 74
0
 42
0.0000001
 43
0.0000001
 44
0.0000000001
 40
0.0
 40
0.0
 40
0.0
 40
0.0
 40
0.0082048429
 40
0.0162543529
 40
0.0242056447
 40
0.0321185076
 40
0.0400538114
 40
0.0480717924
 40
0.0562304106
 40
0.0645839486
 40
0.0731819667
 40
0.0820686513
 40
0.0912825274
 40
0.1008564674
 40
0.1108179083
 40
0.1211892014
 40
0.131988027
 40
0.1432278288
 40
0.1549182386
 40
0.1670654722
 40
0.1796726895
 40
0.1927403152
 40
0.206266322
 40
0.220246479
 40
0.2346745684
 40
0.2495425757
 40
0.2648408558
 40
0.2805582797
 40
0.2966823638
 40
0.3131993858
 40
0.3300944884
 40
0.3473517731
 40
0.382883009
 40
0.4196499193
 40
0.4574957528
 40
0.4962539826
 40
0.5357501394
 40
0.5758035234
 40
0.6162288351
 40
0.6568377514
 40
0.6974404699
 40
0.7378472378
 40
0.7778698817
 40
0.8173233533
 40
0.8560273097
 40
0.8938077463
 40
0.9304987144
 40
0.965944158
 40
1.0
 40
1.0
 40
1.0
 40
1.0
 10
15.5930294051
 20
13.79404852
 30
0.0
 10
15.5991413049
 20
13.7961778908
 30
0.0
 10
15.6114378513
 20
13.7998797761
 30
0.0
 10
15.6301704953
 20
13.8037094434
 30
0.0
 10
15.6489527716
 20
13.8057451691
 30
0.0
 10
15.6677535184
 20
13.8059820194
 30
0.0
 10
15.6865433655
 20
13.8044196315
 30
0.0
 10
15.705292607
 20
13.8010613329
 30
0.0
 10
15.7239725399
 20
13.7959141013
 30
0.0
 10
15.7425556223
 20
13.7889879973
 30
0.0
 10
15.761015597
 20
13.7802956425
 30
0.0
 10
15.7793273226
 20
13.7698517846
 30
0.0
 10
15.7974665155
 20
13.7576730432
 30
0.0
 10
15.8154094831
 20
13.743777817
 30
0.0
 10
15.8331329158
 20
13.7281863022
 30
0.0
 10
15.8506137569
 20
13.7109205669
 30
0.0
 10
15.8678291434
 20
13.6920046381
 30
0.0
 10
15.8847563977
 20
13.6714645747
 30
0.0
 10
15.9013730541
 20
13.6493285188
 30
0.0
 10
15.917656904
 20
13.6256267223
 30
0.0
 10
15.9335860481
 20
13.600391551
 30
0.0
 10
15.9491389521
 20
13.5736574709
 30
0.0
 10
15.9642944988
 20
13.5454610192
 30
0.0
 10
15.9790320388
 20
13.5158407662
 30
0.0
 10
15.9933314354
 20
13.4848372671
 30
0.0
 10
16.0071731068
 20
13.4524930093
 30
0.0
 10
16.0205380653
 20
13.4188523527
 30
0.0
 10
16.0334079489
 20
13.3839614716
 30
0.0
 10
16.0457650669
 20
13.3478682762
 30
0.0
 10
16.0575923797
 20
13.3106223945
 30
0.0
 10
16.0688737197
 20
13.2722749081
 30
0.0
 10
16.0833063968
 20
13.2192317679
 30
0.0
 10
16.0998270908
 20
13.1505276572
 30
0.0
 10
16.1170586439
 20
13.0653511985
 30
0.0
 10
16.1317894696
 20
12.977125643
 30
0.0
 10
16.1439379954
 20
12.8863363981
 30
0.0
 10
16.1534369376
 20
12.7934819562
 30
0.0
 10
16.1602336643
 20
12.6990728188
 30
0.0
 10
16.1642905114
 20
12.6036281161
 30
0.0
 10
16.1655849947
 20
12.5076728177
 30
0.0
 10
16.1641099392
 20
12.4117347482
 30
0.0
 10
16.1598735201
 20
12.3163416391
 30
0.0
 10
16.1528992143
 20
12.2220181617
 30
0.0
 10
16.1432256748
 20
12.1292830003
 30
0.0
 10
16.1309064891
 20
12.0386458563
 30
0.0
 10
16.1160099358
 20
11.9506048304
 30
0.0
 10
16.0986183136
 20
11.8656426327
 30
0.0
 10
16.0788283661
 20
11.7842271725
 30
0.0
 10
16.0637882129
 20
11.7314867143
 30
0.0
 10
16.0558566243
 20
11.705820084
 30
0.0
  0
SPLINE
  5
2EC
100
AcDbEntity
  8
LAYER_CUT_FEAT
100
AcDbSpline
 62
7
  6
CONTINUOUS
 70
0
 71
3
 72
13
 73
9
 74
0
 42
0.0000001
 43
0.0000001
 44
0.0000000001
 40
0.0
 40
0.0
 40
0.0
 40
0.0
 40
0.2736558088
 40
0.4040744431
 40
0.5304330263
 40
0.7717699679
 40
0.8873778609
 40
1.0
 40
1.0
 40
1.0
 40
1.0
 10
15.54461965
 20
13.5586609184
 30
0.0
 10
15.5368511713
 20
13.5672088506
 30
0.0
 10
15.5248762795
 20
13.5793928896
 30
0.0
 10
15.5080970441
 20
13.5942270676
 30
0.0
 10
15.4916764845
 20
13.6073665463
 30
0.0
 10
15.4747711816
 20
13.618873966
 30
0.0
 10
15.4574465598
 20
13.6285207442
 30
0.0
 10
15.448747625
 20
13.6326781107
 30
0.0
 10
15.4443931649
 20
13.6345848101
 30
0.0
  0
SPLINE
  5
2ED
100
AcDbEntity
  8
LAYER_CUT_FEAT
100
AcDbSpline
 62
7
  6
CONTINUOUS
 70
0
 71
3
 72
23
 73
19
 74
0
 42
0.0000001
 43
0.0000001
 44
0.0000000001
 40
0.0
 40
0.0
 40
0.0
 40
0.0
 40
0.0615170466
 40
0.126499214
 40
0.1943013293
 40
0.2642149008
 40
0.3354908095
 40
0.4073533133
 40
0.4790156083
 40
0.5496946728
 40
0.6186262164
 40
0.6850802514
 40
0.7483775424
 40
0.8079079169
 40
0.8631520454
 40
0.9137095347
 40
0.9593356234
 40
1.0
 40
1.0
 40
1.0
 40
1.0
 10
15.5524119016
 20
13.4823101074
 30
0.0
 10
15.5528749466
 20
13.4838634441
 30
0.0
 10
15.5537216672
 20
13.4870896845
 30
0.0
 10
15.554739424
 20
13.4921093837
 30
0.0
 10
15.5555305
 20
13.4973935202
 30
0.0
 10
15.5560844806
 20
13.502874193
 30
0.0
 10
15.5563941471
 20
13.5084811422
 30
0.0
 10
15.5564554498
 20
13.5141423308
 30
0.0
 10
15.5562675914
 20
13.5197850154
 30
0.0
 10
15.5558330259
 20
13.5253366941
 30
0.0
 10
15.5551574267
 20
13.5307260907
 30
0.0
 10
15.5542496219
 20
13.5358841292
 30
0.0
 10
15.553121452
 20
13.5407448775
 30
0.0
 10
15.551787519
 20
13.5452465407
 30
0.0
 10
15.5502650337
 20
13.5493322415
 30
0.0
 10
15.5485728344
 20
13.5529514695
 30
0.0
 10
15.5467322075
 20
13.5560591809
 30
0.0
 10
15.5453402629
 20
13.5578680025
 30
0.0
 10
15.54461965
 20
13.5586609184
 30
0.0
  0
SPLINE
  5
2EE
100
AcDbEntity
  8
LAYER_CUT_FEAT
100
AcDbSpline
 62
7
  6
CONTINUOUS
 70
0
 71
3
 72
11
 73
7
 74
0
 42
0.0000001
 43
0.0000001
 44
0.0000000001
 40
0.0
 40
0.0
 40
0.0
 40
0.0
 40
0.2357021436
 40
0.4809797621
 40
0.7357814531
 40
1.0
 40
1.0
 40
1.0
 40
1.0
 10
15.5944027087
 20
11.5275145746
 30
0.0
 10
15.5997796375
 20
11.5356146508
 30
0.0
 10
15.610386129
 20
11.5523891056
 30
0.0
 10
15.6255681085
 20
11.578676684
 30
0.0
 10
15.6403148015
 20
11.6065483379
 30
0.0
 10
15.6496715109
 20
11.6258091083
 30
0.0
 10
15.6542785988
 20
11.6356859761
 30
0.0
  0
SPLINE
  5
2EF
100
AcDbEntity
  8
02___PRT_ALL_AXES
100
AcDbSpline
 62
7
  6
CONTINUOUS
 70
0
 71
3
 72
31
 73
27
 74
0
 42
0.0000001
 43
0.0000001
 44
0.0000000001
 40
0.0
 40
0.0
 40
0.0
 40
0.0
 40
0.026498761
 40
0.0548857556
 40
0.0850849117
 40
0.1169941253
 40
0.1853957284
 40
0.2588668158
 40
0.3359414807
 40
0.4150102478
 40
0.4943883239
 40
0.5723794525
 40
0.647339196
 40
0.7177411294
 40
0.7508142983
 40
0.7822684801
 40
0.8119821997
 40
0.8398594174
 40
0.865835116
 40
0.8898826375
 40
0.9120233845
 40
0.9323395286
 40
0.9509900462
 40
0.9682273208
 40
0.9844108819
 40
1.0
 40
1.0
 40
1.0
 40
1.0
 10
15.5508022367
 20
12.4146993275
 30
0.0
 10
15.550356774
 20
12.4139370868
 30
0.0
 10
15.5494949992
 20
12.412322227
 30
0.0
 10
15.5483237718
 20
12.4097389841
 30
0.0
 10
15.5472356934
 20
12.4069255122
 30
0.0
 10
15.5458735823
 20
12.4027945625
 30
0.0
 10
15.5444440472
 20
12.3971760873
 30
0.0
 10
15.5431872515
 20
12.3899845527
 30
0.0
 10
15.5423840823
 20
12.3823711682
 30
0.0
 10
15.5420551273
 20
12.3745261462
 30
0.0
 10
15.5422089234
 20
12.3666452459
 30
0.0
 10
15.5428414598
 20
12.3589252457
 30
0.0
 10
15.5439365268
 20
12.3515591837
 30
0.0
 10
15.5452365512
 20
12.3457510611
 30
0.0
 10
15.5465008314
 20
12.3414356372
 30
0.0
 10
15.5475240632
 20
12.3384658328
 30
0.0
 10
15.5486354895
 20
12.3357135485
 30
0.0
 10
15.5498282855
 20
12.333195788
 30
0.0
 10
15.5510951624
 20
12.3309280075
 30
0.0
 10
15.5524286181
 20
12.3289239918
 30
0.0
 10
15.5538211056
 20
12.327195859
 30
0.0
 10
15.5552652959
 20
12.3257541815
 30
0.0
 10
15.5567541152
 20
12.3246084807
 30
0.0
 10
15.5582808326
 20
12.3237678512
 30
0.0
 10
15.5598363257
 20
12.3232418234
 30
0.0
 10
15.5608947534
 20
12.323105518
 30
0.0
 10
15.5614139838
 20
12.3230928398
 30
0.0
  0
SPLINE
  5
2F0
100
AcDbEntity
  8
02___PRT_ALL_AXES
100
AcDbSpline
 62
7
  6
CONTINUOUS
 70
0
 71
3
 72
20
 73
16
 74
0
 42
0.0000001
 43
0.0000001
 44
0.0000000001
 40
0.0
 40
0.0
 40
0.0
 40
0.0
 40
0.1761272239
 40
0.3397771328
 40
0.4886920332
 40
0.5571154389
 40
0.6213200129
 40
0.681252655
 40
0.7369444711
 40
0.7885309867
 40
0.8362764186
 40
0.8806010569
 40
0.9221063425
 40
0.9615852395
 40
1.0
 40
1.0
 40
1.0
 40
1.0
 10
15.7489540469
 20
12.0111350213
 30
0.0
 10
15.7493287496
 20
12.0090408278
 30
0.0
 10
15.750178599
 20
12.0050216473
 30
0.0
 10
15.7518195547
 20
11.9993457557
 30
0.0
 10
15.7534750875
 20
11.9950431599
 30
0.0
 10
15.7549532936
 20
11.9919785592
 30
0.0
 10
15.7560898455
 20
11.989947321
 30
0.0
 10
15.75728002
 20
11.9881278768
 30
0.0
 10
15.7585183528
 20
11.9865291495
 30
0.0
 10
15.7597992956
 20
11.9851590156
 30
0.0
 10
15.7611174756
 20
11.984024471
 30
0.0
 10
15.7624675389
 20
11.9831319481
 30
0.0
 10
15.7638440806
 20
11.9824876906
 30
0.0
 10
15.7652397274
 20
11.9820977798
 30
0.0
 10
15.766182758
 20
11.9820102984
 30
0.0
 10
15.7666467722
 20
11.9820102967
 30
0.0
  0
SPLINE
  5
2F1
100
AcDbEntity
  8
02___PRT_ALL_AXES
100
AcDbSpline
 62
7
  6
CONTINUOUS
 70
0
 71
3
 72
14
 73
10
 74
0
 42
0.0000001
 43
0.0000001
 44
0.0000000001
 40
0.0
 40
0.0
 40
0.0
 40
0.0
 40
0.2923367241
 40
0.4255100934
 40
0.5509144761
 40
0.6696033525
 40
0.782905846
 40
0.8924289372
 40
1.0
 40
1.0
 40
1.0
 40
1.0
 10
15.8698313116
 20
12.1339192703
 30
0.0
 10
15.8704591698
 20
12.1331216243
 30
0.0
 10
15.8714519586
 20
12.1320158088
 30
0.0
 10
15.8729154899
 20
12.1307800576
 30
0.0
 10
15.8739992419
 20
12.130039455
 30
0.0
 10
15.8750996559
 20
12.1294592762
 30
0.0
 10
15.8762135841
 20
12.1290423002
 30
0.0
 10
15.8773367555
 20
12.1287909545
 30
0.0
 10
15.8780917338
 20
12.1287347658
 30
0.0
 10
15.8784652629
 20
12.1287347685
 30
0.0
  0
SPLINE
  5
2F2
100
AcDbEntity
  8
LAYER_CUT_FEAT
100
AcDbSpline
 62
7
  6
CONTINUOUS
 70
0
 71
3
 72
18
 73
14
 74
0
 42
0.0000001
 43
0.0000001
 44
0.0000000001
 40
0.0
 40
0.0
 40
0.0
 40
0.0
 40
0.1742289308
 40
0.3348718011
 40
0.4806715983
 40
0.6109448712
 40
0.7258263625
 40
0.7779030404
 40
0.8267440935
 40
0.8727690709
 40
0.9165237459
 40
0.9586769673
 40
1.0
 40
1.0
 40
1.0
 40
1.0
 10
15.3818134111
 20
13.4064823564
 30
0.0
 10
15.3822432404
 20
13.4048803259
 30
0.0
 10
15.3831652534
 20
13.4018254418
 30
0.0
 10
15.3848101626
 20
13.3975502014
 30
0.0
 10
15.3866428031
 20
13.3938106667
 30
0.0
 10
15.3886380896
 20
13.3906589412
 30
0.0
 10
15.3904750235
 20
13.3884885392
 30
0.0
 10
15.3920097397
 20
13.3871181392
 30
0.0
 10
15.3931463941
 20
13.3862977545
 30
0.0
 10
15.3943025909
 20
13.385654526
 30
0.0
 10
15.3954746479
 20
13.3851918167
 30
0.0
 10
15.3966577083
 20
13.3849126862
 30
0.0
 10
15.3974537477
 20
13.3848502682
 30
0.0
 10
15.3978471504
 20
13.3848502685
 30
0.0
  0
SPLINE
  5
2F3
100
AcDbEntity
  8
LAYER_CUT_FEAT
100
AcDbSpline
 62
7
  6
CONTINUOUS
 70
0
 71
3
 72
15
 73
11
 74
0
 42
0.0000001
 43
0.0000001
 44
0.0000000001
 40
0.0
 40
0.0
 40
0.0
 40
0.0
 40
0.1411180631
 40
0.2762519316
 40
0.4059543246
 40
0.5308890171
 40
0.6518327671
 40
0.7696695617
 40
0.8853765156
 40
1.0
 40
1.0
 40
1.0
 40
1.0
 10
15.6357922859
 20
13.3858201628
 30
0.0
 10
15.6312067295
 20
13.3898567874
 30
0.0
 10
15.62196868
 20
13.3974694443
 30
0.0
 10
15.6076154935
 20
13.4076385258
 30
0.0
 10
15.5931011048
 20
13.4162815945
 30
0.0
 10
15.5784496477
 20
13.4233807516
 30
0.0
 10
15.5636855726
 20
13.4289207948
 30
0.0
 10
15.5488342158
 20
13.4328885171
 30
0.0
 10
15.5339253735
 20
13.4352736173
 30
0.0
 10
15.5239461825
 20
13.4358049813
 30
0.0
 10
15.5189840139
 20
13.4358049845
 30
0.0
  0
SPLINE
  5
2F4
100
AcDbEntity
  8
LAYER_CUT_FEAT
100
AcDbSpline
 62
7
  6
CONTINUOUS
 70
0
 71
3
 72
19
 73
15
 74
0
 42
0.0000001
 43
0.0000001
 44
0.0000000001
 40
0.0
 40
0.0
 40
0.0
 40
0.0
 40
0.0375515737
 40
0.0785236358
 40
0.1232251902
 40
0.1718127598
 40
0.2243160825
 40
0.2806682753
 40
0.3407242576
 40
0.4042761275
 40
0.5407558237
 40
0.6875997478
 40
0.8417877419
 40
1.0
 40
1.0
 40
1.0
 40
1.0
 10
15.6093386635
 20
11.615377962
 30
0.0
 10
15.6088097881
 20
11.6150260445
 30
0.0
 10
15.6077617006
 20
11.6142012707
 30
0.0
 10
15.6062996999
 20
11.6127091705
 30
0.0
 10
15.6048914143
 20
11.6109223405
 30
0.0
 10
15.6035451195
 20
11.608852461
 30
0.0
 10
15.6022685284
 20
11.606512266
 30
0.0
 10
15.6010695304
 20
11.6039164969
 30
0.0
 10
15.5999555921
 20
11.6010815612
 30
0.0
 10
15.5985603379
 20
11.5969070427
 30
0.0
 10
15.5970976548
 20
11.5912159318
 30
0.0
 10
15.5958150853
 20
11.5839202596
 30
0.0
 10
15.5950000558
 20
11.5761885274
 30
0.0
 10
15.5947839642
 20
11.5709039448
 30
0.0
 10
15.5947578778
 20
11.5682275954
 30
0.0
  0
SPLINE
  5
2F5
100
AcDbEntity
  8
LAYER_CUT_FEAT
100
AcDbSpline
 62
7
  6
CONTINUOUS
 70
0
 71
3
 72
22
 73
18
 74
0
 42
0.0000001
 43
0.0000001
 44
0.0000000001
 40
0.0
 40
0.0
 40
0.0
 40
0.0
 40
0.1699322126
 40
0.3348856681
 40
0.4138059475
 40
0.4895008016
 40
0.5614024156
 40
0.6290115793
 40
0.6919157353
 40
0.7498121626
 40
0.8025395835
 40
0.8501228422
 40
0.8928360577
 40
0.9312857347
 40
0.9664960108
 40
0.9833622879
 40
1.0
 40
1.0
 40
1.0
 40
1.0
 10
15.5935973771
 20
11.4491656884
 30
0.0
 10
15.5935651037
 20
11.4458545882
 30
0.0
 10
15.5937523712
 20
11.4393243987
 30
0.0
 10
15.5946156133
 20
11.4312976067
 30
0.0
 10
15.5956880133
 20
11.4251616683
 30
0.0
 10
15.5966516275
 20
11.4208524402
 30
0.0
 10
15.5977764402
 20
11.4168105468
 30
0.0
 10
15.5990513817
 20
11.4130754788
 30
0.0
 10
15.6004639202
 20
11.4096834923
 30
0.0
 10
15.6020004826
 20
11.4066671013
 30
0.0
 10
15.6036469477
 20
11.4040547406
 30
0.0
 10
15.6053891867
 20
11.4018706304
 30
0.0
 10
15.6072146962
 20
11.400135471
 30
0.0
 10
15.6091110498
 20
11.3988684003
 30
0.0
 10
15.6107668626
 20
11.3982118487
 30
0.0
 10
15.6120843559
 20
11.3979567705
 30
0.0
 10
15.6127379996
 20
11.3979146075
 30
0.0
 10
15.613062198
 20
11.3979146067
 30
0.0
  0
SPLINE
  5
2F6
100
AcDbEntity
  8
LAYER_CUT_FEAT
100
AcDbSpline
 62
7
  6
CONTINUOUS
 70
0
 71
3
 72
9
 73
5
 74
0
 42
0.0000001
 43
0.0000001
 44
0.0000000001
 40
0.0
 40
0.0
 40
0.0
 40
0.0
 40
0.2426397388
 40
1.0
 40
1.0
 40
1.0
 40
1.0
 10
15.6093386635
 20
11.615377962
 30
0.0
 10
15.6115748165
 20
11.6168659143
 30
0.0
 10
15.6206783795
 20
11.6231664635
 30
0.0
 10
15.6293309271
 20
11.6301107788
 30
0.0
 10
15.6356281618
 20
11.6356454599
 30
0.0
  0
SPLINE
  5
2F7
100
AcDbEntity
  8
02___PRT_ALL_AXES
100
AcDbSpline
 62
7
  6
CONTINUOUS
 70
0
 71
3
 72
39
 73
35
 74
0
 42
0.0000001
 43
0.0000001
 44
0.0000000001
 40
0.0
 40
0.0
 40
0.0
 40
0.0
 40
0.0297975602
 40
0.0605454239
 40
0.0921728843
 40
0.1246042267
 40
0.157759371
 40
0.1915544535
 40
0.2259023685
 40
0.260713281
 40
0.2958951167
 40
0.3313540367
 40
0.3669948994
 40
0.402721715
 40
0.4384380949
 40
0.4740476987
 40
0.509454682
 40
0.5445641463
 40
0.579282595
 40
0.6135183978
 40
0.6471822681
 40
0.6801877574
 40
0.7124517739
 40
0.7438951319
 40
0.7744431443
 40
0.80402627
 40
0.8325808361
 40
0.8600498564
 40
0.8863839798
 40
0.9115426069
 40
0.9354952276
 40
0.9582230445
 40
0.9797209584
 40
1.0
 40
1.0
 40
1.0
 40
1.0
 10
15.273851295
 20
13.2993793987
 30
0.0
 10
15.2679794883
 20
13.2803782253
 30
0.0
 10
15.2566882675
 20
13.2415696571
 30
0.0
 10
15.2413108632
 20
13.1819949856
 30
0.0
 10
15.2272629707
 20
13.1202887214
 30
0.0
 10
15.2145895862
 20
13.0566473093
 30
0.0
 10
15.2033310335
 20
12.9912723559
 30
0.0
 10
15.1935232314
 20
12.9243713751
 30
0.0
 10
15.1851974566
 20
12.8561567169
 30
0.0
 10
15.1783802711
 20
12.7868449873
 30
0.0
 10
15.173093425
 20
12.7166563168
 30
0.0
 10
15.1693537879
 20
12.645813658
 30
0.0
 10
15.1671732928
 20
12.574542065
 30
0.0
 10
15.1665588979
 20
12.5030679705
 30
0.0
 10
15.1675125638
 20
12.4316184577
 30
0.0
 10
15.1700312474
 20
12.3604205307
 30
0.0
 10
15.1741069112
 20
12.2897003855
 30
0.0
 10
15.1797265502
 20
12.2196826828
 30
0.0
 10
15.1868722332
 20
12.1505898252
 30
0.0
 10
15.1955211623
 20
12.0826412402
 30
0.0
 10
15.2056457469
 20
12.016052672
 30
0.0
 10
15.2172136961
 20
11.951035482
 30
0.0
 10
15.2301881271
 20
11.8877959619
 30
0.0
 10
15.2445276916
 20
11.8265346585
 30
0.0
 10
15.2601867215
 20
11.7674457144
 30
0.0
 10
15.2771153959
 20
11.710716223
 30
0.0
 10
15.2952599295
 20
11.6565256043
 30
0.0
 10
15.3145627987
 20
11.6050449904
 30
0.0
 10
15.3349629729
 20
11.5564366712
 30
0.0
 10
15.356396297
 20
11.5108534429
 30
0.0
 10
15.3787955644
 20
11.4684384459
 30
0.0
 10
15.4020919422
 20
11.4293235286
 30
0.0
 10
15.4262120804
 20
11.3936330488
 30
0.0
 10
15.4432876512
 20
11.3715572579
 30
0.0
 10
15.4519607461
 20
11.3611664576
 30
0.0
  0
SPLINE
  5
2F8
100
AcDbEntity
  8
02___PRT_ALL_AXES
100
AcDbSpline
 62
7
  6
CONTINUOUS
 70
0
 71
3
 72
15
 73
11
 74
0
 42
0.0000001
 43
0.0000001
 44
0.0000000001
 40
0.0
 40
0.0
 40
0.0
 40
0.0
 40
0.1460583222
 40
0.2865095902
 40
0.4210819399
 40
0.5495505765
 40
0.6717451335
 40
0.7875586273
 40
0.896958465
 40
1.0
 40
1.0
 40
1.0
 40
1.0
 10
15.273851295
 20
13.2993793987
 30
0.0
 10
15.2796735536
 20
13.3182202346
 30
0.0
 10
15.2917033761
 20
13.3549945553
 30
0.0
 10
15.31132085
 20
13.4083683488
 30
0.0
 10
15.3321065144
 20
13.4587407478
 30
0.0
 10
15.3539911785
 20
13.5059439807
 30
0.0
 10
15.376902513
 20
13.5498219538
 30
0.0
 10
15.4007662755
 20
13.5902308367
 30
0.0
 10
15.4255032803
 20
13.6270352575
 30
0.0
 10
15.4430459175
 20
13.6497631131
 30
0.0
 10
15.4519607461
 20
13.6604435281
 30
0.0
  0
SPLINE
  5
2F9
100
AcDbEntity
  8
02___PRT_ALL_AXES
100
AcDbSpline
 62
7
  6
CONTINUOUS
 70
0
 71
3
 72
38
 73
34
 74
0
 42
0.0000001
 43
0.0000001
 44
0.0000000001
 40
0.0
 40
0.0
 40
0.0
 40
0.0
 40
0.0913951292
 40
0.1356277983
 40
0.1788460266
 40
0.2210249
 40
0.2621425446
 40
0.3021798811
 40
0.3411209522
 40
0.3789532048
 40
0.4156677862
 40
0.4512599044
 40
0.4857292328
 40
0.519080345
 40
0.551323204
 40
0.582473712
 40
0.6125543156
 40
0.6415946693
 40
0.6696323175
 40
0.6967133907
 40
0.7228932849
 40
0.7482372654
 40
0.7728209278
 40
0.7967304028
 40
0.8200622161
 40
0.8429227067
 40
0.8654269194
 40
0.8876969423
 40
0.9098597231
 40
0.9320444986
 40
0.9543800324
 40
0.9769918941
 40
1.0
 40
1.0
 40
1.0
 40
1.0
 10
16.0558566243
 20
11.705820084
 30
0.0
 10
16.0492360409
 20
11.6843958684
 30
0.0
 10
16.0388278387
 20
11.652777237
 30
0.0
 10
16.0238287917
 20
11.6115378339
 30
0.0
 10
16.0123226867
 20
11.5818844773
 30
0.0
 10
16.0004495588
 20
11.5532016354
 30
0.0
 10
15.9882216727
 20
11.5255190357
 30
0.0
 10
15.9756517915
 20
11.4988655446
 30
0.0
 10
15.9627529808
 20
11.4732688875
 30
0.0
 10
15.9495386375
 20
11.4487556924
 30
0.0
 10
15.9360224542
 20
11.4253514432
 30
0.0
 10
15.9222184019
 20
11.4030804606
 30
0.0
 10
15.9081407186
 20
11.3819658686
 30
0.0
 10
15.8938038759
 20
11.3620295832
 30
0.0
 10
15.8792225533
 20
11.3432923049
 30
0.0
 10
15.8644116157
 20
11.3257735115
 30
0.0
 10
15.8493860856
 20
11.3094914583
 30
0.0
 10
15.8341611375
 20
11.2944631723
 30
0.0
 10
15.8187520751
 20
11.2807044748
 30
0.0
 10
15.8031743283
 20
11.2682300137
 30
0.0
 10
15.7874434706
 20
11.2570532917
 30
0.0
 10
15.7715752541
 20
11.2471866972
 30
0.0
 10
15.7555856838
 20
11.2386415004
 30
0.0
 10
15.7394910985
 20
11.2314278476
 30
0.0
 10
15.7233082681
 20
11.2255547149
 30
0.0
 10
15.7070544884
 20
11.2210297913
 30
0.0
 10
15.6907476266
 20
11.2178593137
 30
0.0
 10
15.6744061093
 20
11.2160478337
 30
0.0
 10
15.658048759
 20
11.2155980362
 30
0.0
 10
15.6416947139
 20
11.2165105695
 30
0.0
 10
15.6253626804
 20
11.2187841701
 30
0.0
 10
15.6090725377
 20
11.2224151116
 30
0.0
 10
15.5983601961
 20
11.2257042443
 30
0.0
 10
15.5930294054
 20
11.2275614721
 30
0.0
  0
SPLINE
  5
2FA
100
AcDbEntity
  8
LAYER_CUT_FEAT
100
AcDbSpline
 62
7
  6
CONTINUOUS
 70
0
 71
3
 72
14
 73
10
 74
0
 42
0.0000001
 43
0.0000001
 44
0.0000000001
 40
0.0
 40
0.0
 40
0.0
 40
0.0
 40
0.1201354328
 40
0.2407554883
 40
0.3623376165
 40
0.4853452721
 40
0.6102220875
 40
0.7373868184
 40
1.0
 40
1.0
 40
1.0
 40
1.0
 10
15.5189840139
 20
13.6508049841
 30
0.0
 10
15.5150012127
 20
13.650804987
 30
0.0
 10
15.5070168124
 20
13.6505286589
 30
0.0
 10
15.4950597944
 20
13.6492864272
 30
0.0
 10
15.4831207704
 20
13.6472172761
 30
0.0
 10
15.4712098293
 20
13.644323272
 30
0.0
 10
15.4593350559
 20
13.6406065362
 30
0.0
 10
15.4433961961
 20
13.6344953416
 30
0.0
 10
15.4317700118
 20
13.6287675477
 30
0.0
 10
15.4241780766
 20
13.6245058201
 30
0.0
  0
SPLINE
  5
2FB
100
AcDbEntity
  8
02___PRT_ALL_AXES
100
AcDbSpline
 62
7
  6
CONTINUOUS
 70
0
 71
3
 72
22
 73
18
 74
0
 42
0.0000001
 43
0.0000001
 44
0.0000000001
 40
0.0
 40
0.0
 40
0.0
 40
0.0
 40
0.0167027803
 40
0.0336302718
 40
0.0689387331
 40
0.1074382928
 40
0.1501470304
 40
0.1976747032
 40
0.250304217
 40
0.3080723569
 40
0.3708317017
 40
0.4382946243
 40
0.5100644938
 40
0.5856585444
 40
0.6645256378
 40
0.8295818807
 40
1.0
 40
1.0
 40
1.0
 40
1.0
 10
15.685114075
 20
13.0212821484
 30
0.0
 10
15.6847933597
 20
13.0212821515
 30
0.0
 10
15.6841468461
 20
13.0212408831
 30
0.0
 10
15.6828438968
 20
13.0209913835
 30
0.0
 10
15.681206246
 20
13.0203493785
 30
0.0
 10
15.679328734
 20
13.0191093249
 30
0.0
 10
15.6775199271
 20
13.0174103675
 30
0.0
 10
15.6757919479
 20
13.0152710087
 30
0.0
 10
15.6741569235
 20
13.0127111774
 30
0.0
 10
15.6726285482
 20
13.0097541277
 30
0.0
 10
15.6712205394
 20
13.0064271385
 30
0.0
 10
15.6699461174
 20
13.0027614097
 30
0.0
 10
15.6688175293
 20
12.9987917542
 30
0.0
 10
15.667845637
 20
12.994556121
 30
0.0
 10
15.6667552748
 20
12.9885167261
 30
0.0
 10
15.6658583238
 20
12.9806019232
 30
0.0
 10
15.6656336481
 20
12.9741571465
 30
0.0
 10
15.6656437724
 20
12.9708849108
 30
0.0
  0
SPLINE
  5
2FC
100
AcDbEntity
  8
LAYER_CUT_FEAT
100
AcDbSpline
 62
7
  6
CONTINUOUS
 70
0
 71
3
 72
17
 73
13
 74
0
 42
0.0000001
 43
0.0000001
 44
0.0000000001
 40
0.0
 40
0.0
 40
0.0
 40
0.0
 40
0.0426844837
 40
0.0861095612
 40
0.1309701613
 40
0.1778808221
 40
0.2796732185
 40
0.3945462168
 40
0.5239658808
 40
0.668341806
 40
0.8273188742
 40
1.0
 40
1.0
 40
1.0
 40
1.0
 10
15.8106133967
 20
13.010400912
 30
0.0
 10
15.8102483491
 20
13.0104009073
 30
0.0
 10
15.80951085
 20
13.0103473024
 30
0.0
 10
15.8084132492
 20
13.0101073334
 30
0.0
 10
15.8073241687
 20
13.0097091512
 30
0.0
 10
15.8058491158
 20
13.0089496844
 30
0.0
 10
15.8040393284
 20
13.007576909
 30
0.0
 10
15.8020263849
 20
13.0053920178
 30
0.0
 10
15.800127048
 20
13.0026537688
 30
0.0
 10
15.7983610857
 20
12.9993943284
 30
0.0
 10
15.7967476698
 20
12.9956517613
 30
0.0
 10
15.7958223861
 20
12.9929677055
 30
0.0
 10
15.7953847772
 20
12.9915572222
 30
0.0
  0
SPLINE
  5
2FD
100
AcDbEntity
  8
02___PRT_ALL_AXES
100
AcDbSpline
 62
7
  6
CONTINUOUS
 70
0
 71
3
 72
30
 73
26
 74
0
 42
0.0000001
 43
0.0000001
 44
0.0000000001
 40
0.0
 40
0.0
 40
0.0
 40
0.0
 40
0.0187284726
 40
0.0377003667
 40
0.0570419046
 40
0.0768703619
 40
0.1183735068
 40
0.1402539128
 40
0.1629747676
 40
0.1865945611
 40
0.211160899
 40
0.2367114553
 40
0.2632748997
 40
0.2908717198
 40
0.3195150746
 40
0.3492115938
 40
0.3799620101
 40
0.444593688
 40
0.5133277858
 40
0.5860095907
 40
0.662432284
 40
0.7423452571
 40
0.8254610475
 40
0.911460629
 40
1.0
 40
1.0
 40
1.0
 40
1.0
 10
15.7361242792
 20
12.0110235549
 30
0.0
 10
15.7337709926
 20
12.0112022965
 30
0.0
 10
15.7290477794
 20
12.0117825643
 30
0.0
 10
15.7220134474
 20
12.0133048042
 30
0.0
 10
15.715007133
 20
12.0154800383
 30
0.0
 10
15.7055764766
 20
12.0193020279
 30
0.0
 10
15.6963647166
 20
12.0244091464
 30
0.0
 10
15.6874605577
 20
12.0306180947
 30
0.0
 10
15.6807359255
 20
12.0359840104
 30
0.0
 10
15.6740941134
 20
12.0419682311
 30
0.0
 10
15.6675422288
 20
12.0485632937
 30
0.0
 10
15.6610887282
 20
12.0557603762
 30
0.0
 10
15.6547416199
 20
12.0635501549
 30
0.0
 10
15.6485089169
 20
12.0719225055
 30
0.0
 10
15.642398538
 20
12.0808665723
 30
0.0
 10
15.6364181773
 20
12.09037083
 30
0.0
 10
15.6284966146
 20
12.1040004788
 30
0.0
 10
15.6190024872
 20
12.1223899242
 30
0.0
 10
15.6084303568
 20
12.1461183609
 30
0.0
 10
15.5985505863
 20
12.1717413787
 30
0.0
 10
15.5894144529
 20
12.1991263544
 30
0.0
 10
15.5810692925
 20
12.2281322481
 30
0.0
 10
15.573558652
 20
12.2586089433
 30
0.0
 10
15.5669218187
 20
12.2903980621
 30
0.0
 10
15.5631523824
 20
12.3120718285
 30
0.0
 10
15.5614139838
 20
12.3230928398
 30
0.0
  0
SPLINE
  5
2FE
100
AcDbEntity
  8
LAYER_FEATURE
100
AcDbSpline
 62
7
  6
CONTINUOUS
 70
0
 71
3
 72
16
 73
12
 74
0
 42
0.0000001
 43
0.0000001
 44
0.0000000001
 40
0.0
 40
0.0
 40
0.0
 40
0.0
 40
0.1158508084
 40
0.2326458379
 40
0.3513013406
 40
0.47268086
 40
0.5975760982
 40
0.7266944405
 40
0.7930453067
 40
0.8606754777
 40
1.0
 40
1.0
 40
1.0
 40
1.0
 10
15.2993442855
 20
13.9728049847
 30
0.0
 10
15.3066215902
 20
13.9728049776
 30
0.0
 10
15.3212455695
 20
13.9720828054
 30
0.0
 10
15.3431065907
 20
13.9688399212
 30
0.0
 10
15.3648962897
 20
13.9634434254
 30
0.0
 10
15.3865772597
 20
13.9559048865
 30
0.0
 10
15.4081166188
 20
13.9462398063
 30
0.0
 10
15.4257614674
 20
13.9365166513
 30
0.0
 10
15.4397639424
 20
13.9277318019
 30
0.0
 10
15.4539647
 20
13.9180787265
 30
0.0
 10
15.4643205307
 20
13.9101981296
 30
0.0
 10
15.4711125595
 20
13.9046788057
 30
0.0
  0
SPLINE
  5
2FF
100
AcDbEntity
  8
LAYER_FEATURE
100
AcDbSpline
 62
7
  6
CONTINUOUS
 70
0
 71
3
 72
16
 73
12
 74
0
 42
0.0000001
 43
0.0000001
 44
0.0000000001
 40
0.0
 40
0.0
 40
0.0
 40
0.0
 40
0.1158488042
 40
0.2326420544
 40
0.3512962132
 40
0.4726750094
 40
0.597570298
 40
0.7266895818
 40
0.7930412476
 40
0.8606725394
 40
1.0
 40
1.0
 40
1.0
 40
1.0
 10
15.2993442855
 20
11.0488050011
 30
0.0
 10
15.3066225262
 20
11.048804994
 30
0.0
 10
15.321248404
 20
11.0495273768
 30
0.0
 10
15.3431122427
 20
11.0527710929
 30
0.0
 10
15.3649047297
 20
11.0581689853
 30
0.0
 10
15.3865884425
 20
11.0657094661
 30
0.0
 10
15.4081304914
 20
11.0753770222
 30
0.0
 10
15.4257774613
 20
11.0851026571
 30
0.0
 10
15.4397816225
 20
11.0938896971
 30
0.0
 10
15.453984081
 20
11.103545271
 30
0.0
 10
15.464341126
 20
11.111427831
 30
0.0
 10
15.471133913
 20
11.1169485396
 30
0.0
  0
SPLINE
  5
300
100
AcDbEntity
  8
LAYER_FEATURE
100
AcDbSpline
 62
7
  6
CONTINUOUS
 70
0
 71
3
 72
53
 73
49
 74
0
 42
0.0000001
 43
0.0000001
 44
0.0000000001
 40
0.0
 40
0.0
 40
0.0
 40
0.0
 40
0.0076944604
 40
0.0154414025
 40
0.0232920025
 40
0.0312949529
 40
0.0394955109
 40
0.0479348255
 40
0.0566495461
 40
0.0656716829
 40
0.0750286628
 40
0.0847435244
 40
0.0948351973
 40
0.1053188251
 40
0.1162060997
 40
0.1275055885
 40
0.1392230405
 40
0.1513616669
 40
0.1639223941
 40
0.176904089
 40
0.1903037578
 40
0.2041167206
 40
0.2183367663
 40
0.2329562885
 40
0.2479664057
 40
0.2633570678
 40
0.2791171524
 40
0.2952345511
 40
0.311696247
 40
0.328488386
 40
0.3630034016
 40
0.3986558745
 40
0.4353108698
 40
0.4728253393
 40
0.5110495459
 40
0.5498283936
 40
0.5890026903
 40
0.6284103723
 40
0.6678876997
 40
0.7072704336
 40
0.7463950115
 40
0.7850997297
 40
0.8232259402
 40
0.8606192769
 40
0.8971309298
 40
0.9326189889
 40
0.9669498716
 40
1.0
 40
1.0
 40
1.0
 40
1.0
 10
15.6654327119
 20
13.9728049847
 30
0.0
 10
15.6720849723
 20
13.9728049902
 30
0.0
 10
15.685442566
 20
13.9722022895
 30
0.0
 10
15.705422279
 20
13.9694949348
 30
0.0
 10
15.7253485867
 20
13.9649881359
 30
0.0
 10
15.7451929151
 20
13.9586897137
 30
0.0
 10
15.7649304329
 20
13.9506099821
 30
0.0
 10
15.7845365541
 20
13.9407613757
 30
0.0
 10
15.80398774
 20
13.9291581752
 30
0.0
 10
15.8232610318
 20
13.9158163542
 30
0.0
 10
15.8423339353
 20
13.9007535317
 30
0.0
 10
15.8611842592
 20
13.8839889969
 30
0.0
 10
15.8797900347
 20
13.8655437654
 30
0.0
 10
15.8981294769
 20
13.845440641
 30
0.0
 10
15.9161809836
 20
13.8237042682
 30
0.0
 10
15.9339231575
 20
13.8003611676
 30
0.0
 10
15.9513348431
 20
13.7754397556
 30
0.0
 10
15.9683951704
 20
13.7489703466
 30
0.0
 10
15.985083596
 20
13.7209851377
 30
0.0
 10
16.0013799476
 20
13.6915181855
 30
0.0
 10
16.0172644643
 20
13.6606053745
 30
0.0
 10
16.0327178349
 20
13.6282843783
 30
0.0
 10
16.0477212334
 20
13.5945946169
 30
0.0
 10
16.0622563507
 20
13.5595772088
 30
0.0
 10
16.0763054259
 20
13.5232749209
 30
0.0
 10
16.0898512733
 20
13.4857321188
 30
0.0
 10
16.102877318
 20
13.4469946975
 30
0.0
 10
16.1153675738
 20
13.4071100716
 30
0.0
 10
16.1273068436
 20
13.3661269255
 30
0.0
 10
16.1426110963
 20
13.309568265
 30
0.0
 10
16.1602172427
 20
13.2364595998
 30
0.0
 10
16.1787419941
 20
13.1459661319
 30
0.0
 10
16.1947617887
 20
13.0523644213
 30
0.0
 10
16.2081977304
 20
12.9561128429
 30
0.0
 10
16.218983651
 20
12.8576817595
 30
0.0
 10
16.2270663977
 20
12.7575527844
 30
0.0
 10
16.2324061414
 20
12.6562159077
 30
0.0
 10
16.2349765714
 20
12.5541671681
 30
0.0
 10
16.2347650185
 20
12.4519061415
 30
0.0
 10
16.2317725196
 20
12.3499334633
 30
0.0
 10
16.226013822
 20
12.2487483338
 30
0.0
 10
16.2175173137
 20
12.1488460249
 30
0.0
 10
16.2063248681
 20
12.0507154278
 30
0.0
 10
16.1924916125
 20
11.9548365385
 30
0.0
 10
16.1760857154
 20
11.8616782926
 30
0.0
 10
16.1571877907
 20
11.7716952999
 30
0.0
 10
16.1358913205
 20
11.6853286559
 30
0.0
 10
16.1198401869
 20
11.6293109859
 30
0.0
 10
16.111403921
 20
11.6020112193
 30
0.0
  0
SPLINE
  5
301
100
AcDbEntity
  8
LAYER_FEATURE
100
AcDbSpline
 62
7
  6
CONTINUOUS
 70
0
 71
3
 72
33
 73
29
 74
0
 42
0.0000001
 43
0.0000001
 44
0.0000000001
 40
0.0
 40
0.0
 40
0.0
 40
0.0
 40
0.0212777903
 40
0.0426493663
 40
0.0642069952
 40
0.0860400042
 40
0.1082335506
 40
0.1308676137
 40
0.1540162472
 40
0.1777471271
 40
0.2271755508
 40
0.2529930289
 40
0.2795976994
 40
0.3070252014
 40
0.3353055651
 40
0.3644636258
 40
0.394519397
 40
0.4254884122
 40
0.4573821178
 40
0.4902082099
 40
0.5239709007
 40
0.5586712127
 40
0.5943072597
 40
0.6683604274
 40
0.7460707516
 40
0.827338188
 40
0.9120328623
 40
1.0
 40
1.0
 40
1.0
 40
1.0
 10
15.6654327119
 20
11.0488050012
 30
0.0
 10
15.6707729524
 20
11.0488050056
 30
0.0
 10
15.6814809703
 20
11.049192494
 30
0.0
 10
15.6975142228
 20
11.0509343937
 30
0.0
 10
15.7135208844
 20
11.0538355307
 30
0.0
 10
15.7294863794
 20
11.0578929275
 30
0.0
 10
15.7453978408
 20
11.063102608
 30
0.0
 10
15.7612421272
 20
11.0694595056
 30
0.0
 10
15.7770071984
 20
11.0769580515
 30
0.0
 10
15.7981889054
 20
11.0886254895
 30
0.0
 10
15.8188866993
 20
11.1024640136
 30
0.0
 10
15.8390242716
 20
11.1182190899
 30
0.0
 10
15.8542096007
 20
11.1313089112
 30
0.0
 10
15.8692427037
 20
11.145487778
 30
0.0
 10
15.8841132084
 20
11.1607451534
 30
0.0
 10
15.8988093589
 20
11.1770687205
 30
0.0
 10
15.9133198973
 20
11.1944456552
 30
0.0
 10
15.9276335909
 20
11.2128622236
 30
0.0
 10
15.941739339
 20
11.2323039288
 30
0.0
 10
15.9556261549
 20
11.2527554923
 30
0.0
 10
15.9692831751
 20
11.2742007987
 30
0.0
 10
15.9826998735
 20
11.2966230518
 30
0.0
 10
16.0004816183
 20
11.3282029747
 30
0.0
 10
16.0219943566
 20
11.3700499469
 30
0.0
 10
16.0463639736
 20
11.4232354265
 30
0.0
 10
16.0695331155
 20
11.4798503942
 30
0.0
 10
16.0914286224
 20
11.5397157688
 30
0.0
 10
16.1048855242
 20
11.5809176798
 30
0.0
 10
16.111403921
 20
11.6020112193
 30
0.0
  0
SPLINE
  5
302
100
AcDbEntity
  8
LAYER_FEATURE
100
AcDbSpline
 62
7
  6
CONTINUOUS
 70
0
 71
3
 72
53
 73
49
 74
0
 42
0.0000001
 43
0.0000001
 44
0.0000000001
 40
0.0
 40
0.0
 40
0.0
 40
0.0
 40
0.0330501284
 40
0.0673810111
 40
0.1028690702
 40
0.1393807231
 40
0.1767740598
 40
0.2149002703
 40
0.2536049885
 40
0.2927295664
 40
0.3321123003
 40
0.3715896277
 40
0.4109973097
 40
0.4501716064
 40
0.4889504541
 40
0.5271746607
 40
0.5646891302
 40
0.6013441255
 40
0.6369965984
 40
0.671511614
 40
0.688303753
 40
0.7047654489
 40
0.7208828476
 40
0.7366429322
 40
0.7520335943
 40
0.7670437115
 40
0.7816632337
 40
0.7958832794
 40
0.8096962422
 40
0.823095911
 40
0.8360776059
 40
0.8486383331
 40
0.8607769595
 40
0.8724944115
 40
0.8837939003
 40
0.8946811749
 40
0.9051648027
 40
0.9152564756
 40
0.9249713372
 40
0.9343283171
 40
0.9433504539
 40
0.9520651745
 40
0.9605044891
 40
0.9687050471
 40
0.9767079975
 40
0.9845585975
 40
0.9923055396
 40
1.0
 40
1.0
 40
1.0
 40
1.0
 10
15.1968621898
 20
13.4195987665
 30
0.0
 10
15.1884259239
 20
13.3922989999
 30
0.0
 10
15.1723747903
 20
13.33628133
 30
0.0
 10
15.1510783201
 20
13.2499146859
 30
0.0
 10
15.1321803954
 20
13.1599316932
 30
0.0
 10
15.1157744983
 20
13.0667734474
 30
0.0
 10
15.1019412427
 20
12.970894558
 30
0.0
 10
15.0907487971
 20
12.8727639609
 30
0.0
 10
15.0822522888
 20
12.772861652
 30
0.0
 10
15.0764935912
 20
12.6716765225
 30
0.0
 10
15.0735010923
 20
12.5697038443
 30
0.0
 10
15.0732895394
 20
12.4674428177
 30
0.0
 10
15.0758599694
 20
12.3653940781
 30
0.0
 10
15.0811997131
 20
12.2640572015
 30
0.0
 10
15.0892824598
 20
12.1639282263
 30
0.0
 10
15.1000683804
 20
12.0654971429
 30
0.0
 10
15.1135043221
 20
11.9692455645
 30
0.0
 10
15.1295241167
 20
11.8756438539
 30
0.0
 10
15.1480488681
 20
11.785150386
 30
0.0
 10
15.1656550145
 20
11.7120417208
 30
0.0
 10
15.1809592672
 20
11.6554830603
 30
0.0
 10
15.192898537
 20
11.6144999142
 30
0.0
 10
15.2053887928
 20
11.5746152883
 30
0.0
 10
15.2184148375
 20
11.535877867
 30
0.0
 10
15.2319606849
 20
11.498335065
 30
0.0
 10
15.2460097601
 20
11.462032777
 30
0.0
 10
15.2605448774
 20
11.4270153689
 30
0.0
 10
15.2755482759
 20
11.3933256075
 30
0.0
 10
15.2910016465
 20
11.3610046113
 30
0.0
 10
15.3068861632
 20
11.3300918003
 30
0.0
 10
15.3231825148
 20
11.3006248481
 30
0.0
 10
15.3398709404
 20
11.2726396392
 30
0.0
 10
15.3569312677
 20
11.2461702302
 30
0.0
 10
15.3743429533
 20
11.2212488182
 30
0.0
 10
15.3920851272
 20
11.1979057176
 30
0.0
 10
15.4101366339
 20
11.1761693448
 30
0.0
 10
15.4284760761
 20
11.1560662204
 30
0.0
 10
15.4470818516
 20
11.1376209889
 30
0.0
 10
15.4659321755
 20
11.1208564541
 30
0.0
 10
15.485005079
 20
11.1057936316
 30
0.0
 10
15.5042783708
 20
11.0924518106
 30
0.0
 10
15.5237295567
 20
11.0808486101
 30
0.0
 10
15.5433356779
 20
11.0710000037
 30
0.0
 10
15.5630731957
 20
11.0629202721
 30
0.0
 10
15.5829175241
 20
11.0566218499
 30
0.0
 10
15.6028438318
 20
11.052115051
 30
0.0
 10
15.6228235448
 20
11.0494076963
 30
0.0
 10
15.6361811385
 20
11.0488049957
 30
0.0
 10
15.6428333989
 20
11.0488050012
 30
0.0
  0
SPLINE
  5
303
100
AcDbEntity
  8
02___PRT_ALL_AXES
100
AcDbSpline
 62
7
  6
CONTINUOUS
 70
0
 71
3
 72
21
 73
17
 74
0
 42
0.0000001
 43
0.0000001
 44
0.0000000001
 40
0.0
 40
0.0
 40
0.0
 40
0.0
 40
0.1474678229
 40
0.2181523752
 40
0.2868808716
 40
0.3537311995
 40
0.4187932503
 40
0.4821695259
 40
0.5439756211
 40
0.6633593729
 40
0.7212823805
 40
0.7782303878
 40
0.8343829738
 40
0.8899296086
 40
0.9450676586
 40
1.0
 40
1.0
 40
1.0
 40
1.0
 10
15.4521703252
 20
13.6603633072
 30
0.0
 10
15.4596894661
 20
13.6688626366
 30
0.0
 10
15.4712451307
 20
13.6810678051
 30
0.0
 10
15.4873492541
 20
13.6961744658
 30
0.0
 10
15.4993676399
 20
13.7065499421
 30
0.0
 10
15.5114879476
 20
13.7161229672
 30
0.0
 10
15.5237023181
 20
13.7248871065
 30
0.0
 10
15.5360036808
 20
13.7328365769
 30
0.0
 10
15.5523172239
 20
13.7422316149
 30
0.0
 10
15.5689862476
 20
13.7501330655
 30
0.0
 10
15.5859056034
 20
13.7563785232
 30
0.0
 10
15.5985148018
 20
13.7601786889
 30
0.0
 10
15.6111596611
 20
13.7631374508
 30
0.0
 10
15.6238320321
 20
13.7652526884
 30
0.0
 10
15.6365220447
 20
13.7665225438
 30
0.0
 10
15.6449948808
 20
13.7668049893
 30
0.0
 10
15.6492220384
 20
13.7668049909
 30
0.0
  0
SPLINE
  5
304
100
AcDbEntity
  8
02___PRT_ALL_AXES
100
AcDbSpline
 62
7
  6
CONTINUOUS
 70
0
 71
3
 72
21
 73
17
 74
0
 42
0.0000001
 43
0.0000001
 44
0.0000000001
 40
0.0
 40
0.0
 40
0.0
 40
0.0
 40
0.0543160991
 40
0.1088575334
 40
0.1638462042
 40
0.2194973566
 40
0.2760167367
 40
0.3335982606
 40
0.4526038346
 40
0.5143943513
 40
0.577877985
 40
0.6431741521
 40
0.7103874485
 40
0.7796083277
 40
0.8509138842
 40
1.0
 40
1.0
 40
1.0
 40
1.0
 10
15.7302754059
 20
13.3858049913
 30
0.0
 10
15.7333757162
 20
13.3858049941
 30
0.0
 10
15.7395913847
 20
13.3855868144
 30
0.0
 10
15.7488991959
 20
13.3846060405
 30
0.0
 10
15.758192566
 20
13.3829724556
 30
0.0
 10
15.7674634495
 20
13.3806876725
 30
0.0
 10
15.7767051894
 20
13.3777535571
 30
0.0
 10
15.7891123806
 20
13.3729278052
 30
0.0
 10
15.8013159015
 20
13.3668272482
 30
0.0
 10
15.8132365635
 20
13.359586195
 30
0.0
 10
15.8222278547
 20
13.353454898
 30
0.0
 10
15.831148544
 20
13.3466971447
 30
0.0
 10
15.8399929304
 20
13.3393178413
 30
0.0
 10
15.848754658
 20
13.3313224875
 30
0.0
 10
15.8604915483
 20
13.3196765194
 30
0.0
 10
15.8688854145
 20
13.3102858689
 30
0.0
 10
15.8743384106
 20
13.3037529007
 30
0.0
  0
SPLINE
  5
305
100
AcDbEntity
  8
02___PRT_ALL_AXES
100
AcDbSpline
 62
7
  6
CONTINUOUS
 70
0
 71
3
 72
39
 73
35
 74
0
 42
0.0000001
 43
0.0000001
 44
0.0000000001
 40
0.0
 40
0.0
 40
0.0
 40
0.0
 40
0.0202790426
 40
0.0417769549
 40
0.0645047729
 40
0.0884573931
 40
0.1136160196
 40
0.139950144
 40
0.1674191629
 40
0.1959737301
 40
0.2255568555
 40
0.2561048677
 40
0.2875482265
 40
0.3198122421
 40
0.3528177323
 40
0.3864816022
 40
0.420717405
 40
0.4554358539
 40
0.4905453177
 40
0.5259523013
 40
0.5615619049
 40
0.5972782848
 40
0.6330051003
 40
0.6686459632
 40
0.704104883
 40
0.7392867189
 40
0.7740976314
 40
0.808445546
 40
0.8422406292
 40
0.8753957727
 40
0.9078271157
 40
0.9394545737
 40
0.9702024068
 40
1.0
 40
1.0
 40
1.0
 40
1.0
 10
15.8838692721
 20
13.2923344522
 30
0.0
 10
15.8897652834
 20
13.2852707406
 30
0.0
 10
15.9013733275
 20
13.2702635141
 30
0.0
 10
15.9177703124
 20
13.2460009691
 30
0.0
 10
15.9336072909
 20
13.2194104699
 30
0.0
 10
15.9488344155
 20
13.1905765648
 30
0.0
 10
15.9634048871
 20
13.1595888812
 30
0.0
 10
15.9772730143
 20
13.1265447258
 30
0.0
 10
15.9903951959
 20
13.0915479736
 30
0.0
 10
16.0027299283
 20
13.0547089458
 30
0.0
 10
16.0142381188
 20
13.0161439819
 30
0.0
 10
16.0248831988
 20
12.9759750514
 30
0.0
 10
16.0346312966
 20
12.9343293407
 30
0.0
 10
16.0434513768
 20
12.8913388301
 30
0.0
 10
16.0513153176
 20
12.8471398508
 30
0.0
 10
16.0581980571
 20
12.801872642
 30
0.0
 10
16.0640776387
 20
12.7556808877
 30
0.0
 10
16.0689353039
 20
12.7087112515
 30
0.0
 10
16.0727555631
 20
12.6611129018
 30
0.0
 10
16.0755262149
 20
12.6130370282
 30
0.0
 10
16.0772384289
 20
12.5646363565
 30
0.0
 10
16.0778867359
 20
12.5160646557
 30
0.0
 10
16.0774690654
 20
12.467476244
 30
0.0
 10
16.0759867583
 20
12.4190254937
 30
0.0
 10
16.0734445331
 20
12.3708663349
 30
0.0
 10
16.0698505129
 20
12.3231517601
 30
0.0
 10
16.0652161598
 20
12.2760333339
 30
0.0
 10
16.0595562583
 20
12.2296607018
 30
0.0
 10
16.0528888735
 20
12.1841811132
 30
0.0
 10
16.0452352553
 20
12.1397389255
 30
0.0
 10
16.0366198333
 20
12.0964752075
 30
0.0
 10
16.0270700156
 20
12.0545270253
 30
0.0
 10
16.0166163879
 20
12.0140278948
 30
0.0
 10
16.0089405653
 20
11.9876456539
 30
0.0
 10
16.0049488802
 20
11.9747285563
 30
0.0
  0
SPLINE
  5
306
100
AcDbEntity
  8
LAYER_FEATURE
100
AcDbSpline
 62
7
  6
CONTINUOUS
 70
0
 71
3
 72
33
 73
29
 74
0
 42
0.0000001
 43
0.0000001
 44
0.0000000001
 40
0.0
 40
0.0
 40
0.0
 40
0.0
 40
0.0879671377
 40
0.172661812
 40
0.2539292484
 40
0.3316395726
 40
0.4056927403
 40
0.4413287873
 40
0.4760290993
 40
0.5097917901
 40
0.5426178822
 40
0.5745115878
 40
0.605480603
 40
0.6355363742
 40
0.6646944349
 40
0.6929747986
 40
0.7204023006
 40
0.7470069711
 40
0.7728244492
 40
0.8222528729
 40
0.8459837528
 40
0.8691323863
 40
0.8917664494
 40
0.9139599958
 40
0.9357930048
 40
0.9573506337
 40
0.9787222097
 40
1.0
 40
1.0
 40
1.0
 40
1.0
 10
15.1968621898
 20
13.4195987665
 30
0.0
 10
15.2033805866
 20
13.440692306
 30
0.0
 10
15.2168374884
 20
13.481894217
 30
0.0
 10
15.2387329953
 20
13.5417595916
 30
0.0
 10
15.2619021372
 20
13.5983745593
 30
0.0
 10
15.2862717542
 20
13.6515600389
 30
0.0
 10
15.3077844925
 20
13.6934070111
 30
0.0
 10
15.3255662373
 20
13.724986934
 30
0.0
 10
15.3389829357
 20
13.7474091871
 30
0.0
 10
15.3526399559
 20
13.7688544935
 30
0.0
 10
15.3665267718
 20
13.789306057
 30
0.0
 10
15.3806325199
 20
13.8087477623
 30
0.0
 10
15.3949462135
 20
13.8271643306
 30
0.0
 10
15.4094567519
 20
13.8445412653
 30
0.0
 10
15.4241529024
 20
13.8608648324
 30
0.0
 10
15.4390234071
 20
13.8761222078
 30
0.0
 10
15.4540565101
 20
13.8903010746
 30
0.0
 10
15.4692418392
 20
13.9033908959
 30
0.0
 10
15.4893794115
 20
13.9191459722
 30
0.0
 10
15.5100772054
 20
13.9329844963
 30
0.0
 10
15.5312589124
 20
13.9446519343
 30
0.0
 10
15.5470239836
 20
13.9521504803
 30
0.0
 10
15.56286827
 20
13.9585073778
 30
0.0
 10
15.5787797314
 20
13.9637170583
 30
0.0
 10
15.5947452264
 20
13.9677744551
 30
0.0
 10
15.610751888
 20
13.9706755921
 30
0.0
 10
15.6267851405
 20
13.9724174918
 30
0.0
 10
15.6374931584
 20
13.9728049802
 30
0.0
 10
15.6428333989
 20
13.9728049847
 30
0.0
  0
SPLINE
  5
307
100
AcDbEntity
  8
LAYER_FEATURE
100
AcDbSpline
 62
7
  6
CONTINUOUS
 70
0
 71
3
 72
53
 73
49
 74
0
 42
0.0000001
 43
0.0000001
 44
0.0000000001
 40
0.0
 40
0.0
 40
0.0
 40
0.0
 40
0.0330501323
 40
0.0673810115
 40
0.1028690699
 40
0.1393807231
 40
0.1767740601
 40
0.2149002703
 40
0.2536049882
 40
0.2927295664
 40
0.3321123003
 40
0.3715896275
 40
0.4109973098
 40
0.4501716064
 40
0.4889504533
 40
0.5271746604
 40
0.564689131
 40
0.6013441255
 40
0.6369965968
 40
0.6715116136
 40
0.6883037538
 40
0.7047654505
 40
0.7208828488
 40
0.7366429321
 40
0.7520335928
 40
0.7670437091
 40
0.7816632318
 40
0.7958832789
 40
0.8096962433
 40
0.823095913
 40
0.8360776074
 40
0.8486383331
 40
0.8607769578
 40
0.872494409
 40
0.8837938982
 40
0.8946811743
 40
0.9051648036
 40
0.9152564772
 40
0.9249713383
 40
0.9343283171
 40
0.9433504528
 40
0.9520651729
 40
0.9605044876
 40
0.9687050464
 40
0.9767079974
 40
0.9845585976
 40
0.9923055396
 40
1.0
 40
1.0
 40
1.0
 40
1.0
 10
14.8307737634
 20
13.4195987665
 30
0.0
 10
14.8223374965
 20
13.3922989967
 30
0.0
 10
14.8062863629
 20
13.3362813264
 30
0.0
 10
14.7849898934
 20
13.2499146824
 30
0.0
 10
14.7660919678
 20
13.1599316933
 30
0.0
 10
14.7496860717
 20
13.0667734473
 30
0.0
 10
14.7358528184
 20
12.9708945575
 30
0.0
 10
14.7246603711
 20
12.8727639608
 30
0.0
 10
14.7161638599
 20
12.7728616524
 30
0.0
 10
14.7104051645
 20
12.6716765226
 30
0.0
 10
14.7074126693
 20
12.5697038442
 30
0.0
 10
14.7072011135
 20
12.4674428176
 30
0.0
 10
14.7097715392
 20
12.3653940779
 30
0.0
 10
14.7151112864
 20
12.2640572018
 30
0.0
 10
14.7231940379
 20
12.1639282274
 30
0.0
 10
14.7339799545
 20
12.0654971429
 30
0.0
 10
14.7474158909
 20
11.969245563
 30
0.0
 10
14.7634356898
 20
11.8756438543
 30
0.0
 10
14.7819604473
 20
11.7851503887
 30
0.0
 10
14.7995665893
 20
11.7120417218
 30
0.0
 10
14.8148708387
 20
11.6554830575
 30
0.0
 10
14.826810107
 20
11.6144999095
 30
0.0
 10
14.8393003637
 20
11.5746152845
 30
0.0
 10
14.8523264109
 20
11.5358778669
 30
0.0
 10
14.8658722609
 20
11.4983350691
 30
0.0
 10
14.8799213373
 20
11.4620327834
 30
0.0
 10
14.8944564535
 20
11.4270153739
 30
0.0
 10
14.9094598497
 20
11.3933256082
 30
0.0
 10
14.924913218
 20
11.3610046072
 30
0.0
 10
14.9407977333
 20
11.3300917935
 30
0.0
 10
14.9570940861
 20
11.300624843
 30
0.0
 10
14.9737825139
 20
11.272639639
 30
0.0
 10
14.9908428431
 20
11.2461702353
 30
0.0
 10
15.0082545299
 20
11.2212488264
 30
0.0
 10
15.025996703
 20
11.1979057241
 30
0.0
 10
15.0440482077
 20
11.1761693457
 30
0.0
 10
15.0623876478
 20
11.1560662151
 30
0.0
 10
15.0809934226
 20
11.1376209806
 30
0.0
 10
15.0998437477
 20
11.1208564483
 30
0.0
 10
15.1189166526
 20
11.1057936313
 30
0.0
 10
15.1381899456
 20
11.0924518161
 30
0.0
 10
15.157641132
 20
11.0808486191
 30
0.0
 10
15.1772472526
 20
11.0710000113
 30
0.0
 10
15.196984769
 20
11.0629202733
 30
0.0
 10
15.2168290966
 20
11.0566218431
 30
0.0
 10
15.2367554047
 20
11.0521150442
 30
0.0
 10
15.2567351184
 20
11.0494076846
 30
0.0
 10
15.2700927121
 20
11.0488050076
 30
0.0
 10
15.2767449725
 20
11.0488050011
 30
0.0
  0
SPLINE
  5
308
100
AcDbEntity
  8
02___PRT_ALL_AXES
100
AcDbSpline
 62
7
  6
CONTINUOUS
 70
0
 71
3
 72
21
 73
17
 74
0
 42
0.0000001
 43
0.0000001
 44
0.0000000001
 40
0.0
 40
0.0
 40
0.0
 40
0.0
 40
0.1474708478
 40
0.2181565529
 40
0.2868859595
 40
0.3537369567
 40
0.4187994382
 40
0.4821759095
 40
0.5439819726
 40
0.6633650157
 40
0.7212873861
 40
0.7782345954
 40
0.8343862505
 40
0.8899318518
 40
0.9450687981
 40
1.0
 40
1.0
 40
1.0
 40
1.0
 10
15.4521521716
 20
11.3612671985
 30
0.0
 10
15.4596718975
 20
11.3527662784
 30
0.0
 10
15.4712284873
 20
11.340558796
 30
0.0
 10
15.4873340066
 20
11.3254492218
 30
0.0
 10
15.4993534388
 20
11.3150717528
 30
0.0
 10
15.5114748222
 20
11.3054968833
 30
0.0
 10
15.5236902953
 20
11.2967310497
 30
0.0
 10
15.535992786
 20
11.2887800378
 30
0.0
 10
15.5523078161
 20
11.2793831901
 30
0.0
 10
15.5689784175
 20
11.2714801919
 30
0.0
 10
15.5858994256
 20
11.2652335044
 30
0.0
 10
15.5985098434
 20
11.2614325967
 30
0.0
 10
15.6111559327
 20
11.2584732566
 30
0.0
 10
15.6238295418
 20
11.2563576037
 30
0.0
 10
15.636520798
 20
11.2550875004
 30
0.0
 10
15.644994467
 20
11.2548049933
 30
0.0
 10
15.6492220384
 20
11.2548049949
 30
0.0
  0
SPLINE
  5
309
100
AcDbEntity
  8
02___PRT_ALL_AXES
100
AcDbSpline
 62
7
  6
CONTINUOUS
 70
0
 71
3
 72
21
 73
17
 74
0
 42
0.0000001
 43
0.0000001
 44
0.0000000001
 40
0.0
 40
0.0
 40
0.0
 40
0.0
 40
0.0543160987
 40
0.1088575344
 40
0.1638462083
 40
0.21949736
 40
0.2760167337
 40
0.3335982559
 40
0.4526038433
 40
0.5143943531
 40
0.5778779768
 40
0.643174148
 40
0.7103874561
 40
0.7796083369
 40
0.8509138802
 40
1.0
 40
1.0
 40
1.0
 40
1.0
 10
15.7302754059
 20
11.6358049945
 30
0.0
 10
15.7333757162
 20
11.6358049972
 30
0.0
 10
15.739591385
 20
11.6360231637
 30
0.0
 10
15.7488991962
 20
11.6370039448
 30
0.0
 10
15.7581925656
 20
11.6386375334
 30
0.0
 10
15.7674634488
 20
11.6409223165
 30
0.0
 10
15.7767051899
 20
11.6438564262
 30
0.0
 10
15.7891123823
 20
11.648682177
 30
0.0
 10
15.8013158991
 20
11.6547827422
 30
0.0
 10
15.8132365631
 20
11.6620237914
 30
0.0
 10
15.8222278562
 20
11.6681550845
 30
0.0
 10
15.8311485448
 20
11.6749128395
 30
0.0
 10
15.8399929294
 20
11.6822921466
 30
0.0
 10
15.8487546561
 20
11.6902875012
 30
0.0
 10
15.8604915521
 20
11.7019334632
 30
0.0
 10
15.8688854091
 20
11.711324121
 30
0.0
 10
15.8743384106
 20
11.717857085
 30
0.0
  0
SPLINE
  5
30A
100
AcDbEntity
  8
02___PRT_ALL_AXES
100
AcDbSpline
 62
7
  6
CONTINUOUS
 70
0
 71
3
 72
15
 73
11
 74
0
 42
0.0000001
 43
0.0000001
 44
0.0000000001
 40
0.0
 40
0.0
 40
0.0
 40
0.0
 40
0.103041541
 40
0.2124413731
 40
0.3282548685
 40
0.4504494298
 40
0.5789180602
 40
0.7134903996
 40
0.8539415309
 40
1.0
 40
1.0
 40
1.0
 40
1.0
 10
15.8838692721
 20
11.7292755336
 30
0.0
 10
15.8899296171
 20
11.7365361251
 30
0.0
 10
15.9018551724
 20
11.7519866307
 30
0.0
 10
15.9186715056
 20
11.7770064376
 30
0.0
 10
15.9348941973
 20
11.8044765796
 30
0.0
 10
15.950469424
 20
11.8343050242
 30
0.0
 10
15.9653467202
 20
11.8663939921
 30
0.0
 10
15.9794769007
 20
11.900637364
 30
0.0
 10
15.9928129508
 20
11.9369211083
 30
0.0
 10
16.0009908786
 20
11.9619204582
 30
0.0
 10
16.0049488802
 20
11.9747285563
 30
0.0
  0
SPLINE
  5
30B
100
AcDbEntity
  8
LAYER_FEATURE
100
AcDbSpline
 62
7
  6
CONTINUOUS
 70
0
 71
3
 72
33
 73
29
 74
0
 42
0.0000001
 43
0.0000001
 44
0.0000000001
 40
0.0
 40
0.0
 40
0.0
 40
0.0
 40
0.0879671459
 40
0.1726618066
 40
0.2539292501
 40
0.3316395717
 40
0.4056927413
 40
0.4413287853
 40
0.4760291003
 40
0.5097917931
 40
0.54261788
 40
0.5745115873
 40
0.6054806067
 40
0.6355363735
 40
0.6646944327
 40
0.6929748015
 40
0.7204023031
 40
0.7470069681
 40
0.7728244502
 40
0.8222528704
 40
0.8459837515
 40
0.8691323892
 40
0.8917664495
 40
0.9139599942
 40
0.9357930059
 40
0.957350635
 40
0.9787222096
 40
1.0
 40
1.0
 40
1.0
 40
1.0
 10
14.8307737634
 20
13.4195987665
 30
0.0
 10
14.8372921608
 20
13.4406923079
 30
0.0
 10
14.8507490615
 20
13.4818942179
 30
0.0
 10
14.8726445714
 20
13.5417595917
 30
0.0
 10
14.895813708
 20
13.5983745591
 30
0.0
 10
14.9201833306
 20
13.6515600377
 30
0.0
 10
14.9416960633
 20
13.6934070118
 30
0.0
 10
14.9594778135
 20
13.7249869322
 30
0.0
 10
14.972894509
 20
13.7474091874
 30
0.0
 10
14.9865515264
 20
13.7688544956
 30
0.0
 10
15.0004383485
 20
13.7893060544
 30
0.0
 10
15.0145440946
 20
13.8087477611
 30
0.0
 10
15.0288577834
 20
13.8271643339
 30
0.0
 10
15.0433683269
 20
13.8445412637
 30
0.0
 10
15.058064479
 20
13.8608648289
 30
0.0
 10
15.0729349784
 20
13.8761222105
 30
0.0
 10
15.0879680812
 20
13.8903010776
 30
0.0
 10
15.1031534178
 20
13.903390889
 30
0.0
 10
15.1232909799
 20
13.9191459764
 30
0.0
 10
15.1439887816
 20
13.9329844907
 30
0.0
 10
15.1651704877
 20
13.9446519298
 30
0.0
 10
15.1809355535
 20
13.9521504893
 30
0.0
 10
15.1967798445
 20
13.9585073761
 30
0.0
 10
15.2126913074
 20
13.9637170489
 30
0.0
 10
15.2286567986
 20
13.9677744605
 30
0.0
 10
15.2446634609
 20
13.9706756017
 30
0.0
 10
15.2606967152
 20
13.9724174719
 30
0.0
 10
15.271404732
 20
13.9728049899
 30
0.0
 10
15.2767449725
 20
13.9728049847
 30
0.0
  0
SPLINE
  5
30C
100
AcDbEntity
  8
02___PRT_ALL_AXES
100
AcDbSpline
 62
7
  6
CONTINUOUS
 70
0
 71
3
 72
11
 73
7
 74
0
 42
0.0000001
 43
0.0000001
 44
0.0000000001
 40
0.0
 40
0.0
 40
0.0
 40
0.0
 40
0.2614540015
 40
0.513741294
 40
0.7590936493
 40
1.0
 40
1.0
 40
1.0
 40
1.0
 10
15.7011263853
 20
12.9997297639
 30
0.0
 10
15.7039452225
 20
13.0012791853
 30
0.0
 10
15.7096280535
 20
13.004072123
 30
0.0
 10
15.7183985305
 20
13.0073288972
 30
0.0
 10
15.7272249945
 20
13.009559583
 30
0.0
 10
15.7331689792
 20
13.0103619551
 30
0.0
 10
15.7361242792
 20
13.0105864247
 30
0.0
  0
SPLINE
  5
30D
100
AcDbEntity
  8
02___PRT_ALL_AXES
100
AcDbSpline
 62
7
  6
CONTINUOUS
 70
0
 71
3
 72
28
 73
24
 74
0
 42
0.0000001
 43
0.0000001
 44
0.0000000001
 40
0.0
 40
0.0
 40
0.0
 40
0.0
 40
0.0726699133
 40
0.1459115065
 40
0.219275936
 40
0.2923126259
 40
0.3645745424
 40
0.4356229516
 40
0.505032317
 40
0.5723954509
 40
0.637328991
 40
0.6994793631
 40
0.7585295985
 40
0.7868078175
 40
0.8142131455
 40
0.8407201755
 40
0.8663076759
 40
0.8909590797
 40
0.9146630305
 40
0.9374141129
 40
0.9592133159
 40
0.9800697393
 40
1.0
 40
1.0
 40
1.0
 40
1.0
 10
15.5508022367
 20
12.4146993275
 30
0.0
 10
15.549734033
 20
12.4287043622
 30
0.0
 10
15.5480723228
 20
12.4568636545
 30
0.0
 10
15.5469893506
 20
12.4992390603
 30
0.0
 10
15.5473088739
 20
12.541698474
 30
0.0
 10
15.5490286262
 20
12.5839347031
 30
0.0
 10
15.552136046
 20
12.62564298
 30
0.0
 10
15.5566084734
 20
12.6665222364
 30
0.0
 10
15.5624133236
 20
12.7062776465
 30
0.0
 10
15.5695083068
 20
12.7446226451
 30
0.0
 10
15.5778418026
 20
12.7812815627
 30
0.0
 10
15.5873532548
 20
12.8159901974
 30
0.0
 10
15.5963287948
 20
12.8434668294
 30
0.0
 10
15.6040748224
 20
12.8642485672
 30
0.0
 10
15.6100496734
 20
12.878970598
 30
0.0
 10
15.6162626961
 20
12.893027093
 30
0.0
 10
15.6227028362
 20
12.9063928395
 30
0.0
 10
15.629358523
 20
12.9190438143
 30
0.0
 10
15.6362178849
 20
12.9309573609
 30
0.0
 10
15.6432687112
 20
12.9421120769
 30
0.0
 10
15.650498666
 20
12.9524882062
 30
0.0
 10
15.6578947171
 20
12.962066662
 30
0.0
 10
15.663043103
 20
12.9680431673
 30
0.0
 10
15.6656437724
 20
12.9708849108
 30
0.0
  0
LINE
  5
30E
100
AcDbEntity
  8
02___PRT_ALL_AXES
100
AcDbLine
 62
7
  6
CONTINUOUS
 10
15.7489540469
 20
12.0111350213
 11
15.7245678472
 21
12.0129363742
  0
LINE
  5
30F
100
AcDbEntity
  8
02___PRT_ALL_AXES
100
AcDbLine
 62
7
  6
CONTINUOUS
 10
15.7011263853
 20
12.9997297639
 11
15.6685722986
 21
12.9974722043
  0
SPLINE
  5
310
100
AcDbEntity
  8
02___PRT_ALL_AXES
100
AcDbSpline
 62
7
  6
CONTINUOUS
 70
0
 71
3
 72
9
 73
5
 74
0
 42
0.0000001
 43
0.0000001
 44
0.0000000001
 40
0.0
 40
0.0
 40
0.0
 40
0.0
 40
0.4880205185
 40
1.0
 40
1.0
 40
1.0
 40
1.0
 10
15.5944107491
 20
11.5294479885
 30
0.0
 10
15.6024657814
 20
11.546392754
 30
0.0
 10
15.618107504
 20
11.5815291618
 30
0.0
 10
15.6321884404
 20
11.6173157395
 30
0.0
 10
15.6390346294
 20
11.6357697332
 30
0.0
  0
SPLINE
  5
311
100
AcDbEntity
  8
02___PRT_ALL_AXES
100
AcDbSpline
 62
7
  6
CONTINUOUS
 70
0
 71
3
 72
39
 73
35
 74
0
 42
0.0000001
 43
0.0000001
 44
0.0000000001
 40
0.0
 40
0.0
 40
0.0
 40
0.0
 40
0.047592181
 40
0.0939255141
 40
0.1389535833
 40
0.182634405
 40
0.2249316046
 40
0.2658147148
 40
0.3052599153
 40
0.3432507832
 40
0.3797791807
 40
0.4148462791
 40
0.4484637435
 40
0.4806550939
 40
0.5114572433
 40
0.5409221988
 40
0.5691188708
 40
0.5961348755
 40
0.6220781472
 40
0.6470780736
 40
0.6712857746
 40
0.694873098
 40
0.7180299657
 40
0.7409599155
 40
0.763874049
 40
0.7869840056
 40
0.8104948635
 40
0.8345988962
 40
0.8594708533
 40
0.8852650391
 40
0.9121140832
 40
0.9401290557
 40
0.9694005009
 40
1.0
 40
1.0
 40
1.0
 40
1.0
 10
15.4788126687
 20
13.0468814295
 30
0.0
 10
15.4816136558
 20
13.0559454273
 30
0.0
 10
15.4873501586
 20
13.0737701258
 30
0.0
 10
15.4964891119
 20
13.0999207764
 30
0.0
 10
15.5060351188
 20
13.1250938734
 30
0.0
 10
15.5159723345
 20
13.149247618
 30
0.0
 10
15.5262843249
 20
13.1723421229
 30
0.0
 10
15.536954075
 20
13.1943392558
 30
0.0
 10
15.5479640247
 20
13.2152027454
 30
0.0
 10
15.5592961173
 20
13.2348982301
 30
0.0
 10
15.5709318496
 20
13.253393313
 30
0.0
 10
15.5828523303
 20
13.2706575988
 30
0.0
 10
15.5950383402
 20
13.2866627213
 30
0.0
 10
15.6074703963
 20
13.3013823489
 30
0.0
 10
15.6201288107
 20
13.3147921666
 30
0.0
 10
15.632993737
 20
13.3268698257
 30
0.0
 10
15.6460451807
 20
13.3375948625
 30
0.0
 10
15.6592629576
 20
13.3469485839
 30
0.0
 10
15.6726265611
 20
13.3549139554
 30
0.0
 10
15.686114923
 20
13.3614755396
 30
0.0
 10
15.6997060802
 20
13.3666195698
 30
0.0
 10
15.7133768261
 20
13.3703342381
 30
0.0
 10
15.7271024958
 20
13.3726102346
 30
0.0
 10
15.7408570645
 20
13.3734414345
 30
0.0
 10
15.7546136467
 20
13.3728255066
 30
0.0
 10
15.7683452925
 20
13.3707641842
 30
0.0
 10
15.7820258086
 20
13.367263062
 30
0.0
 10
15.7956303127
 20
13.3623310191
 30
0.0
 10
15.809135386
 20
13.3559795303
 30
0.0
 10
15.8225189091
 20
13.3482220884
 30
0.0
 10
15.8357596737
 20
13.3390739244
 30
0.0
 10
15.8488372264
 20
13.3285517037
 30
0.0
 10
15.8617308726
 20
13.3166743876
 30
0.0
 10
15.8700034325
 20
13.3080611339
 30
0.0
 10
15.8741067047
 20
13.3035479649
 30
0.0
  0
SPLINE
  5
312
100
AcDbEntity
  8
02___PRT_ALL_AXES
100
AcDbSpline
 62
7
  6
CONTINUOUS
 70
0
 71
3
 72
26
 73
22
 74
0
 42
0.0000001
 43
0.0000001
 44
0.0000000001
 40
0.0
 40
0.0
 40
0.0
 40
0.0
 40
0.0879741003
 40
0.1726756731
 40
0.2539496028
 40
0.33166615
 40
0.4057252518
 40
0.4760611181
 40
0.5426480024
 40
0.6055071759
 40
0.6647154663
 40
0.7204154482
 40
0.7728269784
 40
0.822259357
 40
0.8691219018
 40
0.8917577744
 40
0.9139530994
 40
0.9357878598
 40
0.9573472159
 40
0.9787205043
 40
1.0
 40
1.0
 40
1.0
 40
1.0
 10
15.4633637726
 20
13.0547137151
 30
0.0
 10
15.467264998
 20
13.0673380851
 30
0.0
 10
15.4753188881
 20
13.0919972267
 30
0.0
 10
15.4884232535
 20
13.1278264039
 30
0.0
 10
15.5022898401
 20
13.1617100806
 30
0.0
 10
15.5168750737
 20
13.1935417592
 30
0.0
 10
15.5321335365
 20
13.2232222289
 30
0.0
 10
15.5480180847
 20
13.2506591256
 30
0.0
 10
15.5644802019
 20
13.2757673866
 30
0.0
 10
15.5814703929
 20
13.2984693043
 30
0.0
 10
15.598938746
 20
13.3186945113
 30
0.0
 10
15.6168349401
 20
13.3363795363
 30
0.0
 10
15.635109819
 20
13.3514674204
 30
0.0
 10
15.6537104936
 20
13.3639052551
 30
0.0
 10
15.6696270763
 20
13.3721168402
 30
0.0
 10
15.6824165285
 20
13.3772478456
 30
0.0
 10
15.6919396275
 20
13.3803659294
 30
0.0
 10
15.7014948552
 20
13.382794238
 30
0.0
 10
15.7110747777
 20
13.3845305599
 30
0.0
 10
15.7206705995
 20
13.3855730738
 30
0.0
 10
15.7270792975
 20
13.3858049885
 30
0.0
 10
15.7302754059
 20
13.3858049913
 30
0.0
  0
SPLINE
  5
313
100
AcDbEntity
  8
LAYER_CUT_FEAT
100
AcDbSpline
 62
7
  6
CONTINUOUS
 70
0
 71
3
 72
23
 73
19
 74
0
 42
0.0000001
 43
0.0000001
 44
0.0000000001
 40
0.0
 40
0.0
 40
0.0
 40
0.0
 40
0.0615170466
 40
0.126499214
 40
0.1943013293
 40
0.2642149008
 40
0.3354908095
 40
0.4073533133
 40
0.4790156083
 40
0.5496946728
 40
0.6186262164
 40
0.6850802514
 40
0.7483775424
 40
0.8079079169
 40
0.8631520454
 40
0.9137095347
 40
0.9593356234
 40
1.0
 40
1.0
 40
1.0
 40
1.0
 10
15.7016237827
 20
13.4823101074
 30
0.0
 10
15.7020868276
 20
13.4838634441
 30
0.0
 10
15.7029335482
 20
13.4870896845
 30
0.0
 10
15.703951305
 20
13.4921093837
 30
0.0
 10
15.704742381
 20
13.4973935202
 30
0.0
 10
15.7052963617
 20
13.502874193
 30
0.0
 10
15.7056060282
 20
13.5084811422
 30
0.0
 10
15.7056673308
 20
13.5141423308
 30
0.0
 10
15.7054794725
 20
13.5197850154
 30
0.0
 10
15.7050449069
 20
13.5253366941
 30
0.0
 10
15.7043693077
 20
13.5307260907
 30
0.0
 10
15.703461503
 20
13.5358841292
 30
0.0
 10
15.702333333
 20
13.5407448775
 30
0.0
 10
15.7009994001
 20
13.5452465407
 30
0.0
 10
15.6994769148
 20
13.5493322415
 30
0.0
 10
15.6977847154
 20
13.5529514695
 30
0.0
 10
15.6959440886
 20
13.5560591809
 30
0.0
 10
15.6945521439
 20
13.5578680025
 30
0.0
 10
15.6938315311
 20
13.5586609184
 30
0.0
  0
SPLINE
  5
314
100
AcDbEntity
  8
02___PRT_ALL_AXES
100
AcDbSpline
 62
7
  6
CONTINUOUS
 70
0
 71
3
 72
21
 73
17
 74
0
 42
0.0000001
 43
0.0000001
 44
0.0000000001
 40
0.0
 40
0.0
 40
0.0
 40
0.0
 40
0.0351128412
 40
0.071682731
 40
0.1109642482
 40
0.1539017989
 40
0.2011236839
 40
0.2529887668
 40
0.3096432994
 40
0.3710695316
 40
0.437122617
 40
0.5075576479
 40
0.5820496407
 40
0.6602085788
 40
0.8256794189
 40
1.0
 40
1.0
 40
1.0
 40
1.0
 10
15.7666467722
 20
11.9820102967
 30
0.0
 10
15.767219255
 20
11.9820102945
 30
0.0
 10
15.7683918789
 20
11.9821452845
 30
0.0
 10
15.7701126521
 20
11.9827425762
 30
0.0
 10
15.7717950958
 20
11.9837227356
 30
0.0
 10
15.773427789
 20
11.9850719679
 30
0.0
 10
15.7750024826
 20
11.9867774962
 30
0.0
 10
15.7765100411
 20
11.9888260998
 30
0.0
 10
15.7779408146
 20
11.9912027806
 30
0.0
 10
15.7792848414
 20
11.9938901592
 30
0.0
 10
15.7805323258
 20
11.9968683535
 30
0.0
 10
15.7816738981
 20
12.0001150702
 30
0.0
 10
15.7827009492
 20
12.0036058252
 30
0.0
 10
15.7839302014
 20
12.0086463753
 30
0.0
 10
15.7851113458
 20
12.0153654974
 30
0.0
 10
15.7856624362
 20
12.020883299
 30
0.0
 10
15.7858481396
 20
12.0237193635
 30
0.0
  0
SPLINE
  5
315
100
AcDbEntity
  8
LAYER_CUT_FEAT
100
AcDbSpline
 62
7
  6
CONTINUOUS
 70
0
 71
3
 72
18
 73
14
 74
0
 42
0.0000001
 43
0.0000001
 44
0.0000000001
 40
0.0
 40
0.0
 40
0.0
 40
0.0
 40
0.1467480437
 40
0.2856436656
 40
0.4172693637
 40
0.5423873647
 40
0.6619570597
 40
0.7200407319
 40
0.7771879647
 40
0.8335718723
 40
0.8893746891
 40
0.9447858979
 40
1.0
 40
1.0
 40
1.0
 40
1.0
 10
15.6938315311
 20
13.5586609184
 30
0.0
 10
15.6871360422
 20
13.5660282019
 30
0.0
 10
15.673613018
 20
13.5799354446
 30
0.0
 10
15.6523445562
 20
13.598661369
 30
0.0
 10
15.6307128988
 20
13.6146136823
 30
0.0
 10
15.6087712767
 20
13.6277444201
 30
0.0
 10
15.5900859285
 20
13.6363847446
 30
0.0
 10
15.5750925275
 20
13.6417859018
 30
0.0
 10
15.56391646
 20
13.6450732908
 30
0.0
 10
15.5527102422
 20
13.6476326933
 30
0.0
 10
15.5414808726
 20
13.6494623185
 30
0.0
 10
15.5302366462
 20
13.6505607083
 30
0.0
 10
15.5227296763
 20
13.6508049814
 30
0.0
 10
15.5189840139
 20
13.6508049841
 30
0.0
  0
SPLINE
  5
316
100
AcDbEntity
  8
02___PRT_ALL_AXES
100
AcDbSpline
 62
7
  6
CONTINUOUS
 70
0
 71
3
 72
28
 73
24
 74
0
 42
0.0000001
 43
0.0000001
 44
0.0000000001
 40
0.0
 40
0.0
 40
0.0
 40
0.0
 40
0.0155185882
 40
0.0313980351
 40
0.0479698203
 40
0.0655154647
 40
0.084257683
 40
0.1043610571
 40
0.1259383911
 40
0.149058547
 40
0.1737536701
 40
0.2000258172
 40
0.2571728135
 40
0.3201101968
 40
0.3881856444
 40
0.4605716468
 40
0.5363124433
 40
0.6143603527
 40
0.6936081595
 40
0.7729185367
 40
0.8511525802
 40
0.9271974404
 40
1.0
 40
1.0
 40
1.0
 40
1.0
 10
15.8784652629
 20
12.1287347685
 30
0.0
 10
15.878889302
 20
12.1287347715
 30
0.0
 10
15.8797488956
 20
12.1288075182
 30
0.0
 10
15.881024233
 20
12.129132393
 30
0.0
 10
15.8822854407
 20
12.1296702036
 30
0.0
 10
15.8835266062
 20
12.1304167997
 30
0.0
 10
15.8847432766
 20
12.1313677004
 30
0.0
 10
15.8859311694
 20
12.1325181905
 30
0.0
 10
15.8870860708
 20
12.1338632056
 30
0.0
 10
15.888203656
 20
12.1353971237
 30
0.0
 10
15.8892796808
 20
12.1371136027
 30
0.0
 10
15.8906928084
 20
12.1397096149
 30
0.0
 10
15.8923086359
 20
12.1433756887
 30
0.0
 10
15.8939666539
 20
12.1482476769
 30
0.0
 10
15.8953671525
 20
12.1536306994
 30
0.0
 10
15.8964863695
 20
12.1594349805
 30
0.0
 10
15.8973051148
 20
12.1655638362
 30
0.0
 10
15.8978093411
 20
12.1719143676
 30
0.0
 10
15.8979903401
 20
12.1783797736
 30
0.0
 10
15.8978450074
 20
12.184851138
 30
0.0
 10
15.8973758351
 20
12.1912195466
 30
0.0
 10
15.8965909529
 20
12.1973775386
 30
0.0
 10
15.8958466533
 20
12.2013790516
 30
0.0
 10
15.8954193758
 20
12.2033219228
 30
0.0
  0
SPLINE
  5
317
100
AcDbEntity
  8
LAYER_CUT_FEAT
100
AcDbSpline
 62
7
  6
CONTINUOUS
 70
0
 71
3
 72
10
 73
6
 74
0
 42
0.0000001
 43
0.0000001
 44
0.0000000001
 40
0.0
 40
0.0
 40
0.0
 40
0.0
 40
0.2402794715
 40
0.484690754
 40
1.0
 40
1.0
 40
1.0
 40
1.0
 10
15.613062198
 20
11.3979146067
 30
0.0
 10
15.6134255739
 20
11.3979146057
 30
0.0
 10
15.6141597524
 20
11.3979677872
 30
0.0
 10
15.61564122
 20
11.3982897696
 30
0.0
 10
15.6167046625
 20
11.398765315
 30
0.0
 10
15.617377711
 20
11.3991581534
 30
0.0
  0
SPLINE
  5
318
100
AcDbEntity
  8
02___PRT_ALL_AXES
100
AcDbSpline
 62
7
  6
CONTINUOUS
 70
0
 71
3
 72
14
 73
10
 74
0
 42
0.0000001
 43
0.0000001
 44
0.0000000001
 40
0.0
 40
0.0
 40
0.0
 40
0.0
 40
0.117923455
 40
0.2360731569
 40
0.3554157223
 40
0.4768825491
 40
0.6013454247
 40
0.7295963572
 40
1.0
 40
1.0
 40
1.0
 40
1.0
 10
15.7361242792
 20
13.0105864247
 30
0.0
 10
15.7386159681
 20
13.0107756807
 30
0.0
 10
15.7436263683
 20
13.0109091069
 30
0.0
 10
15.7511496444
 20
13.0103624039
 30
0.0
 10
15.7586578232
 20
13.0090699931
 30
0.0
 10
15.7661372969
 20
13.00703488
 30
0.0
 10
15.7735770375
 20
13.0042610326
 30
0.0
 10
15.7836008784
 20
12.9995037994
 30
0.0
 10
15.7907653003
 20
12.9949474194
 30
0.0
 10
15.7953847772
 20
12.9915572222
 30
0.0
  0
SPLINE
  5
319
100
AcDbEntity
  8
02___PRT_ALL_AXES
100
AcDbSpline
 62
7
  6
CONTINUOUS
 70
0
 71
3
 72
18
 73
14
 74
0
 42
0.0000001
 43
0.0000001
 44
0.0000000001
 40
0.0
 40
0.0
 40
0.0
 40
0.0
 40
0.1741915361
 40
0.334791288
 40
0.4805521798
 40
0.6108006057
 40
0.7256794842
 40
0.7777648526
 40
0.8266219325
 40
0.872669849
 40
0.9164535619
 40
0.9586405867
 40
1.0
 40
1.0
 40
1.0
 40
1.0
 10
15.7011263853
 20
12.9997297639
 30
0.0
 10
15.7006962304
 20
13.0013263793
 30
0.0
 10
15.6997739309
 20
13.0043707516
 30
0.0
 10
15.6981296541
 20
13.0086308466
 30
0.0
 10
15.696298676
 20
13.0123566738
 30
0.0
 10
15.694305946
 20
13.0154965246
 30
0.0
 10
15.6924719772
 20
13.0176584354
 30
0.0
 10
15.6909400555
 20
13.0190233522
 30
0.0
 10
15.6898054992
 20
13.0198404914
 30
0.0
 10
15.6886515128
 20
13.0204811495
 30
0.0
 10
15.6874817638
 20
13.0209419822
 30
0.0
 10
15.6863010909
 20
13.0212199953
 30
0.0
 10
15.685506687
 20
13.0212821447
 30
0.0
 10
15.685114075
 20
13.0212821484
 30
0.0
  0
SPLINE
  5
31A
100
AcDbEntity
  8
LAYER_CUT_FEAT
100
AcDbSpline
 62
7
  6
CONTINUOUS
 70
0
 71
3
 72
15
 73
11
 74
0
 42
0.0000001
 43
0.0000001
 44
0.0000000001
 40
0.0
 40
0.0
 40
0.0
 40
0.0
 40
0.1127237882
 40
0.2343460085
 40
0.3623855462
 40
0.4940936348
 40
0.6265779994
 40
0.7569166307
 40
0.8822700579
 40
1.0
 40
1.0
 40
1.0
 40
1.0
 10
15.2409273709
 20
13.0988400182
 30
0.0
 10
15.2416256922
 20
13.1010174901
 30
0.0
 10
15.2428539547
 20
13.105617464
 30
0.0
 10
15.2441859678
 20
13.1128532379
 30
0.0
 10
15.2450538376
 20
13.1205468083
 30
0.0
 10
15.2454342774
 20
13.1284997644
 30
0.0
 10
15.2453171938
 20
13.1365075229
 30
0.0
 10
15.2447056704
 20
13.144363882
 30
0.0
 10
15.2436161353
 20
13.1518659785
 30
0.0
 10
15.2425499105
 20
13.1566869184
 30
0.0
 10
15.2419310215
 20
13.1589935994
 30
0.0
  0
SPLINE
  5
31B
100
AcDbEntity
  8
LAYER_CUT_FEAT
100
AcDbSpline
 62
7
  6
CONTINUOUS
 70
0
 71
3
 72
11
 73
7
 74
0
 42
0.0000001
 43
0.0000001
 44
0.0000000001
 40
0.0
 40
0.0
 40
0.0
 40
0.0
 40
0.2362578523
 40
0.4823227798
 40
0.7372473572
 40
1.0
 40
1.0
 40
1.0
 40
1.0
 10
15.2409273709
 20
13.0988400182
 30
0.0
 10
15.2352418976
 20
13.0811118487
 30
0.0
 10
15.2244301532
 20
13.0446607401
 30
0.0
 10
15.2101153679
 20
12.9883419757
 30
0.0
 10
15.1974292265
 20
12.9294974352
 30
0.0
 10
15.1902015917
 20
12.8893399926
 30
0.0
 10
15.1868604636
 20
12.8689059707
 30
0.0
  0
SPLINE
  5
31C
100
AcDbEntity
  8
LAYER_CUT_FEAT
100
AcDbSpline
 62
7
  6
CONTINUOUS
 70
0
 71
3
 72
15
 73
11
 74
0
 42
0.0000001
 43
0.0000001
 44
0.0000000001
 40
0.0
 40
0.0
 40
0.0
 40
0.0
 40
0.162401201
 40
0.3152151139
 40
0.4575078996
 40
0.5885806317
 40
0.7080498547
 40
0.8159398203
 40
0.9128224375
 40
1.0
 40
1.0
 40
1.0
 40
1.0
 10
15.2152758089
 20
12.01343428
 30
0.0
 10
15.2149376318
 20
12.0147959996
 30
0.0
 10
15.2142153277
 20
12.017423399
 30
0.0
 10
15.2129513179
 20
12.021171
 30
0.0
 10
15.2115494198
 20
12.0245789448
 30
0.0
 10
15.2100230265
 20
12.0276145495
 30
0.0
 10
15.2083863649
 20
12.0302492314
 30
0.0
 10
15.2066529337
 20
12.0324588014
 30
0.0
 10
15.2048371831
 20
12.0342219173
 30
0.0
 10
15.2035171253
 20
12.0351287134
 30
0.0
 10
15.2028539313
 20
12.0354857214
 30
0.0
  0
SPLINE
  5
31D
100
AcDbEntity
  8
LAYER_FEATURE
100
AcDbSpline
 62
7
  6
CONTINUOUS
 70
0
 71
3
 72
11
 73
7
 74
0
 42
0.0000001
 43
0.0000001
 44
0.0000000001
 40
0.0
 40
0.0
 40
0.0
 40
0.0
 40
0.2107201008
 40
0.4465439737
 40
0.7094811151
 40
1.0
 40
1.0
 40
1.0
 40
1.0
 10
14.8282677212
 20
13.0604309969
 30
0.0
 10
14.8287755081
 20
13.0607828071
 30
0.0
 10
14.8297768879
 20
13.0616382125
 30
0.0
 10
14.8311370721
 20
13.0632193481
 30
0.0
 10
14.8324239689
 20
13.0651479577
 30
0.0
 10
14.8331875701
 20
13.0665823947
 30
0.0
 10
14.8335579988
 20
13.0673493123
 30
0.0
  0
SPLINE
  5
31E
100
AcDbEntity
  8
LAYER_FEATURE
100
AcDbSpline
 62
7
  6
CONTINUOUS
 70
0
 71
3
 72
15
 73
11
 74
0
 42
0.0000001
 43
0.0000001
 44
0.0000000001
 40
0.0
 40
0.0
 40
0.0
 40
0.0
 40
0.077796081
 40
0.1635512251
 40
0.2628451083
 40
0.3784441259
 40
0.5110579552
 40
0.6600196536
 40
0.823749285
 40
1.0
 40
1.0
 40
1.0
 40
1.0
 10
14.8143956737
 20
13.06046807
 30
0.0
 10
14.8142615127
 20
13.0604680551
 30
0.0
 10
14.8139775487
 20
13.0604133136
 30
0.0
 10
14.8135806161
 20
13.0601819374
 30
0.0
 10
14.8132083043
 20
13.059815552
 30
0.0
 10
14.812863052
 20
13.0593227948
 30
0.0
 10
14.8125488728
 20
13.0587123668
 30
0.0
 10
14.8122711145
 20
13.0579951884
 30
0.0
 10
14.812035071
 20
13.0571848356
 30
0.0
 10
14.8119125006
 20
13.0566109414
 30
0.0
 10
14.8118583536
 20
13.0563118552
 30
0.0
  0
LINE
  5
31F
100
AcDbEntity
  8
LAYER_FEATURE
100
AcDbLine
 62
7
  6
CONTINUOUS
 10
14.8499837235
 20
13.1587920564
 11
14.8520335786
 21
13.1617921544
  0
SPLINE
  5
320
100
AcDbEntity
  8
LAYER_FEATURE
100
AcDbSpline
 62
7
  6
CONTINUOUS
 70
0
 71
3
 72
23
 73
19
 74
0
 42
0.0000001
 43
0.0000001
 44
0.0000000001
 40
0.0
 40
0.0
 40
0.0
 40
0.0
 40
0.0836673597
 40
0.1647158092
 40
0.2430358391
 40
0.3185312242
 40
0.3911223981
 40
0.4607479297
 40
0.5273671564
 40
0.590963091
 40
0.6515459029
 40
0.7091570449
 40
0.7638740691
 40
0.815816118
 40
0.8651498898
 40
0.9120956106
 40
0.9569321659
 40
1.0
 40
1.0
 40
1.0
 40
1.0
 10
15.2596475261
 20
13.3143145956
 30
0.0
 10
15.2645606934
 20
13.3302136109
 30
0.0
 10
15.2746603684
 20
13.3613842558
 30
0.0
 10
15.2909075803
 20
13.4069176539
 30
0.0
 10
15.3079826472
 20
13.450406739
 30
0.0
 10
15.3258466736
 20
13.4917523955
 30
0.0
 10
15.3444591599
 20
13.5308609744
 30
0.0
 10
15.3637780932
 20
13.5676439718
 30
0.0
 10
15.3837600922
 20
13.6020183348
 30
0.0
 10
15.4043606147
 20
13.6339065949
 30
0.0
 10
15.4255341787
 20
13.6632369801
 30
0.0
 10
15.4472346178
 20
13.6899434487
 30
0.0
 10
15.469415277
 20
13.7139655947
 30
0.0
 10
15.4920293747
 20
13.7352484782
 30
0.0
 10
15.5150294489
 20
13.7537420394
 30
0.0
 10
15.5383691804
 20
13.769401198
 30
0.0
 10
15.5619955006
 20
13.7821830465
 30
0.0
 10
15.5781900004
 20
13.7888785085
 30
0.0
 10
15.5862790206
 20
13.7916967031
 30
0.0
  0
SPLINE
  5
321
100
AcDbEntity
  8
LAYER_FEATURE
100
AcDbSpline
 62
7
  6
CONTINUOUS
 70
0
 71
3
 72
15
 73
11
 74
0
 42
0.0000001
 43
0.0000001
 44
0.0000000001
 40
0.0
 40
0.0
 40
0.0
 40
0.0
 40
0.080202227
 40
0.1676106124
 40
0.2674817859
 40
0.3826786099
 40
0.5142128075
 40
0.661805382
 40
0.824333824
 40
1.0
 40
1.0
 40
1.0
 40
1.0
 10
14.8325005419
 20
13.1588150655
 30
0.0
 10
14.8323758898
 20
13.1588150841
 30
0.0
 10
14.8321137489
 20
13.1587683471
 30
0.0
 10
14.831743149
 20
13.158568816
 30
0.0
 10
14.8313925615
 20
13.1582504463
 30
0.0
 10
14.831064398
 20
13.1578205209
 30
0.0
 10
14.8307618578
 20
13.157285847
 30
0.0
 10
14.8304892389
 20
13.1566547285
 30
0.0
 10
14.8302509915
 20
13.1559374751
 30
0.0
 10
14.8301221878
 20
13.1554273787
 30
0.0
 10
14.8300635943
 20
13.1551607158
 30
0.0
  0
SPLINE
  5
322
100
AcDbEntity
  8
LAYER_FEATURE
100
AcDbSpline
 62
7
  6
CONTINUOUS
 70
0
 71
3
 72
78
 73
74
 74
0
 42
0.0000001
 43
0.0000001
 44
0.0000000001
 40
0.0
 40
0.0
 40
0.0
 40
0.0
 40
0.0178417771
 40
0.036184308
 40
0.0549960808
 40
0.0742433104
 40
0.0938904899
 40
0.1139004766
 40
0.1342347105
 40
0.1548533965
 40
0.1757156792
 40
0.1967798107
 40
0.2180033134
 40
0.2393431404
 40
0.260755834
 40
0.2821976795
 40
0.3036248596
 40
0.3249936089
 40
0.3462603675
 40
0.3673819354
 40
0.3883156291
 40
0.4090194414
 40
0.4294522035
 40
0.4495737507
 40
0.4693450949
 40
0.4887286048
 40
0.507688199
 40
0.5261895461
 40
0.5442002824
 40
0.5616902516
 40
0.5786317732
 40
0.5949999412
 40
0.6107729631
 40
0.6259325542
 40
0.6404644026
 40
0.6543587197
 40
0.6676108899
 40
0.6802222479
 40
0.6922010055
 40
0.7035633435
 40
0.7143346582
 40
0.7245509236
 40
0.7342600663
 40
0.7435231463
 40
0.748011933
 40
0.7524184428
 40
0.7567541276
 40
0.7610311788
 40
0.7652624426
 40
0.7694612945
 40
0.7736415008
 40
0.7778170574
 40
0.7820020181
 40
0.7862103193
 40
0.7904556124
 40
0.7947511095
 40
0.7991094446
 40
0.8035425712
 40
0.812673927
 40
0.822228128
 40
0.8322707595
 40
0.8428539784
 40
0.8540175632
 40
0.8657902538
 40
0.8781911341
 40
0.8912309223
 40
0.9049131167
 40
0.9192349766
 40
0.9341883465
 40
0.9497603426
 40
0.9659339573
 40
0.9826884321
 40
1.0
 40
1.0
 40
1.0
 40
1.0
 10
15.2258685096
 20
13.383148994
 30
0.0
 10
15.2202279174
 20
13.3648960311
 30
0.0
 10
15.209321286
 20
13.3277112169
 30
0.0
 10
15.1942652591
 20
13.2707731852
 30
0.0
 10
15.1803134489
 20
13.2120066658
 30
0.0
 10
15.1674996881
 20
13.1515533395
 30
0.0
 10
15.1558548401
 20
13.089558381
 30
0.0
 10
15.1454070212
 20
13.0261708605
 30
0.0
 10
15.136181437
 20
12.9615432035
 30
0.0
 10
15.1282003594
 20
12.895830866
 30
0.0
 10
15.1214830585
 20
12.8291919355
 30
0.0
 10
15.11604576
 20
12.7617867533
 30
0.0
 10
15.1119015883
 20
12.6937775239
 30
0.0
 10
15.1090605473
 20
12.6253279187
 30
0.0
 10
15.1075294976
 20
12.556602677
 30
0.0
 10
15.107312141
 20
12.4877672075
 30
0.0
 10
15.1084090053
 20
12.4189871864
 30
0.0
 10
15.1108174354
 20
12.3504281554
 30
0.0
 10
15.114531614
 20
12.2822551193
 30
0.0
 10
15.1195425734
 20
12.2146321468
 30
0.0
 10
15.12583822
 20
12.1477219717
 30
0.0
 10
15.1334033496
 20
12.0816855947
 30
0.0
 10
15.1422196926
 20
12.0166818922
 30
0.0
 10
15.1522659649
 20
11.9528672303
 30
0.0
 10
15.1635179206
 20
11.8903950844
 30
0.0
 10
15.1759484111
 20
11.8294156596
 30
0.0
 10
15.1895274411
 20
11.770075518
 30
0.0
 10
15.2042222633
 20
11.7125172201
 30
0.0
 10
15.2199974624
 20
11.6568789741
 30
0.0
 10
15.2368150565
 20
11.6032942898
 30
0.0
 10
15.2546345918
 20
11.5518916361
 30
0.0
 10
15.2734132663
 20
11.5027941155
 30
0.0
 10
15.2931060773
 20
11.4561191589
 30
0.0
 10
15.3136659731
 20
11.4119782295
 30
0.0
 10
15.3350440358
 20
11.3704765432
 30
0.0
 10
15.3571896698
 20
11.3317128069
 30
0.0
 10
15.380050859
 20
11.2957790215
 30
0.0
 10
15.4035744499
 20
11.2627603389
 30
0.0
 10
15.4277064319
 20
11.232735027
 30
0.0
 10
15.4523923459
 20
11.2057745138
 30
0.0
 10
15.4775771632
 20
11.1819438029
 30
0.0
 10
15.5032066491
 20
11.1613015504
 30
0.0
 10
15.5292226248
 20
11.1439023764
 30
0.0
 10
15.5514127656
 20
11.1320217315
 30
0.0
 10
15.5692488411
 20
11.124259144
 30
0.0
 10
15.5825407724
 20
11.1193333829
 30
0.0
 10
15.5958775197
 20
11.11524731
 30
0.0
 10
15.609251196
 20
11.1120036734
 30
0.0
 10
15.6226533462
 20
11.1096047993
 30
0.0
 10
15.6360755337
 20
11.1080524688
 30
0.0
 10
15.6495091911
 20
11.1073478658
 30
0.0
 10
15.6629457029
 20
11.1074914591
 30
0.0
 10
15.6763764392
 20
11.1084832186
 30
0.0
 10
15.6897927938
 20
11.1103223357
 30
0.0
 10
15.7031862608
 20
11.1130074697
 30
0.0
 10
15.7165483082
 20
11.1165366371
 30
0.0
 10
15.7298709838
 20
11.1209074628
 30
0.0
 10
15.7477443125
 20
11.1279209857
 30
0.0
 10
15.7700031036
 20
11.1388701359
 30
0.0
 10
15.7961350777
 20
11.1551861242
 30
0.0
 10
15.821899267
 20
11.1747618156
 30
0.0
 10
15.847237035
 20
11.1975442823
 30
0.0
 10
15.8720940689
 20
11.2234766636
 30
0.0
 10
15.8964152733
 20
11.2524960153
 30
0.0
 10
15.9201460715
 20
11.2845331121
 30
0.0
 10
15.9432322466
 20
11.3195119549
 30
0.0
 10
15.9656203342
 20
11.3573496719
 30
0.0
 10
15.987257908
 20
11.3979565118
 30
0.0
 10
16.0080938734
 20
11.4412359733
 30
0.0
 10
16.0280787343
 20
11.487084947
 30
0.0
 10
16.0471648012
 20
11.5353940847
 30
0.0
 10
16.0653062871
 20
11.5860474359
 30
0.0
 10
16.0765640578
 20
11.6207504574
 30
0.0
 10
16.0820370269
 20
11.6384609918
 30
0.0
  0
SPLINE
  5
323
100
AcDbEntity
  8
LAYER_FEATURE
100
AcDbSpline
 62
7
  6
CONTINUOUS
 70
0
 71
3
 72
20
 73
16
 74
0
 42
0.0000001
 43
0.0000001
 44
0.0000000001
 40
0.0
 40
0.0
 40
0.0
 40
0.0
 40
0.0562336025
 40
0.1137782918
 40
0.1725430469
 40
0.2324325835
 40
0.2933476486
 40
0.3551854859
 40
0.4178402647
 40
0.4812034857
 40
0.5451643742
 40
0.6096102623
 40
0.7394938528
 40
0.86993447
 40
1.0
 40
1.0
 40
1.0
 40
1.0
 10
15.1974307125
 20
13.3433473117
 30
0.0
 10
15.1924079078
 20
13.3247283771
 30
0.0
 10
15.1827146383
 20
13.2869282672
 30
0.0
 10
15.1693648745
 20
13.2292775975
 30
0.0
 10
15.157058145
 20
13.1701140569
 30
0.0
 10
15.1458205418
 20
13.1095625994
 30
0.0
 10
15.135675749
 20
13.0477504817
 30
0.0
 10
15.1266451936
 20
12.9848078211
 30
0.0
 10
15.1187479332
 20
12.9208670688
 30
0.0
 10
15.1120006726
 20
12.8560629008
 30
0.0
 10
15.1064175586
 20
12.7905314761
 30
0.0
 10
15.1005268163
 20
12.7021463993
 30
0.0
 10
15.0961586729
 20
12.5908299138
 30
0.0
 10
15.0956924009
 20
12.4569258395
 30
0.0
 10
15.0985704543
 20
12.3676122653
 30
0.0
 10
15.1008167274
 20
12.3230646905
 30
0.0
  0
SPLINE
  5
324
100
AcDbEntity
  8
LAYER_FEATURE
100
AcDbSpline
 62
7
  6
CONTINUOUS
 70
0
 71
3
 72
42
 73
38
 74
0
 42
0.0000001
 43
0.0000001
 44
0.0000000001
 40
0.0
 40
0.0
 40
0.0
 40
0.0
 40
0.0875397918
 40
0.1307984715
 40
0.1736173044
 40
0.2159245306
 40
0.2576499865
 40
0.2987253575
 40
0.3390844413
 40
0.378663424
 40
0.41740117
 40
0.455239533
 40
0.4921236914
 40
0.528002515
 40
0.5628289703
 40
0.5965605749
 40
0.6291599133
 40
0.6605952248
 40
0.6908410843
 40
0.7198791971
 40
0.7476993321
 40
0.7743004201
 40
0.7996918442
 40
0.8238949447
 40
0.8469447459
 40
0.8688918764
 40
0.8794744964
 40
0.8898086801
 40
0.9097749218
 40
0.9289038473
 40
0.9473267428
 40
0.9563236079
 40
0.9652030131
 40
0.973987023
 40
0.9826986309
 40
0.9913615513
 40
1.0
 40
1.0
 40
1.0
 40
1.0
 10
15.1008167274
 20
12.3230646905
 30
0.0
 10
15.1029996473
 20
12.2797735205
 30
0.0
 10
15.1074036825
 20
12.215138671
 30
0.0
 10
15.1156019847
 20
12.1295588092
 30
0.0
 10
15.1228412623
 20
12.0663973386
 30
0.0
 10
15.1311800088
 20
12.0041377254
 30
0.0
 10
15.1406013803
 20
11.9429057618
 30
0.0
 10
15.151086187
 20
11.8828257185
 30
0.0
 10
15.1626131178
 20
11.824019353
 30
0.0
 10
15.1751587346
 20
11.76660585
 30
0.0
 10
15.1886975397
 20
11.7107015251
 30
0.0
 10
15.2032020271
 20
11.6564195965
 30
0.0
 10
15.2186427451
 20
11.6038699453
 30
0.0
 10
15.2349883636
 20
11.5531588861
 30
0.0
 10
15.2522057485
 20
11.504388942
 30
0.0
 10
15.2702600448
 20
11.4576586276
 30
0.0
 10
15.289114764
 20
11.4130622369
 30
0.0
 10
15.308731889
 20
11.3706896447
 30
0.0
 10
15.3290719887
 20
11.3306261214
 30
0.0
 10
15.3500943521
 20
11.2929521586
 30
0.0
 10
15.3717571234
 20
11.2577433312
 30
0.0
 10
15.3940175134
 20
11.2250701417
 30
0.0
 10
15.4168318348
 20
11.1949980849
 30
0.0
 10
15.4401562197
 20
11.1675871725
 30
0.0
 10
15.4639449844
 20
11.1428936534
 30
0.0
 10
15.4843622679
 20
11.1244015305
 30
0.0
 10
15.5008840003
 20
11.1110702397
 30
0.0
 10
15.5171309883
 20
11.0989867653
 30
0.0
 10
15.5376555741
 20
11.0855926437
 30
0.0
 10
15.5628508575
 20
11.0722272301
 30
0.0
 10
15.5842146429
 20
11.0634587874
 30
0.0
 10
15.6013390479
 20
11.0579743742
 30
0.0
 10
15.6141169106
 20
11.0546313776
 30
0.0
 10
15.6269217898
 20
11.0520293361
 30
0.0
 10
15.6397474051
 20
11.0501695513
 30
0.0
 10
15.6525863007
 20
11.0490532356
 30
0.0
 10
15.6611553009
 20
11.0488049976
 30
0.0
 10
15.6654327119
 20
11.0488050012
 30
0.0
  0
SPLINE
  5
325
100
AcDbEntity
  8
LAYER_CUT_FEAT
100
AcDbSpline
 62
7
  6
CONTINUOUS
 70
0
 71
3
 72
23
 73
19
 74
0
 42
0.0000001
 43
0.0000001
 44
0.0000000001
 40
0.0
 40
0.0
 40
0.0
 40
0.0
 40
0.1683870572
 40
0.2515422915
 40
0.3330041455
 40
0.4120620973
 40
0.4880445299
 40
0.5603334868
 40
0.6283801595
 40
0.691723858
 40
0.7500161788
 40
0.8030537795
 40
0.8508249537
 40
0.893576438
 40
0.9319036241
 40
0.9668474815
 40
0.9835439543
 40
1.0
 40
1.0
 40
1.0
 40
1.0
 10
15.830028923
 20
12.9566321267
 30
0.0
 10
15.8301296264
 20
12.9600531712
 30
0.0
 10
15.830076118
 20
12.9651728719
 30
0.0
 10
15.8295951881
 20
12.9719254846
 30
0.0
 10
15.8290368796
 20
12.9768483367
 30
0.0
 10
15.8282857186
 20
12.9815979125
 30
0.0
 10
15.8273496393
 20
12.9861245472
 30
0.0
 10
15.8262386176
 20
12.9903808136
 30
0.0
 10
15.8249644052
 20
12.994322386
 30
0.0
 10
15.8235403477
 20
12.997908514
 30
0.0
 10
15.8219810812
 20
13.0011025737
 30
0.0
 10
15.8203019522
 20
13.0038725099
 30
0.0
 10
15.818518421
 20
13.0061910653
 30
0.0
 10
15.8166441535
 20
13.0080351261
 30
0.0
 10
15.8146925181
 20
13.0093835756
 30
0.0
 10
15.8129830813
 20
13.0100841362
 30
0.0
 10
15.8116225716
 20
13.0103559564
 30
0.0
 10
15.8109478716
 20
13.0104009162
 30
0.0
 10
15.8106133967
 20
13.010400912
 30
0.0
  0
SPLINE
  5
326
100
AcDbEntity
  8
02___PRT_ALL_AXES
100
AcDbSpline
 62
7
  6
CONTINUOUS
 70
0
 71
3
 72
56
 73
52
 74
0
 42
0.0000001
 43
0.0000001
 44
0.0000000001
 40
0.0
 40
0.0
 40
0.0
 40
0.0
 40
0.0355778376
 40
0.0727499862
 40
0.1113274137
 40
0.1511046402
 40
0.191862849
 40
0.2333727677
 40
0.2753973471
 40
0.3176943196
 40
0.3600186908
 40
0.4021251927
 40
0.4437707361
 40
0.4847168878
 40
0.5247324117
 40
0.5635959195
 40
0.601098685
 40
0.6192798599
 40
0.6370499734
 40
0.6543879465
 40
0.6712741519
 40
0.6876905603
 40
0.7036209036
 40
0.7190508597
 40
0.7339682603
 40
0.7483633299
 40
0.7622289614
 40
0.7755610364
 40
0.7883587968
 40
0.8006252771
 40
0.8123677994
 40
0.8235985392
 40
0.8343351561
 40
0.8446014746
 40
0.8544281777
 40
0.8638534483
 40
0.8729234544
 40
0.881692539
 40
0.8902229502
 40
0.8985839577
 40
0.906850275
 40
0.9150998411
 40
0.9234111796
 40
0.9318606788
 40
0.9405201578
 40
0.9494550012
 40
0.9587229815
 40
0.9683737445
 40
0.9784488241
 40
0.9889820225
 40
1.0
 40
1.0
 40
1.0
 40
1.0
 10
15.4788126687
 20
13.0468814295
 30
0.0
 10
15.4729169889
 20
13.0278030028
 30
0.0
 10
15.4618139128
 20
12.9884919364
 30
0.0
 10
15.4474505875
 20
12.9276637151
 30
0.0
 10
15.435084361
 20
12.8639958594
 30
0.0
 10
15.4248006392
 20
12.797922783
 30
0.0
 10
15.4166699364
 20
12.7298933622
 30
0.0
 10
15.4107482062
 20
12.6603709219
 30
0.0
 10
15.4070761778
 20
12.5898290489
 30
0.0
 10
15.4056791114
 20
12.5187485121
 30
0.0
 10
15.4065666221
 20
12.4476138249
 30
0.0
 10
15.4097326074
 20
12.3769098895
 30
0.0
 10
15.4151552764
 20
12.3071185732
 30
0.0
 10
15.4227973289
 20
12.2387154623
 30
0.0
 10
15.432606211
 20
12.1721660766
 30
0.0
 10
15.4445145024
 20
12.1079241704
 30
0.0
 10
15.4562373948
 20
12.0561520871
 30
0.0
 10
15.4666367231
 20
12.016255069
 30
0.0
 10
15.4748255062
 20
11.9874856801
 30
0.0
 10
15.4834697659
 20
11.9596098329
 30
0.0
 10
15.4925548515
 20
11.9326749145
 30
0.0
 10
15.5020652331
 20
11.906726815
 30
0.0
 10
15.5119847104
 20
11.8818096777
 30
0.0
 10
15.5222963995
 20
11.8579658627
 30
0.0
 10
15.5329827864
 20
11.8352358618
 30
0.0
 10
15.544025767
 20
11.8136582321
 30
0.0
 10
15.5554066954
 20
11.7932695309
 30
0.0
 10
15.5671064377
 20
11.7741042574
 30
0.0
 10
15.5791054311
 20
11.7561948055
 30
0.0
 10
15.5913837465
 20
11.7395714278
 30
0.0
 10
15.6039211601
 20
11.7242622245
 30
0.0
 10
15.61669722
 20
11.7102931576
 30
0.0
 10
15.6296913009
 20
11.6976880964
 30
0.0
 10
15.6428826308
 20
11.6864689024
 30
0.0
 10
15.6562502593
 20
11.6766555449
 30
0.0
 10
15.6697729357
 20
11.6682662268
 30
0.0
 10
15.6834288759
 20
11.6613174767
 30
0.0
 10
15.6971954105
 20
11.6558241097
 30
0.0
 10
15.7110485919
 20
11.6517989636
 30
0.0
 10
15.7249629139
 20
11.649252359
 30
0.0
 10
15.7389113453
 20
11.6481913517
 30
0.0
 10
15.7528658087
 20
11.6486190231
 30
0.0
 10
15.7667980254
 20
11.6505341179
 30
0.0
 10
15.7806804352
 20
11.653931197
 30
0.0
 10
15.7944868549
 20
11.6588012369
 30
0.0
 10
15.8081926908
 20
11.6651323917
 30
0.0
 10
15.8217747833
 20
11.6729106469
 30
0.0
 10
15.835210989
 20
11.6821201502
 30
0.0
 10
15.8484799911
 20
11.6927435505
 30
0.0
 10
15.8615602396
 20
11.7047611026
 30
0.0
 10
15.8699480686
 20
11.7134879011
 30
0.0
 10
15.874108073
 20
11.7180635259
 30
0.0
  0
SPLINE
  5
327
100
AcDbEntity
  8
LAYER_FEATURE
100
AcDbSpline
 62
7
  6
CONTINUOUS
 70
0
 71
3
 72
14
 73
10
 74
0
 42
0.0000001
 43
0.0000001
 44
0.0000000001
 40
0.0
 40
0.0
 40
0.0
 40
0.0
 40
0.0828985375
 40
0.1722627566
 40
0.2729882158
 40
0.3879810441
 40
0.5185061313
 40
0.664635384
 40
1.0
 40
1.0
 40
1.0
 40
1.0
 10
14.8535544348
 20
13.25321116
 30
0.0
 10
14.8534392405
 20
13.2532111575
 30
0.0
 10
14.8531985104
 20
13.2531717137
 30
0.0
 10
14.8528546706
 20
13.2530016204
 30
0.0
 10
14.8525267305
 20
13.2527282275
 30
0.0
 10
14.8522170498
 20
13.2523574965
 30
0.0
 10
14.8519281233
 20
13.2518946914
 30
0.0
 10
14.8515582737
 20
13.2511275749
 30
0.0
 10
14.8513509989
 20
13.2504877084
 30
0.0
 10
14.8512328841
 20
13.2500369091
 30
0.0
  0
SPLINE
  5
328
100
AcDbEntity
  8
02___PRT_ALL_AXES
100
AcDbSpline
 62
7
  6
CONTINUOUS
 70
0
 71
3
 72
9
 73
5
 74
0
 42
0.0000001
 43
0.0000001
 44
0.0000000001
 40
0.0
 40
0.0
 40
0.0
 40
0.0
 40
0.4905237542
 40
1.0
 40
1.0
 40
1.0
 40
1.0
 10
15.4633637726
 20
13.0547137151
 30
0.0
 10
15.458332103
 20
13.0384312264
 30
0.0
 10
15.4487569428
 20
13.0050234294
 30
0.0
 10
15.4404309162
 20
12.9712845321
 30
0.0
 10
15.4364833575
 20
12.9540296522
 30
0.0
  0
SPLINE
  5
329
100
AcDbEntity
  8
02___PRT_ALL_AXES
100
AcDbSpline
 62
7
  6
CONTINUOUS
 70
0
 71
3
 72
48
 73
44
 74
0
 42
0.0000001
 43
0.0000001
 44
0.0000000001
 40
0.0
 40
0.0
 40
0.0
 40
0.0
 40
0.0356476292
 40
0.0722672207
 40
0.1097340224
 40
0.1479174332
 40
0.1866820546
 40
0.2258886885
 40
0.2653952981
 40
0.3050579437
 40
0.344731703
 40
0.3842715837
 40
0.4235334361
 40
0.4623748717
 40
0.5006561961
 40
0.5382413652
 40
0.5749989765
 40
0.6108033111
 40
0.6455354461
 40
0.6790844668
 40
0.7113488165
 40
0.7422378362
 40
0.7716735674
 40
0.7995929175
 40
0.8129702624
 40
0.8259530894
 40
0.8385390039
 40
0.8507271715
 40
0.8625184745
 40
0.8739156865
 40
0.8849236681
 40
0.895549583
 40
0.9058031327
 40
0.9156968081
 40
0.9252461487
 40
0.9344699991
 40
0.9520251215
 40
0.9604218174
 40
0.9686052265
 40
0.9766127647
 40
0.9844851356
 40
0.9922657589
 40
1.0
 40
1.0
 40
1.0
 40
1.0
 10
15.4363339382
 20
12.953375888
 30
0.0
 10
15.4325056037
 20
12.9366088947
 30
0.0
 10
15.4253063847
 20
12.9024872274
 30
0.0
 10
15.4159733341
 20
12.8503667146
 30
0.0
 10
15.4079888684
 20
12.7967853247
 30
0.0
 10
15.4013876773
 20
12.7419740569
 30
0.0
 10
15.3961982757
 20
12.6861683416
 30
0.0
 10
15.3924431308
 20
12.6296082283
 30
0.0
 10
15.3901384901
 20
12.5725369923
 30
0.0
 10
15.3892943291
 20
12.5152001625
 30
0.0
 10
15.3899143015
 20
12.4578444225
 30
0.0
 10
15.3919957241
 20
12.4007165399
 30
0.0
 10
15.3955295883
 20
12.3440622869
 30
0.0
 10
15.4005006004
 20
12.288125366
 30
0.0
 10
15.4068872496
 20
12.2331463434
 30
0.0
 10
15.4146619047
 20
12.1793615922
 30
0.0
 10
15.4237909385
 20
12.1270022518
 30
0.0
 10
15.4342348849
 20
12.0762931998
 30
0.0
 10
15.4459486232
 20
12.0274520588
 30
0.0
 10
15.4588816113
 20
11.9806881725
 30
0.0
 10
15.4729781136
 20
11.9362017944
 30
0.0
 10
15.4881776412
 20
11.8941826476
 30
0.0
 10
15.5044148958
 20
11.8548108169
 30
0.0
 10
15.5189537402
 20
11.8239187017
 30
0.0
 10
15.531078796
 20
11.8007037542
 30
0.0
 10
15.5402576813
 20
11.7843051414
 30
0.0
 10
15.549641255
 20
11.7686882672
 30
0.0
 10
15.5592196632
 20
11.7538697796
 30
0.0
 10
15.5689827189
 20
11.739865547
 30
0.0
 10
15.5789201157
 20
11.7266905472
 30
0.0
 10
15.5890214083
 20
11.7143588795
 30
0.0
 10
15.599275996
 20
11.7028837834
 30
0.0
 10
15.6096733018
 20
11.692277546
 30
0.0
 10
15.620202194
 20
11.6825518597
 30
0.0
 10
15.6308530823
 20
11.6737166099
 30
0.0
 10
15.6449644321
 20
11.6633111069
 30
0.0
 10
15.6595257296
 20
11.6544820708
 30
0.0
 10
15.6744414228
 20
11.64747224
 30
0.0
 10
15.6855293451
 20
11.6432234134
 30
0.0
 10
15.6966691263
 20
11.6399125946
 30
0.0
 10
15.7078490263
 20
11.6375441229
 30
0.0
 10
15.7190548819
 20
11.6361215962
 30
0.0
 10
15.7265439571
 20
11.6358049912
 30
0.0
 10
15.7302754059
 20
11.6358049945
 30
0.0
  0
SPLINE
  5
32A
100
AcDbEntity
  8
LAYER_FEATURE
100
AcDbSpline
 62
7
  6
CONTINUOUS
 70
0
 71
3
 72
14
 73
10
 74
0
 42
0.0000001
 43
0.0000001
 44
0.0000000001
 40
0.0
 40
0.0
 40
0.0
 40
0.0
 40
0.0858710022
 40
0.1774646854
 40
0.2792897418
 40
0.3942339669
 40
0.5237629857
 40
0.668260719
 40
1.0
 40
1.0
 40
1.0
 40
1.0
 10
14.8774275479
 20
13.3430743673
 30
0.0
 10
14.8773217517
 20
13.3430743652
 30
0.0
 10
14.8771020093
 20
13.3430414649
 30
0.0
 10
14.8767853043
 20
13.3428983453
 30
0.0
 10
14.8764808794
 20
13.3426667928
 30
0.0
 10
14.8761909939
 20
13.3423514445
 30
0.0
 10
14.8759176509
 20
13.3419563339
 30
0.0
 10
14.8755625362
 20
13.3412987032
 30
0.0
 10
14.8753563794
 20
13.3407459864
 30
0.0
 10
14.8752357074
 20
13.3403554918
 30
0.0
  0
SPLINE
  5
32B
100
AcDbEntity
  8
02___PRT_ALL_AXES
100
AcDbSpline
 62
7
  6
CONTINUOUS
 70
0
 71
3
 72
62
 73
58
 74
0
 42
0.0000001
 43
0.0000001
 44
0.0000000001
 40
0.0
 40
0.0
 40
0.0
 40
0.0
 40
0.0114384097
 40
0.0223685527
 40
0.0328127612
 40
0.0428002714
 40
0.0523679224
 40
0.0615607294
 40
0.0704321942
 40
0.0790441684
 40
0.087466112
 40
0.0957736159
 40
0.10404622
 40
0.1123647084
 40
0.1208082332
 40
0.1294516631
 40
0.1383634906
 40
0.1476044568
 40
0.1523660355
 40
0.1572287998
 40
0.1672765996
 40
0.1777855181
 40
0.1887838065
 40
0.2002929135
 40
0.212328216
 40
0.2248997095
 40
0.2380126459
 40
0.2516680848
 40
0.2658633878
 40
0.280592631
 40
0.2958469714
 40
0.3116149542
 40
0.3278827806
 40
0.3446345437
 40
0.3618524263
 40
0.3795168883
 40
0.397606819
 40
0.4160996888
 40
0.4349716753
 40
0.4541977875
 40
0.4737519775
 40
0.5137340473
 40
0.5546940449
 40
0.5963956279
 40
0.6385946131
 40
0.6810416609
 40
0.7234848899
 40
0.7656724573
 40
0.8073551413
 40
0.848288956
 40
0.8882378395
 40
0.907772924
 40
0.9269783255
 40
0.9458280574
 40
0.9642971963
 40
0.9823619728
 40
1.0
 40
1.0
 40
1.0
 40
1.0
 10
15.4519607461
 20
13.6604435281
 30
0.0
 10
15.4580658455
 20
13.6677577456
 30
0.0
 10
15.4703829908
 20
13.6817520211
 30
0.0
 10
15.4896243399
 20
13.7011847949
 30
0.0
 10
15.5091736435
 20
13.7185406067
 30
0.0
 10
15.5289984638
 20
13.7337873264
 30
0.0
 10
15.549066786
 20
13.7468965522
 30
0.0
 10
15.5693456974
 20
13.7578422091
 30
0.0
 10
15.5898011017
 20
13.7666008815
 30
0.0
 10
15.6103970586
 20
13.7731519794
 30
0.0
 10
15.6310952364
 20
13.7774785855
 30
0.0
 10
15.6518548374
 20
13.7795684977
 30
0.0
 10
15.6726331597
 20
13.7794154972
 30
0.0
 10
15.6933868739
 20
13.7770200361
 30
0.0
 10
15.7140734323
 20
13.7723892437
 30
0.0
 10
15.734652535
 20
13.7655359289
 30
0.0
 10
15.7550854948
 20
13.7564779862
 30
0.0
 10
15.7717948294
 20
13.7472024302
 30
0.0
 10
15.7850419016
 20
13.7387448075
 30
0.0
 10
15.7984948771
 20
13.7293839218
 30
0.0
 10
15.8151646113
 20
13.716296886
 30
0.0
 10
15.8346731974
 20
13.6986563607
 30
0.0
 10
15.8538707426
 20
13.678942235
 30
0.0
 10
15.872724815
 20
13.6571899249
 30
0.0
 10
15.8912043802
 20
13.6334371332
 30
0.0
 10
15.9092783805
 20
13.6077250876
 30
0.0
 10
15.9269162264
 20
13.5800982444
 30
0.0
 10
15.944087832
 20
13.5506044089
 30
0.0
 10
15.9607637029
 20
13.5192946442
 30
0.0
 10
15.9769150724
 20
13.4862232386
 30
0.0
 10
15.9925139574
 20
13.4514476042
 30
0.0
 10
16.0075332556
 20
13.4150281897
 30
0.0
 10
16.0219468171
 20
13.3770283724
 30
0.0
 10
16.0357294896
 20
13.3375143396
 30
0.0
 10
16.0488572093
 20
13.2965549767
 30
0.0
 10
16.0613070109
 20
13.2542217309
 30
0.0
 10
16.0730571179
 20
13.2105884956
 30
0.0
 10
16.0840869574
 20
13.1657314512
 30
0.0
 10
16.0943771835
 20
13.1197290004
 30
0.0
 10
16.1039098815
 20
13.0726613662
 30
0.0
 10
16.1156741048
 20
13.0081181856
 30
0.0
 10
16.1283306609
 20
12.925353744
 30
0.0
 10
16.1401576063
 20
12.8238675696
 30
0.0
 10
16.1486503486
 20
12.7201955352
 30
0.0
 10
16.1537490884
 20
12.6150621096
 30
0.0
 10
16.155417877
 20
12.5092008019
 30
0.0
 10
16.1536449561
 20
12.4033506933
 30
0.0
 10
16.148442818
 20
12.2982507854
 30
0.0
 10
16.13984814
 20
12.194634346
 30
0.0
 10
16.1279214396
 20
12.0932254504
 30
0.0
 10
16.1151829577
 20
12.0105396566
 30
0.0
 10
16.1033545669
 20
11.9460700144
 30
0.0
 10
16.0937755068
 20
11.8990645402
 30
0.0
 10
16.0834399788
 20
11.8531291916
 30
0.0
 10
16.0723659524
 20
11.8083439948
 30
0.0
 10
16.0605729489
 20
11.7647875366
 30
0.0
 10
16.0521410401
 20
11.7362668107
 30
0.0
 10
16.047803519
 20
11.7222305872
 30
0.0
  0
SPLINE
  5
32C
100
AcDbEntity
  8
LAYER_CUT_FEAT
100
AcDbSpline
 62
7
  6
CONTINUOUS
 70
0
 71
3
 72
20
 73
16
 74
0
 42
0.0000001
 43
0.0000001
 44
0.0000000001
 40
0.0
 40
0.0
 40
0.0
 40
0.0
 40
0.1546675466
 40
0.2311405
 40
0.3064748723
 40
0.4520850661
 40
0.5884688303
 40
0.6523703746
 40
0.7130174144
 40
0.7701751462
 40
0.8236627621
 40
0.8733661816
 40
0.9192527255
 40
0.961396715
 40
1.0
 40
1.0
 40
1.0
 40
1.0
 10
15.4249418671
 20
11.5791424605
 30
0.0
 10
15.4249680433
 20
11.5818280153
 30
0.0
 10
15.4248818336
 20
11.5858441831
 30
0.0
 10
15.4245133652
 20
11.5911537952
 30
0.0
 10
15.4239875016
 20
11.5962922036
 30
0.0
 10
15.4230475955
 20
11.6024305462
 30
0.0
 10
15.421698324
 20
11.6082907013
 30
0.0
 10
15.4203885391
 20
11.6126296761
 30
0.0
 10
15.4193309775
 20
11.6156038299
 30
0.0
 10
15.4181838645
 20
11.6183498445
 30
0.0
 10
15.4169544358
 20
11.6208502722
 30
0.0
 10
15.4156504224
 20
11.6230892714
 30
0.0
 10
15.4142795685
 20
11.6250530044
 30
0.0
 10
15.41285018
 20
11.6267287921
 30
0.0
 10
15.4118202023
 20
11.6276867941
 30
0.0
 10
15.4112979164
 20
11.6281069621
 30
0.0
  0
SPLINE
  5
32D
100
AcDbEntity
  8
02___PRT_ALL_AXES
100
AcDbSpline
 62
7
  6
CONTINUOUS
 70
0
 71
3
 72
52
 73
48
 74
0
 42
0.0000001
 43
0.0000001
 44
0.0000000001
 40
0.0
 40
0.0
 40
0.0
 40
0.0
 40
0.0076944722
 40
0.0154414263
 40
0.0232920386
 40
0.0312950018
 40
0.0394955726
 40
0.0479348998
 40
0.0566496332
 40
0.0656717835
 40
0.0750287777
 40
0.0847436543
 40
0.0948353429
 40
0.1053189872
 40
0.1162062794
 40
0.127505786
 40
0.1392232555
 40
0.1513618995
 40
0.163922645
 40
0.1769043599
 40
0.19030405
 40
0.2041170349
 40
0.218337103
 40
0.2329566476
 40
0.2479667875
 40
0.2633574729
 40
0.2791175813
 40
0.2952350044
 40
0.3284873541
 40
0.3630024241
 40
0.3986549509
 40
0.435310002
 40
0.4728245296
 40
0.5110487953
 40
0.5498277025
 40
0.5890020591
 40
0.6284098019
 40
0.6678871899
 40
0.7072699842
 40
0.7463946225
 40
0.7850994004
 40
0.8232256693
 40
0.8606190626
 40
0.8971307729
 40
0.9326188906
 40
0.9669498533
 40
1.0
 40
1.0
 40
1.0
 40
1.0
 10
15.6492220384
 20
13.7668049909
 30
0.0
 10
15.6549369762
 20
13.7668049931
 30
0.0
 10
15.6664124467
 20
13.7662872218
 30
0.0
 10
15.6835769612
 20
13.7639613391
 30
0.0
 10
15.7006955948
 20
13.7600895575
 30
0.0
 10
15.7177437997
 20
13.7546785966
 30
0.0
 10
15.7347002439
 20
13.7477373204
 30
0.0
 10
15.7515438067
 20
13.7392764132
 30
0.0
 10
15.7682542657
 20
13.7293081408
 30
0.0
 10
15.7848118955
 20
13.7178462222
 30
0.0
 10
15.8011973721
 20
13.704905795
 30
0.0
 10
15.8173916312
 20
13.6905034311
 30
0.0
 10
15.8333757996
 20
13.674657185
 30
0.0
 10
15.8491311617
 20
13.657386647
 30
0.0
 10
15.8646391579
 20
13.6387129887
 30
0.0
 10
15.8798814078
 20
13.6186589966
 30
0.0
 10
15.8948397376
 20
13.5972490847
 30
0.0
 10
15.909496217
 20
13.5745092945
 30
0.0
 10
15.923833197
 20
13.5504672844
 30
0.0
 10
15.9378333458
 20
13.5251523106
 30
0.0
 10
15.9514796875
 20
13.4985952015
 30
0.0
 10
15.9647556328
 20
13.4708283244
 30
0.0
 10
15.9776450089
 20
13.4418855453
 30
0.0
 10
15.9901320853
 20
13.4118021915
 30
0.0
 10
16.0022016106
 20
13.3806149969
 30
0.0
 10
16.0138387917
 20
13.3483621003
 30
0.0
 10
16.025029499
 20
13.3150828329
 30
0.0
 10
16.0394866661
 20
13.2689165253
 30
0.0
 10
16.0563016934
 20
13.2089068012
 30
0.0
 10
16.0742899813
 20
13.1342133276
 30
0.0
 10
16.0902045757
 20
13.0564699507
 30
0.0
 10
16.103967129
 20
12.9760571864
 30
0.0
 10
16.1155099086
 20
12.8933676771
 30
0.0
 10
16.1247760603
 20
12.8088058302
 30
0.0
 10
16.1317199235
 20
12.722785311
 30
0.0
 10
16.1363072857
 20
12.6357270927
 30
0.0
 10
16.1385155354
 20
12.5480573132
 30
0.0
 10
16.1383337863
 20
12.4602051589
 30
0.0
 10
16.1357629404
 20
12.3726007237
 30
0.0
 10
16.1308156617
 20
12.2856728691
 30
0.0
 10
16.1235163363
 20
12.1998470821
 30
0.0
 10
16.1139009376
 20
12.1155433685
 30
0.0
 10
16.1020168233
 20
12.0331740904
 30
0.0
 10
16.0879225684
 20
11.9531421048
 30
0.0
 10
16.071687412
 20
11.87583795
 30
0.0
 10
16.0533916663
 20
11.8016406173
 30
0.0
 10
16.0396021876
 20
11.7535160008
 30
0.0
 10
16.0323546229
 20
11.7300628728
 30
0.0
  0
SPLINE
  5
32E
100
AcDbEntity
  8
LAYER_CUT_FEAT
100
AcDbSpline
 62
7
  6
CONTINUOUS
 70
0
 71
3
 72
23
 73
19
 74
0
 42
0.0000001
 43
0.0000001
 44
0.0000000001
 40
0.0
 40
0.0
 40
0.0
 40
0.0
 40
0.079121142
 40
0.156350612
 40
0.231586168
 40
0.3047330842
 40
0.3757049544
 40
0.444424594
 40
0.5108250662
 40
0.5748508587
 40
0.6364592465
 40
0.6956218798
 40
0.7523266424
 40
0.8065798277
 40
0.8584086762
 40
0.9078643064
 40
0.9550250322
 40
1.0
 40
1.0
 40
1.0
 40
1.0
 10
15.2152758089
 20
12.01343428
 30
0.0
 10
15.2180662044
 20
12.0021983436
 30
0.0
 10
15.2238278603
 20
11.9800555977
 30
0.0
 10
15.2331335085
 20
11.947468693
 30
0.0
 10
15.2429841979
 20
11.9159566521
 30
0.0
 10
15.2533610738
 20
11.8855796836
 30
0.0
 10
15.2642443635
 20
11.8563955203
 30
0.0
 10
15.2756133413
 20
11.8284596467
 30
0.0
 10
15.2874464017
 20
11.8018251008
 30
0.0
 10
15.2997211131
 20
11.776542391
 30
0.0
 10
15.312414283
 20
11.7526593941
 30
0.0
 10
15.3255020361
 20
11.730221266
 30
0.0
 10
15.3389598834
 20
11.7092703773
 30
0.0
 10
15.3527628649
 20
11.6898462205
 30
0.0
 10
15.3668854771
 20
11.6719855181
 30
0.0
 10
15.3813023801
 20
11.6557217592
 30
0.0
 10
15.3959863821
 20
11.6410869153
 30
0.0
 10
15.4061703402
 20
11.6322319892
 30
0.0
 10
15.4112979164
 20
11.6281069621
 30
0.0
  0
SPLINE
  5
32F
100
AcDbEntity
  8
LAYER_CUT_FEAT
100
AcDbSpline
 62
7
  6
CONTINUOUS
 70
0
 71
3
 72
21
 73
17
 74
0
 42
0.0000001
 43
0.0000001
 44
0.0000000001
 40
0.0
 40
0.0
 40
0.0
 40
0.0
 40
0.0980073399
 40
0.1495138351
 40
0.2028158415
 40
0.2579976901
 40
0.3151284448
 40
0.3742628119
 40
0.4354423566
 40
0.4986967406
 40
0.564044725
 40
0.6314952031
 40
0.7010481211
 40
0.7726952708
 40
0.8464209538
 40
1.0
 40
1.0
 40
1.0
 40
1.0
 10
15.617377711
 20
11.3991581534
 30
0.0
 10
15.6268727342
 20
11.404700117
 30
0.0
 10
15.6408114809
 20
11.4141233216
 30
0.0
 10
15.6585380452
 20
11.4283934048
 30
0.0
 10
15.6719120037
 20
11.4403748353
 30
0.0
 10
15.6851267734
 20
11.4534422242
 30
0.0
 10
15.6981710537
 20
11.4675832744
 30
0.0
 10
15.7110315673
 20
11.4827832794
 30
0.0
 10
15.7236957388
 20
11.4990269345
 30
0.0
 10
15.7361509571
 20
11.5162977975
 30
0.0
 10
15.7483848267
 20
11.5345784183
 30
0.0
 10
15.7603851277
 20
11.55385034
 30
0.0
 10
15.7721397712
 20
11.5740940414
 30
0.0
 10
15.7836371208
 20
11.5952892891
 30
0.0
 10
15.7988144833
 20
11.6251967153
 30
0.0
 10
15.8094562165
 20
11.6483830654
 30
0.0
 10
15.8162861431
 20
11.6641992009
 30
0.0
  0
SPLINE
  5
330
100
AcDbEntity
  8
LAYER_FEATURE
100
AcDbSpline
 62
7
  6
CONTINUOUS
 70
0
 71
3
 72
49
 73
45
 74
0
 42
0.0000001
 43
0.0000001
 44
0.0000000001
 40
0.0
 40
0.0
 40
0.0
 40
0.0
 40
0.0079087929
 40
0.0160275009
 40
0.024388438
 40
0.0330201975
 40
0.0419476542
 40
0.0511920783
 40
0.0607713262
 40
0.0707000745
 40
0.0809900698
 40
0.0916503817
 40
0.1026876418
 40
0.114106273
 40
0.1259086983
 40
0.1380955286
 40
0.1506657309
 40
0.1636167752
 40
0.1769447667
 40
0.1906445662
 40
0.2047098952
 40
0.2191334292
 40
0.2490194224
 40
0.2802278125
 40
0.312669786
 40
0.3462460802
 40
0.3808484538
 40
0.4163610043
 40
0.4526613279
 40
0.4896215955
 40
0.527109571
 40
0.5649895629
 40
0.6031233596
 40
0.6413711349
 40
0.679592341
 40
0.7176465991
 40
0.7553945857
 40
0.7926989362
 40
0.829425153
 40
0.8654425483
 40
0.9006252262
 40
0.9348530988
 40
0.9680129863
 40
1.0
 40
1.0
 40
1.0
 40
1.0
 10
15.5862790209
 20
11.2299132891
 30
0.0
 10
15.5807418812
 20
11.2318424081
 30
0.0
 10
15.5696686185
 20
11.2361896625
 30
0.0
 10
15.5533530318
 20
11.2440168771
 30
0.0
 10
15.5371516123
 20
11.2532177837
 30
0.0
 10
15.521082751
 20
11.2637807362
 30
0.0
 10
15.5051627789
 20
11.2756934985
 30
0.0
 10
15.4894082727
 20
11.2889424781
 30
0.0
 10
15.4738355004
 20
11.3035129292
 30
0.0
 10
15.4584606264
 20
11.3193888574
 30
0.0
 10
15.4432996706
 20
11.3365530047
 30
0.0
 10
15.4283685178
 20
11.3549868194
 30
0.0
 10
15.4136828856
 20
11.3746704332
 30
0.0
 10
15.3992583073
 20
11.3955826624
 30
0.0
 10
15.3851101077
 20
11.4177010168
 30
0.0
 10
15.3712533741
 20
11.4410017096
 30
0.0
 10
15.3577029311
 20
11.4654596749
 30
0.0
 10
15.344473316
 20
11.4910485816
 30
0.0
 10
15.331578735
 20
11.5177408657
 30
0.0
 10
15.3190331048
 20
11.5455077273
 30
0.0
 10
15.3068498209
 20
11.5743193117
 30
0.0
 10
15.2909179902
 20
11.6145626798
 30
0.0
 10
15.2720482027
 20
11.6672953268
 30
0.0
 10
15.2513106507
 20
11.7334869133
 30
0.0
 10
15.2323084639
 20
11.8030368224
 30
0.0
 10
15.2151241242
 20
11.8756446133
 30
0.0
 10
15.1998321275
 20
11.9509976462
 30
0.0
 10
15.1864989268
 20
12.0287707017
 30
0.0
 10
15.1751824785
 20
12.1086279638
 30
0.0
 10
15.1659319756
 20
12.1902243816
 30
0.0
 10
15.1587876791
 20
12.2732072531
 30
0.0
 10
15.1537806608
 20
12.3572177709
 30
0.0
 10
15.1509326978
 20
12.441892611
 30
0.0
 10
15.1502562049
 20
12.5268655318
 30
0.0
 10
15.1517541054
 20
12.6117689825
 30
0.0
 10
15.1554198853
 20
12.6962357168
 30
0.0
 10
15.1612376088
 20
12.7799004061
 30
0.0
 10
15.1691819407
 20
12.8624012496
 30
0.0
 10
15.1792183333
 20
12.9433815519
 30
0.0
 10
15.1913031443
 20
13.0224913514
 30
0.0
 10
15.2053837769
 20
13.0993887915
 30
0.0
 10
15.2213991715
 20
13.173742272
 30
0.0
 10
15.2392793743
 20
13.2452297321
 30
0.0
 10
15.2526456983
 20
13.2916566728
 30
0.0
 10
15.2596475261
 20
13.3143145956
 30
0.0
  0
SPLINE
  5
331
100
AcDbEntity
  8
LAYER_FEATURE
100
AcDbSpline
 62
7
  6
CONTINUOUS
 70
0
 71
3
 72
78
 73
74
 74
0
 42
0.0000001
 43
0.0000001
 44
0.0000000001
 40
0.0
 40
0.0
 40
0.0
 40
0.0
 40
0.0173115679
 40
0.0340660427
 40
0.0502396574
 40
0.0658116535
 40
0.0807650234
 40
0.0950868833
 40
0.1087690777
 40
0.1218088659
 40
0.1342097462
 40
0.1459824368
 40
0.1571460216
 40
0.1677292405
 40
0.177771872
 40
0.187326073
 40
0.1964574288
 40
0.2008905554
 40
0.2052488905
 40
0.2095443876
 40
0.2137896807
 40
0.2179979819
 40
0.2221829426
 40
0.2263584992
 40
0.2305387055
 40
0.2347375574
 40
0.2389688212
 40
0.2432458724
 40
0.2475815572
 40
0.251988067
 40
0.2564768537
 40
0.2657399337
 40
0.2754490764
 40
0.2856653418
 40
0.2964366565
 40
0.3077989945
 40
0.3197777521
 40
0.3323891101
 40
0.3456412803
 40
0.3595355974
 40
0.3740674458
 40
0.3892270369
 40
0.4050000588
 40
0.4213682268
 40
0.4383097484
 40
0.4557997176
 40
0.4738104539
 40
0.492311801
 40
0.5112713952
 40
0.5306549051
 40
0.5504262493
 40
0.5705477965
 40
0.5909805586
 40
0.6116843709
 40
0.6326180646
 40
0.6537396325
 40
0.6750063911
 40
0.6963751404
 40
0.7178023205
 40
0.739244166
 40
0.7606568596
 40
0.7819966866
 40
0.8032201893
 40
0.8242843208
 40
0.8451466035
 40
0.8657652895
 40
0.8860995234
 40
0.9061095101
 40
0.9257566896
 40
0.9450039192
 40
0.963815692
 40
0.9821582229
 40
1.0
 40
1.0
 40
1.0
 40
1.0
 10
15.2258685096
 20
13.383148994
 30
0.0
 10
15.2313414786
 20
13.4008595284
 30
0.0
 10
15.2425992493
 20
13.4355625499
 30
0.0
 10
15.2607407353
 20
13.4862159011
 30
0.0
 10
15.2798268021
 20
13.5345250388
 30
0.0
 10
15.299811663
 20
13.5803740125
 30
0.0
 10
15.3206476285
 20
13.623653474
 30
0.0
 10
15.3422852023
 20
13.6642603139
 30
0.0
 10
15.3646732898
 20
13.7020980309
 30
0.0
 10
15.387759465
 20
13.7370768737
 30
0.0
 10
15.4114902632
 20
13.7691139706
 30
0.0
 10
15.4358114676
 20
13.7981333222
 30
0.0
 10
15.4606685015
 20
13.8240657035
 30
0.0
 10
15.4860062695
 20
13.8468481702
 30
0.0
 10
15.5117704587
 20
13.8664238616
 30
0.0
 10
15.5379024328
 20
13.8827398499
 30
0.0
 10
15.5601612239
 20
13.8936890001
 30
0.0
 10
15.5780345527
 20
13.900702523
 30
0.0
 10
15.5913572283
 20
13.9050733487
 30
0.0
 10
15.6047192756
 20
13.9086025161
 30
0.0
 10
15.6181127427
 20
13.9112876502
 30
0.0
 10
15.6315290972
 20
13.9131267672
 30
0.0
 10
15.6449598335
 20
13.9141185267
 30
0.0
 10
15.6583963453
 20
13.91426212
 30
0.0
 10
15.6718300027
 20
13.913557517
 30
0.0
 10
15.6852521903
 20
13.9120051865
 30
0.0
 10
15.6986543404
 20
13.9096063124
 30
0.0
 10
15.7120280167
 20
13.9063626758
 30
0.0
 10
15.725364764
 20
13.9022766029
 30
0.0
 10
15.7386566953
 20
13.8973508419
 30
0.0
 10
15.7564927709
 20
13.8895882543
 30
0.0
 10
15.7786829116
 20
13.8777076094
 30
0.0
 10
15.8046988874
 20
13.8603084355
 30
0.0
 10
15.8303283732
 20
13.8396661829
 30
0.0
 10
15.8555131905
 20
13.8158354721
 30
0.0
 10
15.8801991046
 20
13.7888749588
 30
0.0
 10
15.9043310866
 20
13.7588496469
 30
0.0
 10
15.9278546774
 20
13.7258309643
 30
0.0
 10
15.9507158666
 20
13.6898971789
 30
0.0
 10
15.9728615007
 20
13.6511334426
 30
0.0
 10
15.9942395634
 20
13.6096317563
 30
0.0
 10
16.0147994592
 20
13.5654908269
 30
0.0
 10
16.0344922701
 20
13.5188158703
 30
0.0
 10
16.0532709447
 20
13.4697183497
 30
0.0
 10
16.0710904799
 20
13.418315696
 30
0.0
 10
16.087908074
 20
13.3647310117
 30
0.0
 10
16.1036832731
 20
13.3090927657
 30
0.0
 10
16.1183780953
 20
13.2515344678
 30
0.0
 10
16.1319571253
 20
13.1921943262
 30
0.0
 10
16.1443876158
 20
13.1312149014
 30
0.0
 10
16.1556395715
 20
13.0687427555
 30
0.0
 10
16.1656858439
 20
13.0049280936
 30
0.0
 10
16.1745021869
 20
12.9399243911
 30
0.0
 10
16.1820673165
 20
12.8738880142
 30
0.0
 10
16.1883629631
 20
12.806977839
 30
0.0
 10
16.1933739224
 20
12.7393548665
 30
0.0
 10
16.1970881011
 20
12.6711818304
 30
0.0
 10
16.1994965311
 20
12.6026227994
 30
0.0
 10
16.2005933955
 20
12.5338427783
 30
0.0
 10
16.2003760389
 20
12.4650073088
 30
0.0
 10
16.1988449892
 20
12.3962820672
 30
0.0
 10
16.1960039481
 20
12.3278324619
 30
0.0
 10
16.1918597764
 20
12.2598232325
 30
0.0
 10
16.1864224779
 20
12.1924180503
 30
0.0
 10
16.179705177
 20
12.1257791198
 30
0.0
 10
16.1717240994
 20
12.0600667823
 30
0.0
 10
16.1624985153
 20
11.9954391253
 30
0.0
 10
16.1520506963
 20
11.9320516048
 30
0.0
 10
16.1404058484
 20
11.8700566463
 30
0.0
 10
16.1275920875
 20
11.80960332
 30
0.0
 10
16.1136402773
 20
11.7508368006
 30
0.0
 10
16.0985842504
 20
11.6938987689
 30
0.0
 10
16.0876776191
 20
11.6567139547
 30
0.0
 10
16.0820370269
 20
11.6384609918
 30
0.0
  0
SPLINE
  5
332
100
AcDbEntity
  8
LAYER_FEATURE
100
AcDbSpline
 62
7
  6
CONTINUOUS
 70
0
 71
3
 72
33
 73
29
 74
0
 42
0.0000001
 43
0.0000001
 44
0.0000000001
 40
0.0
 40
0.0
 40
0.0
 40
0.0
 40
0.0879671377
 40
0.172661812
 40
0.2539292484
 40
0.3316395726
 40
0.4056927403
 40
0.4413287873
 40
0.4760290993
 40
0.5097917901
 40
0.5426178822
 40
0.5745115878
 40
0.605480603
 40
0.6355363742
 40
0.6646944349
 40
0.6929747986
 40
0.7204023006
 40
0.7470069711
 40
0.7728244492
 40
0.8222528729
 40
0.8459837528
 40
0.8691323863
 40
0.8917664494
 40
0.9139599958
 40
0.9357930048
 40
0.9573506337
 40
0.9787222097
 40
1.0
 40
1.0
 40
1.0
 40
1.0
 10
15.2194615029
 20
13.4195987665
 30
0.0
 10
15.2259798996
 20
13.440692306
 30
0.0
 10
15.2394368015
 20
13.481894217
 30
0.0
 10
15.2613323084
 20
13.5417595916
 30
0.0
 10
15.2845014503
 20
13.5983745593
 30
0.0
 10
15.3088710672
 20
13.6515600389
 30
0.0
 10
15.3303838055
 20
13.6934070111
 30
0.0
 10
15.3481655504
 20
13.724986934
 30
0.0
 10
15.3615822487
 20
13.7474091871
 30
0.0
 10
15.3752392689
 20
13.7688544935
 30
0.0
 10
15.3891260849
 20
13.789306057
 30
0.0
 10
15.4032318329
 20
13.8087477623
 30
0.0
 10
15.4175455266
 20
13.8271643306
 30
0.0
 10
15.4320560649
 20
13.8445412653
 30
0.0
 10
15.4467522155
 20
13.8608648324
 30
0.0
 10
15.4616227202
 20
13.8761222078
 30
0.0
 10
15.4766558232
 20
13.8903010746
 30
0.0
 10
15.4918411522
 20
13.9033908959
 30
0.0
 10
15.5119787246
 20
13.9191459722
 30
0.0
 10
15.5326765185
 20
13.9329844963
 30
0.0
 10
15.5538582254
 20
13.9446519343
 30
0.0
 10
15.5696232967
 20
13.9521504803
 30
0.0
 10
15.5854675831
 20
13.9585073778
 30
0.0
 10
15.6013790445
 20
13.9637170583
 30
0.0
 10
15.6173445395
 20
13.9677744551
 30
0.0
 10
15.633351201
 20
13.9706755921
 30
0.0
 10
15.6493844535
 20
13.9724174918
 30
0.0
 10
15.6600924715
 20
13.9728049802
 30
0.0
 10
15.6654327119
 20
13.9728049847
 30
0.0
  0
SPLINE
  5
333
100
AcDbEntity
  8
LAYER_FEATURE
100
AcDbSpline
 62
7
  6
CONTINUOUS
 70
0
 71
3
 72
27
 73
23
 74
0
 42
0.0000001
 43
0.0000001
 44
0.0000000001
 40
0.0
 40
0.0
 40
0.0
 40
0.0
 40
0.0216187551
 40
0.0433260299
 40
0.0652090103
 40
0.0873522973
 40
0.1098368143
 40
0.1327388819
 40
0.1561295407
 40
0.1800741128
 40
0.2298390825
 40
0.2824560117
 40
0.3382348037
 40
0.3974017593
 40
0.4601100598
 40
0.5264501744
 40
0.596459244
 40
0.6701289741
 40
0.7474123066
 40
0.8282289286
 40
0.9124693513
 40
1.0
 40
1.0
 40
1.0
 40
1.0
 10
15.3108242292
 20
13.9034049843
 30
0.0
 10
15.3059223644
 20
13.9034049809
 30
0.0
 10
15.296095153
 20
13.903062332
 30
0.0
 10
15.2813788025
 20
13.9015218642
 30
0.0
 10
15.2666849994
 20
13.8989560635
 30
0.0
 10
15.2520261312
 20
13.895367344
 30
0.0
 10
15.2374131756
 20
13.8907589173
 30
0.0
 10
15.2228573129
 20
13.8851349306
 30
0.0
 10
15.2083689654
 20
13.8784999979
 30
0.0
 10
15.1889080498
 20
13.8681818338
 30
0.0
 10
15.1647670385
 20
13.8526569637
 30
0.0
 10
15.1366363683
 20
13.8303338374
 30
0.0
 10
15.1090435066
 20
13.8041516278
 30
0.0
 10
15.0820635849
 20
13.7741912487
 30
0.0
 10
15.0557675055
 20
13.7405400233
 30
0.0
 10
15.0302272573
 20
13.7032953153
 30
0.0
 10
15.005513901
 20
13.6625642782
 30
0.0
 10
14.9816973573
 20
13.6184642776
 30
0.0
 10
14.9588458027
 20
13.5711227478
 30
0.0
 10
14.9370252236
 20
13.5206766931
 30
0.0
 10
14.9162991537
 20
13.4672733295
 30
0.0
 10
14.9034887677
 20
13.4304835344
 30
0.0
 10
14.8972637428
 20
13.4116382406
 30
0.0
  0
SPLINE
  5
334
100
AcDbEntity
  8
LAYER_CUT_FEAT
100
AcDbSpline
 62
7
  6
CONTINUOUS
 70
0
 71
3
 72
11
 73
7
 74
0
 42
0.0000001
 43
0.0000001
 44
0.0000000001
 40
0.0
 40
0.0
 40
0.0
 40
0.0
 40
0.2307985431
 40
0.4698308336
 40
0.7243514421
 40
1.0
 40
1.0
 40
1.0
 40
1.0
 10
15.3978471504
 20
13.3848502685
 30
0.0
 10
15.3983763186
 20
13.3848502688
 30
0.0
 10
15.3994566485
 20
13.3849649449
 30
0.0
 10
15.4010479536
 20
13.3854740105
 30
0.0
 10
15.4026094051
 20
13.3863117309
 30
0.0
 10
15.4035811833
 20
13.3870500082
 30
0.0
 10
15.4040592972
 20
13.3874633238
 30
0.0
  0
SPLINE
  5
335
100
AcDbEntity
  8
02___PRT_ALL_AXES
100
AcDbSpline
 62
7
  6
CONTINUOUS
 70
0
 71
3
 72
49
 73
45
 74
0
 42
0.0000001
 43
0.0000001
 44
0.0000000001
 40
0.0
 40
0.0
 40
0.0
 40
0.0
 40
0.0079087929
 40
0.0160275009
 40
0.024388438
 40
0.0330201975
 40
0.0419476542
 40
0.0511920783
 40
0.0607713262
 40
0.0707000745
 40
0.0809900698
 40
0.0916503817
 40
0.1026876418
 40
0.114106273
 40
0.1259086983
 40
0.1380955286
 40
0.1506657309
 40
0.1636167752
 40
0.1769447667
 40
0.1906445662
 40
0.2047098952
 40
0.2191334292
 40
0.2490194224
 40
0.2802278125
 40
0.312669786
 40
0.3462460802
 40
0.3808484538
 40
0.4163610043
 40
0.4526613279
 40
0.4896215955
 40
0.527109571
 40
0.5649895629
 40
0.6031233596
 40
0.6413711349
 40
0.679592341
 40
0.7176465991
 40
0.7553945857
 40
0.7926989362
 40
0.829425153
 40
0.8654425483
 40
0.9006252262
 40
0.9348530988
 40
0.9680129863
 40
1.0
 40
1.0
 40
1.0
 40
1.0
 10
15.5930294054
 20
11.2275614721
 30
0.0
 10
15.587482099
 20
11.2294941332
 30
0.0
 10
15.576388505
 20
11.2338493695
 30
0.0
 10
15.5600429616
 20
11.2416909554
 30
0.0
 10
15.543811795
 20
11.2509087557
 30
0.0
 10
15.52771343
 20
11.2614911025
 30
0.0
 10
15.5117642276
 20
11.2734257376
 30
0.0
 10
15.4959807949
 20
11.2866990433
 30
0.0
 10
15.4803794298
 20
11.301296247
 30
0.0
 10
15.4649763264
 20
11.3172013246
 30
0.0
 10
15.4497875338
 20
11.3343969866
 30
0.0
 10
15.4348289663
 20
11.3528646472
 30
0.0
 10
15.4201163702
 20
11.3725844017
 30
0.0
 10
15.4056653072
 20
11.3935350274
 30
0.0
 10
15.3914911304
 20
11.4156939927
 30
0.0
 10
15.3776089547
 20
11.4390374674
 30
0.0
 10
15.3640336321
 20
11.4635403395
 30
0.0
 10
15.3507797264
 20
11.4891762294
 30
0.0
 10
15.3378614699
 20
11.5159175226
 30
0.0
 10
15.325292805
 20
11.5437353663
 30
0.0
 10
15.3130871516
 20
11.5725998511
 30
0.0
 10
15.2971260688
 20
11.6129171091
 30
0.0
 10
15.2782216349
 20
11.6657465773
 30
0.0
 10
15.2574460072
 20
11.7320596967
 30
0.0
 10
15.2384089309
 20
11.8017373049
 30
0.0
 10
15.2211930394
 20
11.8744784094
 30
0.0
 10
15.2058729654
 20
11.9499697963
 30
0.0
 10
15.1925152839
 20
12.0278856492
 30
0.0
 10
15.1811780577
 20
12.1078895355
 30
0.0
 10
15.1719105702
 20
12.1896357706
 30
0.0
 10
15.1647531562
 20
12.2727710051
 30
0.0
 10
15.1597369446
 20
12.3569357728
 30
0.0
 10
15.1568837525
 20
12.4417660825
 30
0.0
 10
15.1562060175
 20
12.5268950202
 30
0.0
 10
15.1577066683
 20
12.6119543602
 30
0.0
 10
15.1613791789
 20
12.6965761821
 30
0.0
 10
15.1672075841
 20
12.7803944862
 30
0.0
 10
15.1751665025
 20
12.8630468078
 30
0.0
 10
15.1852213226
 20
12.9441757961
 30
0.0
 10
15.1973283223
 20
13.0234308474
 30
0.0
 10
15.211434808
 20
13.1004694772
 30
0.0
 10
15.2274796081
 20
13.1749594765
 30
0.0
 10
15.2453926404
 20
13.2465781931
 30
0.0
 10
15.258783506
 20
13.2930903773
 30
0.0
 10
15.2657981897
 20
13.3157899018
 30
0.0
  0
SPLINE
  5
336
100
AcDbEntity
  8
LAYER_FEATURE
100
AcDbSpline
 62
7
  6
CONTINUOUS
 70
0
 71
3
 72
53
 73
49
 74
0
 42
0.0000001
 43
0.0000001
 44
0.0000000001
 40
0.0
 40
0.0
 40
0.0
 40
0.0
 40
0.0330501323
 40
0.0673810115
 40
0.1028690699
 40
0.1393807231
 40
0.1767740601
 40
0.2149002703
 40
0.2536049882
 40
0.2927295664
 40
0.3321123003
 40
0.3715896275
 40
0.4109973098
 40
0.4501716064
 40
0.4889504533
 40
0.5271746604
 40
0.564689131
 40
0.6013441255
 40
0.6369965968
 40
0.6715116136
 40
0.6883037538
 40
0.7047654505
 40
0.7208828488
 40
0.7366429321
 40
0.7520335928
 40
0.7670437091
 40
0.7816632318
 40
0.7958832789
 40
0.8096962433
 40
0.823095913
 40
0.8360776074
 40
0.8486383331
 40
0.8607769578
 40
0.872494409
 40
0.8837938982
 40
0.8946811743
 40
0.9051648036
 40
0.9152564772
 40
0.9249713383
 40
0.9343283171
 40
0.9433504528
 40
0.9520651729
 40
0.9605044876
 40
0.9687050464
 40
0.9767079974
 40
0.9845585976
 40
0.9923055396
 40
1.0
 40
1.0
 40
1.0
 40
1.0
 10
14.8533730765
 20
13.4195987665
 30
0.0
 10
14.8449368096
 20
13.3922989967
 30
0.0
 10
14.8288856759
 20
13.3362813264
 30
0.0
 10
14.8075892065
 20
13.2499146824
 30
0.0
 10
14.7886912809
 20
13.1599316933
 30
0.0
 10
14.7722853848
 20
13.0667734473
 30
0.0
 10
14.7584521314
 20
12.9708945575
 30
0.0
 10
14.7472596842
 20
12.8727639608
 30
0.0
 10
14.738763173
 20
12.7728616524
 30
0.0
 10
14.7330044776
 20
12.6716765226
 30
0.0
 10
14.7300119823
 20
12.5697038442
 30
0.0
 10
14.7298004265
 20
12.4674428176
 30
0.0
 10
14.7323708523
 20
12.3653940779
 30
0.0
 10
14.7377105994
 20
12.2640572018
 30
0.0
 10
14.745793351
 20
12.1639282274
 30
0.0
 10
14.7565792676
 20
12.0654971429
 30
0.0
 10
14.770015204
 20
11.969245563
 30
0.0
 10
14.7860350029
 20
11.8756438543
 30
0.0
 10
14.8045597604
 20
11.7851503887
 30
0.0
 10
14.8221659024
 20
11.7120417218
 30
0.0
 10
14.8374701518
 20
11.6554830575
 30
0.0
 10
14.84940942
 20
11.6144999095
 30
0.0
 10
14.8618996767
 20
11.5746152845
 30
0.0
 10
14.874925724
 20
11.5358778669
 30
0.0
 10
14.8884715739
 20
11.4983350691
 30
0.0
 10
14.9025206504
 20
11.4620327834
 30
0.0
 10
14.9170557666
 20
11.4270153739
 30
0.0
 10
14.9320591628
 20
11.3933256082
 30
0.0
 10
14.9475125311
 20
11.3610046072
 30
0.0
 10
14.9633970464
 20
11.3300917935
 30
0.0
 10
14.9796933992
 20
11.300624843
 30
0.0
 10
14.996381827
 20
11.272639639
 30
0.0
 10
15.0134421562
 20
11.2461702353
 30
0.0
 10
15.030853843
 20
11.2212488264
 30
0.0
 10
15.0485960161
 20
11.1979057241
 30
0.0
 10
15.0666475208
 20
11.1761693457
 30
0.0
 10
15.0849869609
 20
11.1560662151
 30
0.0
 10
15.1035927356
 20
11.1376209806
 30
0.0
 10
15.1224430608
 20
11.1208564483
 30
0.0
 10
15.1415159657
 20
11.1057936313
 30
0.0
 10
15.1607892586
 20
11.0924518161
 30
0.0
 10
15.180240445
 20
11.0808486191
 30
0.0
 10
15.1998465657
 20
11.0710000113
 30
0.0
 10
15.2195840821
 20
11.0629202733
 30
0.0
 10
15.2394284097
 20
11.0566218431
 30
0.0
 10
15.2593547178
 20
11.0521150442
 30
0.0
 10
15.2793344315
 20
11.0494076846
 30
0.0
 10
15.2926920252
 20
11.0488050076
 30
0.0
 10
15.2993442855
 20
11.0488050011
 30
0.0
  0
SPLINE
  5
337
100
AcDbEntity
  8
LAYER_FEATURE
100
AcDbSpline
 62
7
  6
CONTINUOUS
 70
0
 71
3
 72
37
 73
33
 74
0
 42
0.0000001
 43
0.0000001
 44
0.0000000001
 40
0.0
 40
0.0
 40
0.0
 40
0.0
 40
0.0911549604
 40
0.135288602
 40
0.1784227538
 40
0.2205329957
 40
0.2615978549
 40
0.3015985629
 40
0.3405193231
 40
0.3783476047
 40
0.415074415
 40
0.450694656
 40
0.4852074865
 40
0.5186167287
 40
0.5509313336
 40
0.5821659048
 40
0.6123412799
 40
0.641485129
 40
0.6696326047
 40
0.6968270119
 40
0.7231204761
 40
0.7732350857
 40
0.7972347113
 40
0.8206395352
 40
0.8435508643
 40
0.8660787381
 40
0.8883404814
 40
0.9104587557
 40
0.932559203
 40
0.9547678398
 40
0.9772084221
 40
1.0
 40
1.0
 40
1.0
 40
1.0
 10
14.8827399706
 20
13.383148994
 30
0.0
 10
14.8898369279
 20
13.4061147565
 30
0.0
 10
14.9009887057
 20
13.4400146975
 30
0.0
 10
14.9170459951
 20
13.4842420818
 30
0.0
 10
14.9293618346
 20
13.5160612097
 30
0.0
 10
14.9420672494
 20
13.5468531312
 30
0.0
 10
14.9551493982
 20
13.5765866273
 30
0.0
 10
14.9685949185
 20
13.6052313735
 30
0.0
 10
14.9823901431
 20
13.6327582237
 30
0.0
 10
14.9965210543
 20
13.6591391628
 30
0.0
 10
15.0109733332
 20
13.6843473593
 30
0.0
 10
15.0257323524
 20
13.7083571962
 30
0.0
 10
15.0407832133
 20
13.7311442906
 30
0.0
 10
15.056110775
 20
13.752685503
 30
0.0
 10
15.0716996725
 20
13.7729589476
 30
0.0
 10
15.0875343619
 20
13.7919440171
 30
0.0
 10
15.1035990565
 20
13.809621361
 30
0.0
 10
15.1198780157
 20
13.8259730038
 30
0.0
 10
15.1363546819
 20
13.8409818222
 30
0.0
 10
15.1530147794
 20
13.8546333121
 30
0.0
 10
15.175089879
 20
13.870744066
 30
0.0
 10
15.1978461559
 20
13.8844474869
 30
0.0
 10
15.2211397342
 20
13.8953839277
 30
0.0
 10
15.238459828
 20
13.9020517752
 30
0.0
 10
15.2558592622
 20
13.9072924133
 30
0.0
 10
15.2733202911
 20
13.9110994342
 30
0.0
 10
15.2908235781
 20
13.9134674484
 30
0.0
 10
15.3083496031
 20
13.9143930849
 30
0.0
 10
15.3258783713
 20
13.913875001
 30
0.0
 10
15.3433902927
 20
13.9119138738
 30
0.0
 10
15.3608644014
 20
13.9085129124
 30
0.0
 10
15.3723706305
 20
13.9053179938
 30
0.0
 10
15.3780972085
 20
13.9034938872
 30
0.0
  0
SPLINE
  5
338
100
AcDbEntity
  8
LAYER_FEATURE
100
AcDbSpline
 62
7
  6
CONTINUOUS
 70
0
 71
3
 72
54
 73
50
 74
0
 42
0.0000001
 43
0.0000001
 44
0.0000000001
 40
0.0
 40
0.0
 40
0.0
 40
0.0
 40
0.0339775061
 40
0.0693357183
 40
0.1059323161
 40
0.143613158
 40
0.1822143457
 40
0.2215640226
 40
0.2614840563
 40
0.3017916417
 40
0.3423008494
 40
0.3828241394
 40
0.4231738589
 40
0.4631637403
 40
0.5026104131
 40
0.5413349451
 40
0.5791644339
 40
0.6159336768
 40
0.6514869576
 40
0.66876287
 40
0.6856817551
 40
0.7022277353
 40
0.7183859426
 40
0.734142609
 40
0.7494851663
 40
0.764402357
 40
0.7788843587
 40
0.7929229239
 40
0.8065115398
 40
0.8196456089
 40
0.832322656
 40
0.8445425638
 40
0.8563078435
 40
0.8676239405
 40
0.878499578
 40
0.8889471384
 40
0.8989830726
 40
0.9086283258
 40
0.9179087521
 40
0.9268554781
 40
0.9355051544
 40
0.9439000246
 40
0.9520877259
 40
0.9601207506
 40
0.9680555252
 40
0.9759511254
 40
0.9838677181
 40
0.9918648831
 40
1.0
 40
1.0
 40
1.0
 40
1.0
 10
14.8827399706
 20
13.383148994
 30
0.0
 10
14.8741856326
 20
13.3554671462
 30
0.0
 10
14.857960081
 20
13.2985922966
 30
0.0
 10
14.8365956849
 20
13.2108034402
 30
0.0
 10
14.8178051851
 20
13.1192021203
 30
0.0
 10
14.8016921288
 20
13.0242881228
 30
0.0
 10
14.7883447045
 20
12.9265770119
 30
0.0
 10
14.777836201
 20
12.8266007758
 30
0.0
 10
14.770224282
 20
12.7249038103
 30
0.0
 10
14.7655507363
 20
12.6220401498
 30
0.0
 10
14.7638412227
 20
12.5185702963
 30
0.0
 10
14.7651051287
 20
12.4150581241
 30
0.0
 10
14.7693355181
 20
12.3120677399
 30
0.0
 10
14.7765091647
 20
12.2101603611
 30
0.0
 10
14.7865866811
 20
12.1098911533
 30
0.0
 10
14.7995127486
 20
12.0118062779
 30
0.0
 10
14.815216447
 20
11.916439316
 30
0.0
 10
14.8336116292
 20
11.8243101196
 30
0.0
 10
14.8512645484
 20
11.7499543631
 30
0.0
 10
14.8666963442
 20
11.6925118359
 30
0.0
 10
14.878765528
 20
11.6509579897
 30
0.0
 10
14.8914237301
 20
11.6105774277
 30
0.0
 10
14.9046538047
 20
11.5714250199
 30
0.0
 10
14.9184376759
 20
11.5335541051
 30
0.0
 10
14.9327565697
 20
11.4970162086
 30
0.0
 10
14.9475909922
 20
11.4618610231
 30
0.0
 10
14.9629207769
 20
11.4281363252
 30
0.0
 10
14.9787251183
 20
11.3958879123
 30
0.0
 10
14.994982611
 20
11.3651595383
 30
0.0
 10
15.0116712938
 20
11.3359928555
 30
0.0
 10
15.0287686975
 20
11.3084273642
 30
0.0
 10
15.0462518964
 20
11.2825003692
 30
0.0
 10
15.0640975638
 20
11.2582469471
 30
0.0
 10
15.0822820295
 20
11.2356999275
 30
0.0
 10
15.1007813362
 20
11.2148898924
 30
0.0
 10
15.1195712899
 20
11.1958451981
 30
0.0
 10
15.1386274934
 20
11.1785920228
 30
0.0
 10
15.157925349
 20
11.1631544384
 30
0.0
 10
15.1774400113
 20
11.1495545
 30
0.0
 10
15.1971462689
 20
11.137812327
 30
0.0
 10
15.2170183483
 20
11.1279461439
 30
0.0
 10
15.2370296453
 20
11.1199722189
 30
0.0
 10
15.2571524446
 20
11.1139046447
 30
0.0
 10
15.2773577002
 20
11.1097549282
 30
0.0
 10
15.2976150955
 20
11.1075314611
 30
0.0
 10
15.3178931133
 20
11.1072388967
 30
0.0
 10
15.3381604298
 20
11.108878021
 30
0.0
 10
15.3583835213
 20
11.1124447556
 30
0.0
 10
15.3716773151
 20
11.1160652621
 30
0.0
 10
15.3782853754
 20
11.1181761202
 30
0.0
  0
SPLINE
  5
339
100
AcDbEntity
  8
LAYER_FEATURE
100
AcDbSpline
 62
7
  6
CONTINUOUS
 70
0
 71
3
 72
11
 73
7
 74
0
 42
0.0000001
 43
0.0000001
 44
0.0000000001
 40
0.0
 40
0.0
 40
0.0
 40
0.0
 40
0.2406438546
 40
0.500255688
 40
0.7597353174
 40
1.0
 40
1.0
 40
1.0
 40
1.0
 10
14.8710150833
 20
13.325538074
 30
0.0
 10
14.870850012
 20
13.3249080592
 30
0.0
 10
14.8706130375
 20
13.3235699118
 30
0.0
 10
14.8704990358
 20
13.3215128145
 30
0.0
 10
14.8706161424
 20
13.319456921
 30
0.0
 10
14.8708552355
 20
13.318120527
 30
0.0
 10
14.8710213896
 20
13.3174918583
 30
0.0
  0
SPLINE
  5
33A
100
AcDbEntity
  8
LAYER_FEATURE
100
AcDbSpline
 62
7
  6
CONTINUOUS
 70
0
 71
3
 72
11
 73
7
 74
0
 42
0.0000001
 43
0.0000001
 44
0.0000000001
 40
0.0
 40
0.0
 40
0.0
 40
0.0
 40
0.2600117089
 40
0.5181029922
 40
0.7670266788
 40
1.0
 40
1.0
 40
1.0
 40
1.0
 10
14.8785550387
 20
13.2721338394
 30
0.0
 10
14.8786740483
 20
13.2743810229
 30
0.0
 10
14.8787494702
 20
13.2788688672
 30
0.0
 10
14.8783927916
 20
13.2855032365
 30
0.0
 10
14.8775793447
 20
13.2918616093
 30
0.0
 10
14.8767151945
 20
13.2959485001
 30
0.0
 10
14.8761999809
 20
13.2978978876
 30
0.0
  0
SPLINE
  5
33B
100
AcDbEntity
  8
02___PRT_ALL_AXES
100
AcDbSpline
 62
7
  6
CONTINUOUS
 70
0
 71
3
 72
40
 73
36
 74
0
 42
0.0000001
 43
0.0000001
 44
0.0000000001
 40
0.0
 40
0.0
 40
0.0
 40
0.0
 40
0.0316445259
 40
0.0618855431
 40
0.0907845444
 40
0.1184220104
 40
0.144899319
 40
0.170340335
 40
0.1948922602
 40
0.2187252812
 40
0.2420305519
 40
0.2650161691
 40
0.2879012094
 40
0.3109083208
 40
0.3342558228
 40
0.358150405
 40
0.3827813333
 40
0.4083166265
 40
0.4214723267
 40
0.4349064698
 40
0.4626619976
 40
0.4916877414
 40
0.5220622495
 40
0.5538452911
 40
0.5870798535
 40
0.6217940527
 40
0.6580028851
 40
0.6957097539
 40
0.7349078342
 40
0.7755812113
 40
0.8177058974
 40
0.8612506789
 40
0.9061778593
 40
0.9524438478
 40
1.0
 40
1.0
 40
1.0
 40
1.0
 10
15.4519607461
 20
11.3611664576
 30
0.0
 10
15.4580545583
 20
11.3538657667
 30
0.0
 10
15.4703487424
 20
11.3398962163
 30
0.0
 10
15.4895527834
 20
11.3204945632
 30
0.0
 10
15.5090637036
 20
11.3031619262
 30
0.0
 10
15.5288492345
 20
11.2879302558
 30
0.0
 10
15.5488775451
 20
11.2748278127
 30
0.0
 10
15.569115901
 20
11.263880523
 30
0.0
 10
15.5895304159
 20
11.2551116901
 30
0.0
 10
15.6100853765
 20
11.2485418
 30
0.0
 10
15.6307427144
 20
11.2441877129
 30
0.0
 10
15.6514619173
 20
11.2420616344
 30
0.0
 10
15.6722005742
 20
11.242169844
 30
0.0
 10
15.6929156252
 20
11.2445120394
 30
0.0
 10
15.7135647564
 20
11.2490812665
 30
0.0
 10
15.7341078553
 20
11.2558649425
 30
0.0
 10
15.7545063975
 20
11.2648453862
 30
0.0
 10
15.7711895669
 20
11.2740511497
 30
0.0
 10
15.7844164438
 20
11.2824494444
 30
0.0
 10
15.7978483209
 20
11.291746518
 30
0.0
 10
15.814493221
 20
11.3047491049
 30
0.0
 10
15.8339751963
 20
11.3222830207
 30
0.0
 10
15.8531484766
 20
11.3418839069
 30
0.0
 10
15.8719807864
 20
11.3635166688
 30
0.0
 10
15.8904412578
 20
11.3871439363
 30
0.0
 10
15.9084989851
 20
11.4127248505
 30
0.0
 10
15.926123532
 20
11.4402153439
 30
0.0
 10
15.9432849546
 20
11.4695680266
 30
0.0
 10
15.9599538917
 20
11.5007322733
 30
0.0
 10
15.9761017039
 20
11.5336542514
 30
0.0
 10
15.9917005221
 20
11.5682770326
 30
0.0
 10
16.0067233472
 20
11.6045406431
 30
0.0
 10
16.0211441368
 20
11.6423822792
 30
0.0
 10
16.0349377525
 20
11.6817360068
 30
0.0
 10
16.0435840136
 20
11.7085762626
 30
0.0
 10
16.047803519
 20
11.7222305872
 30
0.0
  0
SPLINE
  5
33C
100
AcDbEntity
  8
LAYER_FEATURE
100
AcDbSpline
 62
7
  6
CONTINUOUS
 70
0
 71
3
 72
12
 73
8
 74
0
 42
0.0000001
 43
0.0000001
 44
0.0000000001
 40
0.0
 40
0.0
 40
0.0
 40
0.0
 40
0.2480324194
 40
0.510162117
 40
0.7669957937
 40
0.8875570719
 40
1.0
 40
1.0
 40
1.0
 40
1.0
 10
14.8474779935
 20
13.2344148069
 30
0.0
 10
14.847334289
 20
13.2337607983
 30
0.0
 10
14.8471389523
 20
13.2323927183
 30
0.0
 10
14.8470859827
 20
13.230319046
 30
0.0
 10
14.847236376
 20
13.2285942855
 30
0.0
 10
14.8474793973
 20
13.2272935627
 30
0.0
 10
14.8476398163
 20
13.2266844838
 30
0.0
 10
14.8477301196
 20
13.2263946657
 30
0.0
  0
SPLINE
  5
33D
100
AcDbEntity
  8
LAYER_FEATURE
100
AcDbSpline
 62
7
  6
CONTINUOUS
 70
0
 71
3
 72
11
 73
7
 74
0
 42
0.0000001
 43
0.0000001
 44
0.0000000001
 40
0.0
 40
0.0
 40
0.0
 40
0.0
 40
0.2647981783
 40
0.5244387856
 40
0.7716990463
 40
1.0
 40
1.0
 40
1.0
 40
1.0
 10
14.8566263872
 20
13.1826943323
 30
0.0
 10
14.8566760666
 20
13.1849447866
 30
0.0
 10
14.8566164316
 20
13.1894069252
 30
0.0
 10
14.8560610947
 20
13.1959492564
 30
0.0
 10
14.8550591341
 20
13.2021244462
 30
0.0
 10
14.8540687429
 20
13.2060515823
 30
0.0
 10
14.8534914097
 20
13.207904467
 30
0.0
  0
SPLINE
  5
33E
100
AcDbEntity
  8
02___PRT_ALL_AXES
100
AcDbSpline
 62
7
  6
CONTINUOUS
 70
0
 71
3
 72
27
 73
23
 74
0
 42
0.0000001
 43
0.0000001
 44
0.0000000001
 40
0.0
 40
0.0
 40
0.0
 40
0.0
 40
0.0212790545
 40
0.0426518995
 40
0.0642108079
 40
0.0860451154
 40
0.108239981
 40
0.1308753853
 40
0.1540253948
 40
0.177757688
 40
0.2271890426
 40
0.2795994883
 40
0.3352983125
 40
0.3945053796
 40
0.4573632478
 40
0.5239487511
 40
0.5942831623
 40
0.6683407238
 40
0.7460556615
 40
0.8273279117
 40
0.9120278081
 40
1.0
 40
1.0
 40
1.0
 40
1.0
 10
15.6492220384
 20
11.2548049949
 30
0.0
 10
15.6538098237
 20
11.2548049966
 30
0.0
 10
15.6630090507
 20
11.2551378997
 30
0.0
 10
15.6767831721
 20
11.2566343524
 30
0.0
 10
15.6905344502
 20
11.2591267041
 30
0.0
 10
15.7042503613
 20
11.2626124104
 30
0.0
 10
15.7179198445
 20
11.2670880315
 30
0.0
 10
15.7315316521
 20
11.2725492278
 30
0.0
 10
15.7450752906
 20
11.2789911549
 30
0.0
 10
15.7632728919
 20
11.2890149128
 30
0.0
 10
15.785827454
 20
11.3040950474
 30
0.0
 10
15.8120571323
 20
11.325751435
 30
0.0
 10
15.837746609
 20
11.3511373714
 30
0.0
 10
15.8628209524
 20
11.3801691137
 30
0.0
 10
15.887209227
 20
11.4127561228
 30
0.0
 10
15.9108394018
 20
11.4487972293
 30
0.0
 10
15.9336405374
 20
11.4881809393
 30
0.0
 10
15.955542975
 20
11.5307851297
 30
0.0
 10
15.9764790327
 20
11.5764772333
 30
0.0
 10
15.9963835362
 20
11.6251148475
 30
0.0
 10
16.0151939147
 20
11.6765450733
 30
0.0
 10
16.0267546979
 20
11.7119415088
 30
0.0
 10
16.0323546229
 20
11.7300628728
 30
0.0
  0
SPLINE
  5
33F
100
AcDbEntity
  8
LAYER_FEATURE
100
AcDbSpline
 62
7
  6
CONTINUOUS
 70
0
 71
3
 72
12
 73
8
 74
0
 42
0.0000001
 43
0.0000001
 44
0.0000000001
 40
0.0
 40
0.0
 40
0.0
 40
0.0
 40
0.2555361712
 40
0.520189631
 40
0.7743517878
 40
0.8917594654
 40
1.0
 40
1.0
 40
1.0
 40
1.0
 10
14.8267975872
 20
13.1388302448
 30
0.0
 10
14.8266756289
 20
13.1381565954
 30
0.0
 10
14.8265223955
 20
13.1367670699
 30
0.0
 10
14.8265307193
 20
13.1346888512
 30
0.0
 10
14.8267321637
 20
13.1329911659
 30
0.0
 10
14.8270152176
 20
13.1317363211
 30
0.0
 10
14.8271944946
 20
13.1311580101
 30
0.0
 10
14.8272939788
 20
13.1308856247
 30
0.0
  0
SPLINE
  5
340
100
AcDbEntity
  8
LAYER_FEATURE
100
AcDbSpline
 62
7
  6
CONTINUOUS
 70
0
 71
3
 72
12
 73
8
 74
0
 42
0.0000001
 43
0.0000001
 44
0.0000000001
 40
0.0
 40
0.0
 40
0.0
 40
0.0
 40
0.269693163
 40
0.5308777117
 40
0.776392989
 40
0.8912903412
 40
1.0
 40
1.0
 40
1.0
 40
1.0
 10
14.8374980164
 20
13.0891124041
 30
0.0
 10
14.8374789006
 20
13.0913522285
 30
0.0
 10
14.8372862468
 20
13.0957616993
 30
0.0
 10
14.8365357253
 20
13.1021716472
 30
0.0
 10
14.835527887
 20
13.1072424427
 30
0.0
 10
14.8344966404
 20
13.1110011057
 30
0.0
 10
14.8339121949
 20
13.1127651156
 30
0.0
 10
14.8336024474
 20
13.1136131964
 30
0.0
  0
SPLINE
  5
341
100
AcDbEntity
  8
LAYER_FEATURE
100
AcDbSpline
 62
7
  6
CONTINUOUS
 70
0
 71
3
 72
51
 73
47
 74
0
 42
0.0000001
 43
0.0000001
 44
0.0000000001
 40
0.0
 40
0.0
 40
0.0
 40
0.0
 40
0.0377812126
 40
0.0762565976
 40
0.1153062622
 40
0.1548067348
 40
0.1946320385
 40
0.2346543759
 40
0.2747448544
 40
0.3147742024
 40
0.3546134883
 40
0.3941348359
 40
0.4332121553
 40
0.471721874
 40
0.5095437072
 40
0.5465614293
 40
0.5826637217
 40
0.6177450315
 40
0.6517065549
 40
0.6844572717
 40
0.7159151689
 40
0.7460086069
 40
0.7605254549
 40
0.7746799539
 40
0.7884668645
 40
0.8018819705
 40
0.8149221748
 40
0.8275855938
 40
0.839871666
 40
0.8517812762
 40
0.8633169013
 40
0.8744827618
 40
0.8852849859
 40
0.8957317927
 40
0.9058336914
 40
0.9156036877
 40
0.9250574815
 40
0.9342136588
 40
0.9430938597
 40
0.9517229024
 40
0.9601288233
 40
0.9683428218
 40
0.9763990795
 40
0.9843344337
 40
0.9921878914
 40
1.0
 40
1.0
 40
1.0
 40
1.0
 10
14.8118583536
 20
13.0563118552
 30
0.0
 10
14.8074468516
 20
13.0297031158
 30
0.0
 10
14.7992904754
 20
12.9758701464
 30
0.0
 10
14.7891175664
 20
12.8941753363
 30
0.0
 10
14.780920868
 20
12.8110249675
 30
0.0
 10
14.7747317458
 20
12.7267352666
 30
0.0
 10
14.7705738108
 20
12.641625921
 30
0.0
 10
14.7684629162
 20
12.556020023
 30
0.0
 10
14.7684071273
 20
12.4702424928
 30
0.0
 10
14.7704066535
 20
12.3846189321
 30
0.0
 10
14.7744538597
 20
12.2994743453
 30
0.0
 10
14.7805333176
 20
12.2151318955
 30
0.0
 10
14.7886218089
 20
12.1319116578
 30
0.0
 10
14.7986885068
 20
12.050129387
 30
0.0
 10
14.8106949759
 20
11.9700952917
 30
0.0
 10
14.8245954745
 20
11.8921128358
 30
0.0
 10
14.8403369697
 20
11.8164775529
 30
0.0
 10
14.857859546
 20
11.7434758609
 30
0.0
 10
14.8770964536
 20
11.6733840524
 30
0.0
 10
14.8979746797
 20
11.6064666956
 30
0.0
 10
14.9204148078
 20
11.5429773577
 30
0.0
 10
14.9405808407
 20
11.4925358612
 30
0.0
 10
14.9574644505
 20
11.4541276396
 30
0.0
 10
14.9703110788
 20
11.4266704592
 30
0.0
 10
14.983481018
 20
11.4002427102
 30
0.0
 10
14.9969619667
 20
11.3748693118
 30
0.0
 10
15.010741168
 20
11.3505742752
 30
0.0
 10
15.0248056551
 20
11.3273805504
 30
0.0
 10
15.0391422147
 20
11.3053100501
 30
0.0
 10
15.0537374249
 20
11.2843836253
 30
0.0
 10
15.0685776532
 20
11.2646210381
 30
0.0
 10
15.083649083
 20
11.2460409532
 30
0.0
 10
15.0989377444
 20
11.2286609485
 30
0.0
 10
15.1144295306
 20
11.2124975178
 30
0.0
 10
15.1301102067
 20
11.1975660691
 30
0.0
 10
15.1459654053
 20
11.1838809213
 30
0.0
 10
15.1619806465
 20
11.1714553496
 30
0.0
 10
15.1781413153
 20
11.160301607
 30
0.0
 10
15.1944326316
 20
11.1504309452
 30
0.0
 10
15.2108395803
 20
11.1418535853
 30
0.0
 10
15.2273468516
 20
11.1345787334
 30
0.0
 10
15.2439388063
 20
11.1286145332
 30
0.0
 10
15.2605992407
 20
11.123967983
 30
0.0
 10
15.2773119547
 20
11.1206447581
 30
0.0
 10
15.2940585373
 20
11.1186490795
 30
0.0
 10
15.3052471758
 20
11.1182049885
 30
0.0
 10
15.3108242292
 20
11.1182049953
 30
0.0
  0
SPLINE
  5
342
100
AcDbEntity
  8
LAYER_FEATURE
100
AcDbSpline
 62
7
  6
CONTINUOUS
 70
0
 71
3
 72
12
 73
8
 74
0
 42
0.0000001
 43
0.0000001
 44
0.0000000001
 40
0.0
 40
0.0
 40
0.0
 40
0.0
 40
0.1126588397
 40
0.2333812915
 40
0.4903500365
 40
0.7523496477
 40
1.0
 40
1.0
 40
1.0
 40
1.0
 10
14.8972637428
 20
13.4116382406
 30
0.0
 10
14.8971739221
 20
13.4113475805
 30
0.0
 10
14.8970144909
 20
13.4107370283
 30
0.0
 10
14.8967735515
 20
13.4094341709
 30
0.0
 10
14.896625791
 20
13.4077083006
 30
0.0
 10
14.8966818958
 20
13.4056351958
 30
0.0
 10
14.8968793806
 20
13.4042684425
 30
0.0
 10
14.8970241903
 20
13.4036155582
 30
0.0
  0
SPLINE
  5
343
100
AcDbEntity
  8
LAYER_FEATURE
100
AcDbSpline
 62
7
  6
CONTINUOUS
 70
0
 71
3
 72
11
 73
7
 74
0
 42
0.0000001
 43
0.0000001
 44
0.0000000001
 40
0.0
 40
0.0
 40
0.0
 40
0.0
 40
0.2553250409
 40
0.5118768144
 40
0.7624153647
 40
1.0
 40
1.0
 40
1.0
 40
1.0
 10
14.9031487735
 20
13.3568795009
 30
0.0
 10
14.903337231
 20
13.3591094539
 30
0.0
 10
14.9035488749
 20
13.363595581
 30
0.0
 10
14.9033931179
 20
13.370281658
 30
0.0
 10
14.9027733504
 20
13.3767847557
 30
0.0
 10
14.902039075
 20
13.3810056162
 30
0.0
 10
14.9015881551
 20
13.3830386187
 30
0.0
  0
SPLINE
  5
344
100
AcDbEntity
  8
02___PRT_ALL_AXES
100
AcDbSpline
 62
7
  6
CONTINUOUS
 70
0
 71
3
 72
23
 73
19
 74
0
 42
0.0000001
 43
0.0000001
 44
0.0000000001
 40
0.0
 40
0.0
 40
0.0
 40
0.0
 40
0.0836673597
 40
0.1647158092
 40
0.2430358391
 40
0.3185312242
 40
0.3911223981
 40
0.4607479297
 40
0.5273671564
 40
0.590963091
 40
0.6515459029
 40
0.7091570449
 40
0.7638740691
 40
0.815816118
 40
0.8651498898
 40
0.9120956106
 40
0.9569321659
 40
1.0
 40
1.0
 40
1.0
 40
1.0
 10
15.2657981897
 20
13.3157899018
 30
0.0
 10
15.270720378
 20
13.331718109
 30
0.0
 10
15.2808385968
 20
13.3629459855
 30
0.0
 10
15.2971156398
 20
13.4085629865
 30
0.0
 10
15.3142220578
 20
13.452131921
 30
0.0
 10
15.332118884
 20
13.4935534913
 30
0.0
 10
15.3507655443
 20
13.5327338766
 30
0.0
 10
15.3701199486
 20
13.5695844105
 30
0.0
 10
15.3901386362
 20
13.6040218875
 30
0.0
 10
15.4107769828
 20
13.6359686969
 30
0.0
 10
15.4319894232
 20
13.665352935
 30
0.0
 10
15.4537297059
 20
13.6921084388
 30
0.0
 10
15.4759510906
 20
13.7161746913
 30
0.0
 10
15.4986067095
 20
13.7374966518
 30
0.0
 10
15.5216490136
 20
13.7560241686
 30
0.0
 10
15.5450315987
 20
13.7717120786
 30
0.0
 10
15.5687012986
 20
13.7845173956
 30
0.0
 10
15.5849255328
 20
13.791225151
 30
0.0
 10
15.5930294051
 20
13.79404852
 30
0.0
  0
SPLINE
  5
345
100
AcDbEntity
  8
LAYER_FEATURE
100
AcDbSpline
 62
7
  6
CONTINUOUS
 70
0
 71
3
 72
33
 73
29
 74
0
 42
0.0000001
 43
0.0000001
 44
0.0000000001
 40
0.0
 40
0.0
 40
0.0
 40
0.0
 40
0.0879671459
 40
0.1726618066
 40
0.2539292501
 40
0.3316395717
 40
0.4056927413
 40
0.4413287853
 40
0.4760291003
 40
0.5097917931
 40
0.54261788
 40
0.5745115873
 40
0.6054806067
 40
0.6355363735
 40
0.6646944327
 40
0.6929748015
 40
0.7204023031
 40
0.7470069681
 40
0.7728244502
 40
0.8222528704
 40
0.8459837515
 40
0.8691323892
 40
0.8917664495
 40
0.9139599942
 40
0.9357930059
 40
0.957350635
 40
0.9787222096
 40
1.0
 40
1.0
 40
1.0
 40
1.0
 10
14.8533730765
 20
13.4195987665
 30
0.0
 10
14.8598914738
 20
13.4406923079
 30
0.0
 10
14.8733483745
 20
13.4818942179
 30
0.0
 10
14.8952438844
 20
13.5417595917
 30
0.0
 10
14.9184130211
 20
13.5983745591
 30
0.0
 10
14.9427826436
 20
13.6515600377
 30
0.0
 10
14.9642953763
 20
13.6934070118
 30
0.0
 10
14.9820771266
 20
13.7249869322
 30
0.0
 10
14.9954938221
 20
13.7474091874
 30
0.0
 10
15.0091508394
 20
13.7688544956
 30
0.0
 10
15.0230376616
 20
13.7893060544
 30
0.0
 10
15.0371434077
 20
13.8087477611
 30
0.0
 10
15.0514570965
 20
13.8271643339
 30
0.0
 10
15.06596764
 20
13.8445412637
 30
0.0
 10
15.0806637921
 20
13.8608648289
 30
0.0
 10
15.0955342914
 20
13.8761222105
 30
0.0
 10
15.1105673943
 20
13.8903010776
 30
0.0
 10
15.1257527309
 20
13.903390889
 30
0.0
 10
15.1458902929
 20
13.9191459764
 30
0.0
 10
15.1665880946
 20
13.9329844907
 30
0.0
 10
15.1877698008
 20
13.9446519298
 30
0.0
 10
15.2035348665
 20
13.9521504893
 30
0.0
 10
15.2193791576
 20
13.9585073761
 30
0.0
 10
15.2352906205
 20
13.9637170489
 30
0.0
 10
15.2512561116
 20
13.9677744605
 30
0.0
 10
15.267262774
 20
13.9706756017
 30
0.0
 10
15.2832960283
 20
13.9724174719
 30
0.0
 10
15.2940040451
 20
13.9728049899
 30
0.0
 10
15.2993442855
 20
13.9728049847
 30
0.0
  0
SPLINE
  5
346
100
AcDbEntity
  8
LAYER_CUT_FEAT
100
AcDbSpline
 62
7
  6
CONTINUOUS
 70
0
 71
3
 72
33
 73
29
 74
0
 42
0.0000001
 43
0.0000001
 44
0.0000000001
 40
0.0
 40
0.0
 40
0.0
 40
0.0
 40
0.0208352754
 40
0.0428610194
 40
0.06607902
 40
0.0904771751
 40
0.1160318386
 40
0.1427092608
 40
0.1704669853
 40
0.1992549392
 40
0.2290163768
 40
0.259688682
 40
0.2912040718
 40
0.3234902218
 40
0.3564708327
 40
0.3900661518
 40
0.4587630402
 40
0.5288965136
 40
0.599751086
 40
0.6705984031
 40
0.7407102398
 40
0.8093715012
 40
0.8429439595
 40
0.875898486
 40
0.9081554383
 40
0.9396387177
 40
0.9702760311
 40
1.0
 40
1.0
 40
1.0
 40
1.0
 10
15.830028923
 20
12.9566321267
 30
0.0
 10
15.8333103368
 20
12.9523537908
 30
0.0
 10
15.8397644437
 20
12.9433226517
 30
0.0
 10
15.8488791079
 20
12.9288445056
 30
0.0
 10
15.857669233
 20
12.9131025509
 30
0.0
 10
15.8661082769
 20
12.8961445209
 30
0.0
 10
15.8741713166
 20
12.8780208973
 30
0.0
 10
15.8818341349
 20
12.8587860838
 30
0.0
 10
15.889073674
 20
12.8384978809
 30
0.0
 10
15.8958680533
 20
12.8172173987
 30
0.0
 10
15.9021966957
 20
12.7950088306
 30
0.0
 10
15.9080403984
 20
12.7719392573
 30
0.0
 10
15.9133814187
 20
12.748078415
 30
0.0
 10
15.9182034946
 20
12.7234985305
 30
0.0
 10
15.9224920604
 20
12.6982738767
 30
0.0
 10
15.9275181101
 20
12.663627281
 30
0.0
 10
15.9323561227
 20
12.6192521331
 30
0.0
 10
15.9358334179
 20
12.5650838441
 30
0.0
 10
15.9369816712
 20
12.5102594241
 30
0.0
 10
15.9357869215
 20
12.4554415925
 30
0.0
 10
15.9322637022
 20
12.4012929892
 30
0.0
 10
15.9273878361
 20
12.3569428144
 30
0.0
 10
15.9223320358
 20
12.32232266
 30
0.0
 10
15.9180220112
 20
12.2971221689
 30
0.0
 10
15.9131790366
 20
12.2725694525
 30
0.0
 10
15.9078177104
 20
12.2487386416
 30
0.0
 10
15.9019544539
 20
12.2257021463
 30
0.0
 10
15.8976546105
 20
12.2106820733
 30
0.0
 10
15.8954193758
 20
12.2033219228
 30
0.0
  0
SPLINE
  5
347
100
AcDbEntity
  8
02___PRT_ALL_AXES
100
AcDbSpline
 62
7
  6
CONTINUOUS
 70
0
 71
3
 72
16
 73
12
 74
0
 42
0.0000001
 43
0.0000001
 44
0.0000000001
 40
0.0
 40
0.0
 40
0.0
 40
0.0
 40
0.1526259661
 40
0.2972752548
 40
0.433829677
 40
0.5622777423
 40
0.6827403074
 40
0.7400701645
 40
0.7955233459
 40
0.901037458
 40
1.0
 40
1.0
 40
1.0
 40
1.0
 10
15.8698313116
 20
12.1339192703
 30
0.0
 10
15.8669147249
 20
12.1273898518
 30
0.0
 10
15.8609487662
 20
12.1147965509
 30
0.0
 10
15.8513207257
 20
12.0968839725
 30
0.0
 10
15.8412832731
 20
12.0805098145
 30
0.0
 10
15.8308728596
 20
12.0657351089
 30
0.0
 10
15.8217708974
 20
12.0546220438
 30
0.0
 10
15.8143253574
 20
12.0466177643
 30
0.0
 10
15.8070321636
 20
12.0394425778
 30
0.0
 10
15.7977617925
 20
12.0315128908
 30
0.0
 10
15.7898325371
 20
12.0260910374
 30
0.0
 10
15.7858481396
 20
12.0237193635
 30
0.0
  0
SPLINE
  5
348
100
AcDbEntity
  8
LAYER_CUT_FEAT
100
AcDbSpline
 62
7
  6
CONTINUOUS
 70
0
 71
3
 72
15
 73
11
 74
0
 42
0.0000001
 43
0.0000001
 44
0.0000000001
 40
0.0
 40
0.0
 40
0.0
 40
0.0
 40
0.1149124521
 40
0.2308753715
 40
0.3489044341
 40
0.4699501056
 40
0.5948752121
 40
0.7244403208
 40
0.8592999743
 40
1.0
 40
1.0
 40
1.0
 40
1.0
 10
15.5189840139
 20
13.4358049845
 30
0.0
 10
15.5141050058
 20
13.4358049876
 30
0.0
 10
15.5042948282
 20
13.4352914265
 30
0.0
 10
15.4896364104
 20
13.4329860682
 30
0.0
 10
15.4750324097
 20
13.4291506705
 30
0.0
 10
15.4605111319
 20
13.4237947996
 30
0.0
 10
15.4460967502
 20
13.4169307351
 30
0.0
 10
15.4318125574
 20
13.4085726987
 30
0.0
 10
15.4176816848
 20
13.3987374426
 30
0.0
 10
15.4085786235
 20
13.3913701488
 30
0.0
 10
15.4040592972
 20
13.3874633238
 30
0.0
  0
SPLINE
  5
349
100
AcDbEntity
  8
02___PRT_ALL_AXES
100
AcDbSpline
 62
7
  6
CONTINUOUS
 70
0
 71
3
 72
12
 73
8
 74
0
 42
0.0000001
 43
0.0000001
 44
0.0000000001
 40
0.0
 40
0.0
 40
0.0
 40
0.0
 40
0.2506850431
 40
0.5009326171
 40
0.6258861288
 40
0.7507208885
 40
1.0
 40
1.0
 40
1.0
 40
1.0
 10
15.5835110989
 20
12.2205009838
 30
0.0
 10
15.6095933291
 20
12.2194359997
 30
0.0
 10
15.661705033
 20
12.2171266562
 30
0.0
 10
15.7267941242
 20
12.2137930681
 30
0.0
 10
15.7787799147
 20
12.2108486941
 30
0.0
 10
15.830653823
 20
12.2077192576
 30
0.0
 10
15.8695260673
 20
12.2051472078
 30
0.0
 10
15.8954193758
 20
12.2033219228
 30
0.0
  0
SPLINE
  5
34A
100
AcDbEntity
  8
LAYER_CUT_FEAT
100
AcDbSpline
 62
7
  6
CONTINUOUS
 70
0
 71
3
 72
18
 73
14
 74
0
 42
0.0000001
 43
0.0000001
 44
0.0000000001
 40
0.0
 40
0.0
 40
0.0
 40
0.0
 40
0.0416140282
 40
0.0865014966
 40
0.1347211774
 40
0.1862581907
 40
0.2410380694
 40
0.2989374696
 40
0.4233776559
 40
0.5579206357
 40
0.7004785624
 40
0.8486858146
 40
1.0
 40
1.0
 40
1.0
 40
1.0
 10
15.4118107927
 20
11.4151836253
 30
0.0
 10
15.4122585798
 20
11.4156631587
 30
0.0
 10
15.4131376885
 20
11.4167089353
 30
0.0
 10
15.4143608636
 20
11.4184479521
 30
0.0
 10
15.415531974
 20
11.4204069578
 30
0.0
 10
15.4166451134
 20
11.4225759261
 30
0.0
 10
15.4176948792
 20
11.4249440234
 30
0.0
 10
15.4190350463
 20
11.428435462
 30
0.0
 10
15.4204983765
 20
11.4332192388
 30
0.0
 10
15.4218883564
 20
11.4394005841
 30
0.0
 10
15.4229230674
 20
11.4460304356
 30
0.0
 10
15.4235808755
 20
11.4529730405
 30
0.0
 10
15.4237581144
 20
11.457695004
 30
0.0
 10
15.4237813665
 20
11.4600805534
 30
0.0
  0
SPLINE
  5
34B
100
AcDbEntity
  8
02___PRT_ALL_AXES
100
AcDbSpline
 62
7
  6
CONTINUOUS
 70
0
 71
3
 72
9
 73
5
 74
0
 42
0.0000001
 43
0.0000001
 44
0.0000000001
 40
0.0
 40
0.0
 40
0.0
 40
0.0
 40
0.4896670428
 40
1.0
 40
1.0
 40
1.0
 40
1.0
 10
15.6057181156
 20
11.5451542151
 30
0.0
 10
15.6125190328
 20
11.5596796512
 30
0.0
 10
15.6257819052
 20
11.5896395027
 30
0.0
 10
15.6378973916
 20
11.6200793116
 30
0.0
 10
15.6438109157
 20
11.6357139647
 30
0.0
  0
ENDSEC
  0
SECTION
  2
OBJECTS
  0
DICTIONARY
  5
C
100
AcDbDictionary
280
0
281
1
  3
ACAD_GROUP
350
D
  3
ACAD_MLINESTYLE
350
17
  3
ACAD_LAYOUT
350
1A
  3
ACAD_PLOTSETTINGS
350
19
  3
ACAD_PLOTSTYLENAME
350
E
  0
DICTIONARY
  5
D
102
{ACAD_REACTORS
330
C
102
}
100
AcDbDictionary
280
0
281
1
  0
ACDBDICTIONARYWDFLT
  5
E
102
{ACAD_REACTORS
330
C
102
}
100
AcDbDictionary
281
1
  3
Normal
350
F
100
AcDbDictionaryWithDefault
340
F
  0
DICTIONARY
  5
17
102
{ACAD_REACTORS
330
C
102
}
100
AcDbDictionary
280
0
281
1
  3
Standard
350
18
  0
DICTIONARY
  5
19
102
{ACAD_REACTORS
330
C
102
}
100
AcDbDictionary
281
1
  0
DICTIONARY
  5
1A
102
{ACAD_REACTORS
330
C
102
}
100
AcDbDictionary
281
1
  3
Model
350
34C
  3
Layout1
350
34D
  0
ACDBPLACEHOLDER
  5
F
102
{ACAD_REACTORS
330
E
102
}
  0
MLINESTYLE
  5
18
102
{ACAD_REACTORS
330
17
102
}
100
AcDbMlineStyle
  2
STANDARD
 70
0
  3

 62
256
 51
90.0
 52
90.0
 71
2
 49
0.5
 62
256
  6
BYLAYER
 49
-0.5
 62
256
  6
BYLAYER
  0
LAYOUT
  5
34C
102
{ACAD_REACTORS
330
1A
102
}
100
AcDbPlotSettings
  1

  2
none_device
  4
ANSI_C_(22.00_x_17.00_Inches)
  6

 40
0.0
 41
0.0
 42
0.0
 43
0.0
 44
558.8
 45
431.8
 46
0.0
 47
0.0
 48
0.0
 49
0.0
140
0.0
141
0.0
142
1.0
143
1.0
 70
1024
 72
0
 73
0
 74
0
  7

 75
0
147
1.0
148
0.0
149
0.0
100
AcDbLayout
  1
Model
 70
0
 71
0
 10
0.0
 20
0.0
 11
22.0
 21
17.0
 12
0.0
 22
0.0
 32
0.0
 14
0.0
 24
0.0
 34
0.0
 15
0.0
 25
0.0
 35
0.0
146
0.0
 13
0.0
 23
0.0
 33
0.0
 16
1.0
 26
0.0
 36
0.0
 17
0.0
 27
1.0
 37
0.0
 76
0
330
222
345
0
346
0
  0
LAYOUT
  5
34D
102
{ACAD_REACTORS
330
1A
102
}
100
AcDbPlotSettings
  1

  2
none_device
  4
ANSI_C_(22.00_x_17.00_Inches)
  6

 40
0.0
 41
0.0
 42
0.0
 43
0.0
 44
558.8
 45
431.8
 46
0.0
 47
0.0
 48
0.0
 49
0.0
140
0.0
141
0.0
142
1.0
143
1.0
 70
0
 72
0
 73
0
 74
0
  7

 75
0
147
1.0
148
0.0
149
0.0
100
AcDbLayout
  1
Layout1
 70
0
 71
1
 10
0.0
 20
0.0
 11
22.0
 21
17.0
 12
0.0
 22
0.0
 32
0.0
 14
0.0
 24
0.0
 34
0.0
 15
0.0
 25
0.0
 35
0.0
146
0.0
 13
0.0
 23
0.0
 33
0.0
 16
1.0
 26
0.0
 36
0.0
 17
0.0
 27
1.0
 37
0.0
 76
0
330
223
345
0
346
0
  0
ENDSEC
  0
EOF