999
DXF file: _cgs_temp_output.dxf
999
Pro/ENGINEER 2016360 by Parametric Technology Corporation
  0
SECTION
  2
HEADER
  9
$ACADVER
  1
AC1021
  9
$DWGCODEPAGE
  3
ANSI_1252
  9
$EXTMAX
 10
22.0
 20
17.0
 30
0.0
  9
$EXTMIN
 10
0.0
 20
0.0
 30
0.0
  9
$LIMMIN
 10
0.0
 20
0.0
  9
$LIMMAX
 10
22.0
 20
17.0
  9
$VIEWCTR
 10
11.0
 20
8.5
  9
$VIEWSIZE
 40
17.0
  9
$CLAYER
  8
0
  9
$LTSCALE
 40
1.21
  9
$CELTYPE
  6
BYLAYER
  9
$DIMSCALE
 40
1.0
  9
$DIMASZ
 40
0.1875
  9
$DIMEXO
 40
0.0625
  9
$DIMDLI
 40
0.836
  9
$DIMEXE
 40
0.125
  9
$DIMCEN
 40
0.198
  9
$DIMLFAC
 40
1.0
  9
$DIMBLK
  1
_CLOSED
  9
$DIMALT
 70
0
  9
$DIMALTF
 40
25.4
  9
$DIMTXT
 40
0.15625
  9
$DIMTOL
 70
0
  9
$DIMLIM
 70
0
  9
$DIMTFAC
 40
1.0
  9
$DIMGAP
 40
0.09
  9
$DIMDSEP
 70
46
  9
$AUNITS
 70
0
  9
$PDMODE
 70
3
  9
$PDSIZE
 40
0.3125
  9
$HANDSEED
  5
35A
  9
$TILEMODE
 70
1
  9
$MEASUREMENT
 70
0
  9
$INSUNITS
 70
1
  0
ENDSEC
  0
SECTION
  2
CLASSES
  0
CLASS
  1
ACDBDICTIONARYWDFLT
  2
AcDbDictionaryWithDefault
  3
AutoCAD 2000
 90
0
 91
1
280
0
281
0
  0
CLASS
  1
ACDBPLACEHOLDER
  2
AcDbPlaceHolder
  3
AutoCAD 2000
 90
0
 91
1
280
0
281
0
  0
CLASS
  1
LAYOUT
  2
AcDbLayout
  3
AutoCAD 2000
 90
0
 91
0
280
0
281
0
  0
ENDSEC
  0
SECTION
  2
TABLES
  0
TABLE
  2
VPORT
  5
8
100
AcDbSymbolTable
 70
2
  0
VPORT
  5
1F4
100
AcDbSymbolTableRecord
100
AcDbViewportTableRecord
  2
*ACTIVE
 70
0
 10
0.0
 20
0.0
 11
1.0
 21
1.0
 12
11.0
 22
8.5
 13
0.0
 23
0.0
 14
1.0
 24
1.0
 15
0.0
 25
0.0
 16
0.0
 26
0.0
 36
1.0
 17
0.0
 27
0.0
 37
0.0
 40
17.0
 41
1.2941176471
 42
50.0
 43
0.0
 44
0.0
 50
0.0
 51
0.0
 71
0
 72
100
 73
1
 74
1
 75
0
 76
0
 77
0
 78
0
  0
ENDTAB
  0
TABLE
  2
LTYPE
  5
5
100
AcDbSymbolTable
 70
6
  0
LTYPE
  5
14
100
AcDbSymbolTableRecord
100
AcDbLinetypeTableRecord
  2
BYBLOCK
 70
0
  3

 72
65
 73
0
 40
0.0
  0
LTYPE
  5
15
100
AcDbSymbolTableRecord
100
AcDbLinetypeTableRecord
  2
BYLAYER
 70
0
  3

 72
65
 73
0
 40
0.0
  0
LTYPE
  5
16
100
AcDbSymbolTableRecord
100
AcDbLinetypeTableRecord
  2
CONTINUOUS
 70
64
  3
Solid line
 72
65
 73
0
 40
0.0
  0
LTYPE
  5
1F5
100
AcDbSymbolTableRecord
100
AcDbLinetypeTableRecord
  2
CENTER
 70
64
  3
____ _ ____ _ ____ _ ____ _ ____ _ ____ _ ____
 72
65
 73
4
 40
0.6
 49
0.375
 74
0
 49
-0.075
 74
0
 49
0.075
 74
0
 49
-0.075
 74
0
  0
LTYPE
  5
1F6
100
AcDbSymbolTableRecord
100
AcDbLinetypeTableRecord
  2
HIDDEN
 70
64
  3
- - - - - - - - - - - - - - - - - - - -
 72
65
 73
2
 40
0.2
 49
0.1
 74
0
 49
-0.1
 74
0
  0
LTYPE
  5
1F7
100
AcDbSymbolTableRecord
100
AcDbLinetypeTableRecord
  2
PHANTOM
 70
64
  3
_____ _ _ _____ _ _ _____ _ _ _____
 72
65
 73
6
 40
0.8
 49
0.45
 74
0
 49
-0.05
 74
0
 49
0.1
 74
0
 49
-0.05
 74
0
 49
0.1
 74
0
 49
-0.05
 74
0
  0
LTYPE
  5
1F8
100
AcDbSymbolTableRecord
100
AcDbLinetypeTableRecord
  2
DOT
 70
64
  3
. . . . . . . . . . . . . . . . . . . .
 72
65
 73
2
 40
0.2
 49
0.1
 74
0
 49
-0.1
 74
0
  0
LTYPE
  5
1F9
100
AcDbSymbolTableRecord
100
AcDbLinetypeTableRecord
  2
DASHED
 70
64
  3
- - - - - - - - - - - - - - - - - - - -
 72
65
 73
2
 40
0.2
 49
0.1
 74
0
 49
-0.1
 74
0
  0
ENDTAB
  0
TABLE
  2
LAYER
  5
2
100
AcDbSymbolTable
 70
36
  0
LAYER
  5
10
100
AcDbSymbolTableRecord
100
AcDbLayerTableRecord
  2
0
 70
0
 62
7
  6
CONTINUOUS
370
-3
390
F
  0
LAYER
  5
1FA
100
AcDbSymbolTableRecord
100
AcDbLayerTableRecord
  2
DEFAULT_1
 70
0
 62
7
  6
CENTER
370
-3
390
F
  0
LAYER
  5
1FB
100
AcDbSymbolTableRecord
100
AcDbLayerTableRecord
  2
DEFAULT_2
 70
0
 62
8
  6
HIDDEN
370
-3
390
F
  0
LAYER
  5
1FC
100
AcDbSymbolTableRecord
100
AcDbLayerTableRecord
  2
DEFAULT_3
 70
0
 62
7
  6
PHANTOM
370
-3
390
F
  0
LAYER
  5
1FD
100
AcDbSymbolTableRecord
100
AcDbLayerTableRecord
  2
01_ALL_DTM_PLN
 70
0
 62
7
  6
CONTINUOUS
370
-3
390
F
  0
LAYER
  5
1FE
100
AcDbSymbolTableRecord
100
AcDbLayerTableRecord
  2
01__ASM_ALL_DTM_PLN
 70
0
 62
7
  6
CONTINUOUS
370
-3
390
F
  0
LAYER
  5
1FF
100
AcDbSymbolTableRecord
100
AcDbLayerTableRecord
  2
01__ASM_DEF_DTM_PLN
 70
0
 62
7
  6
CONTINUOUS
370
-3
390
F
  0
LAYER
  5
200
100
AcDbSymbolTableRecord
100
AcDbLayerTableRecord
  2
01___PRT_ALL_DTM_PLN
 70
0
 62
7
  6
CONTINUOUS
370
-3
390
F
  0
LAYER
  5
201
100
AcDbSymbolTableRecord
100
AcDbLayerTableRecord
  2
01___PRT_DEF_DTM_PLN
 70
0
 62
7
  6
CONTINUOUS
370
-3
390
F
  0
LAYER
  5
202
100
AcDbSymbolTableRecord
100
AcDbLayerTableRecord
  2
02_ALL_AXES
 70
0
 62
7
  6
CONTINUOUS
370
-3
390
F
  0
LAYER
  5
203
100
AcDbSymbolTableRecord
100
AcDbLayerTableRecord
  2
02__ASM_ALL_AXES
 70
0
 62
7
  6
CONTINUOUS
370
-3
390
F
  0
LAYER
  5
204
100
AcDbSymbolTableRecord
100
AcDbLayerTableRecord
  2
02___PRT_ALL_AXES
 70
0
 62
7
  6
CONTINUOUS
370
-3
390
F
  0
LAYER
  5
205
100
AcDbSymbolTableRecord
100
AcDbLayerTableRecord
  2
03_ALL_CURVES
 70
0
 62
7
  6
CONTINUOUS
370
-3
390
F
  0
LAYER
  5
206
100
AcDbSymbolTableRecord
100
AcDbLayerTableRecord
  2
03__ASM_ALL_CURVES
 70
0
 62
7
  6
CONTINUOUS
370
-3
390
F
  0
LAYER
  5
207
100
AcDbSymbolTableRecord
100
AcDbLayerTableRecord
  2
03___PRT_ALL_CURVES
 70
0
 62
7
  6
CONTINUOUS
370
-3
390
F
  0
LAYER
  5
208
100
AcDbSymbolTableRecord
100
AcDbLayerTableRecord
  2
04_ALL_DTM_PNT
 70
0
 62
7
  6
CONTINUOUS
370
-3
390
F
  0
LAYER
  5
209
100
AcDbSymbolTableRecord
100
AcDbLayerTableRecord
  2
04__ASM_ALL_DTM_PNT
 70
0
 62
7
  6
CONTINUOUS
370
-3
390
F
  0
LAYER
  5
20A
100
AcDbSymbolTableRecord
100
AcDbLayerTableRecord
  2
04___PRT_ALL_DTM_PNT
 70
0
 62
7
  6
CONTINUOUS
370
-3
390
F
  0
LAYER
  5
20B
100
AcDbSymbolTableRecord
100
AcDbLayerTableRecord
  2
05_ALL_DTM_CSYS
 70
0
 62
7
  6
CONTINUOUS
370
-3
390
F
  0
LAYER
  5
20C
100
AcDbSymbolTableRecord
100
AcDbLayerTableRecord
  2
05__ASM_ALL_DTM_CSYS
 70
0
 62
7
  6
CONTINUOUS
370
-3
390
F
  0
LAYER
  5
20D
100
AcDbSymbolTableRecord
100
AcDbLayerTableRecord
  2
05__ASM_DEF_DTM_CSYS
 70
0
 62
7
  6
CONTINUOUS
370
-3
390
F
  0
LAYER
  5
20E
100
AcDbSymbolTableRecord
100
AcDbLayerTableRecord
  2
05___PRT_ALL_DTM_CSYS
 70
0
 62
7
  6
CONTINUOUS
370
-3
390
F
  0
LAYER
  5
20F
100
AcDbSymbolTableRecord
100
AcDbLayerTableRecord
  2
05___PRT_DEF_DTM_CSYS
 70
0
 62
7
  6
CONTINUOUS
370
-3
390
F
  0
LAYER
  5
210
100
AcDbSymbolTableRecord
100
AcDbLayerTableRecord
  2
06_ALL_SURFS
 70
0
 62
7
  6
CONTINUOUS
370
-3
390
F
  0
LAYER
  5
211
100
AcDbSymbolTableRecord
100
AcDbLayerTableRecord
  2
06__ASM_ALL_SURFS
 70
0
 62
7
  6
CONTINUOUS
370
-3
390
F
  0
LAYER
  5
212
100
AcDbSymbolTableRecord
100
AcDbLayerTableRecord
  2
06___PRT_ALL_SURFS
 70
0
 62
7
  6
CONTINUOUS
370
-3
390
F
  0
LAYER
  5
213
100
AcDbSymbolTableRecord
100
AcDbLayerTableRecord
  2
07__ASM_ALL_SKELETONS
 70
0
 62
7
  6
CONTINUOUS
370
-3
390
F
  0
LAYER
  5
214
100
AcDbSymbolTableRecord
100
AcDbLayerTableRecord
  2
LAYER_DIM
 70
0
 62
7
  6
CONTINUOUS
370
-3
390
F
  0
LAYER
  5
215
100
AcDbSymbolTableRecord
100
AcDbLayerTableRecord
  2
LAYER_FEATURE
 70
0
 62
7
  6
CONTINUOUS
370
-3
390
F
  0
LAYER
  5
216
100
AcDbSymbolTableRecord
100
AcDbLayerTableRecord
  2
LAYER_GEOM_FEAT
 70
0
 62
7
  6
CONTINUOUS
370
-3
390
F
  0
LAYER
  5
217
100
AcDbSymbolTableRecord
100
AcDbLayerTableRecord
  2
LAYER_PARAMETER_DIM
 70
0
 62
7
  6
CONTINUOUS
370
-3
390
F
  0
LAYER
  5
218
100
AcDbSymbolTableRecord
100
AcDbLayerTableRecord
  2
LAYER_PROTRUSION_FEAT
 70
0
 62
7
  6
CONTINUOUS
370
-3
390
F
  0
LAYER
  5
219
100
AcDbSymbolTableRecord
100
AcDbLayerTableRecord
  2
LAYER_ROUND_FEAT
 70
0
 62
7
  6
CONTINUOUS
370
-3
390
F
  0
ENDTAB
  0
TABLE
  2
STYLE
  5
3
100
AcDbSymbolTable
 70
1
  0
STYLE
  5
11
100
AcDbSymbolTableRecord
100
AcDbTextStyleTableRecord
  2
STANDARD
 70
0
 40
0.0
 41
0.8
 50
0.0
 71
0
 42
0.2
  3
txt
  4

  0
STYLE
  5
21A
100
AcDbSymbolTableRecord
100
AcDbTextStyleTableRecord
  2
TEXTSTYLE_1
 70
0
 40
0.0
 41
0.8
 50
0.0
 71
0
 42
0.2
  3
gdt
  4

  0
ENDTAB
  0
TABLE
  2
VIEW
  5
6
100
AcDbSymbolTable
 70
0
  0
ENDTAB
  0
TABLE
  2
UCS
  5
7
100
AcDbSymbolTable
 70
0
  0
ENDTAB
  0
TABLE
  2
APPID
  5
9
100
AcDbSymbolTable
 70
1
  0
APPID
  5
21B
100
AcDbSymbolTableRecord
100
AcDbRegAppTableRecord
  2
ACAD
 70
0
  0
ENDTAB
  0
TABLE
  2
BLOCK_RECORD
  5
1
100
AcDbSymbolTable
 70
0
  0
BLOCK_RECORD
  5
21C
100
AcDbSymbolTableRecord
100
AcDbBlockTableRecord
  2
*Model_Space
  0
BLOCK_RECORD
  5
21D
100
AcDbSymbolTableRecord
100
AcDbBlockTableRecord
  2
*Paper_Space
  0
ENDTAB
  0
TABLE
  2
DIMSTYLE
  5
A
100
AcDbSymbolTable
 70
1
100
AcDbDimStyleTable
 71
0
  0
DIMSTYLE
105
21E
100
AcDbSymbolTableRecord
100
AcDbDimStyleTableRecord
  2
STANDARD
 70
0
  3

  4

 40
1.0
 41
0.1875
 42
0.0625
 43
0.38
 44
0.125
 45
0.0
 46
0.0
 47
0.0001
 48
0.0001
140
0.15625
141
0.09
142
0.0
143
25.4
144
1.0
145
0.0
146
1.0
147
0.09
 71
0.0
 72
0.0
 73
1
 74
1
 75
0
 76
0
 77
0
 78
4
 79
1
170
0
171
3
172
0
173
0
174
0
175
0
176
0
177
0
178
0
270
2
179
4
271
4
272
4
273
2
274
2
275
0
280
0
281
0
282
0
283
1
284
4
285
0
286
0
287
3
288
0
340
11
278
46
  0
ENDTAB
  0
ENDSEC
  0
SECTION
  2
BLOCKS
  0
BLOCK
  5
20
100
AcDbEntity
  8
0
100
AcDbBlockBegin
  2
*Model_Space
 70
0
 10
0.0
 20
0.0
 30
0.0
  3
*Model_Space
  1

  0
ENDBLK
  5
21
100
AcDbEntity
  8
0
100
AcDbBlockEnd
  0
BLOCK
  5
1C
100
AcDbEntity
  8
0
100
AcDbBlockBegin
  2
*Paper_Space
 70
0
 10
0.0
 20
0.0
 30
0.0
  3
*Paper_Space
  1

  0
ENDBLK
  5
1D
100
AcDbEntity
  8
0
100
AcDbBlockEnd
  0
ENDSEC
  0
SECTION
  2
ENTITIES
  0
MTEXT
  5
21F
100
AcDbEntity
  8
0
100
AcDbMText
 62
7
  6
CONTINUOUS
  7
STANDARD
 71
1
 72
1
 10
15.9560215477
 20
0.9479130325
 30
0.0
 11
1.0
 21
0.0
 31
0.0
 44
0.9
  1
SCALE: 1:0.500
 40
0.3
 41
3.36
  0
LINE
  5
220
100
AcDbEntity
  8
0
100
AcDbLine
 62
7
  6
CONTINUOUS
 10
0.0
 20
0.0
 11
0.0
 21
17.0
  0
LINE
  5
221
100
AcDbEntity
  8
0
100
AcDbLine
 62
7
  6
CONTINUOUS
 10
0.0
 20
0.0
 11
22.0
 21
0.0
  0
LINE
  5
222
100
AcDbEntity
  8
0
100
AcDbLine
 62
7
  6
CONTINUOUS
 10
0.0
 20
17.0
 11
22.0
 21
17.0
  0
LINE
  5
223
100
AcDbEntity
  8
0
100
AcDbLine
 62
7
  6
CONTINUOUS
 10
22.0
 20
0.0
 11
22.0
 21
17.0
  0
LINE
  5
224
100
AcDbEntity
  8
0
100
AcDbLine
 62
7
  6
CONTINUOUS
 10
3.3403672762
 20
5.6376198968
 11
3.3403672762
 21
5.6001198968
  0
LINE
  5
225
100
AcDbEntity
  8
0
100
AcDbLine
 62
7
  6
CONTINUOUS
 10
3.3403672762
 20
5.6001198968
 11
3.3992913274
 21
5.4048967776
  0
LINE
  5
226
100
AcDbEntity
  8
0
100
AcDbLine
 62
7
  6
CONTINUOUS
 10
3.6703672762
 20
5.6001198968
 11
3.6703672762
 21
5.6226198968
  0
LINE
  5
227
100
AcDbEntity
  8
LAYER_FEATURE
100
AcDbLine
 62
7
  6
CONTINUOUS
 10
3.7153672762
 20
5.6226198968
 11
3.7153672762
 21
5.6001198968
  0
LINE
  5
228
100
AcDbEntity
  8
0
100
AcDbLine
 62
7
  6
CONTINUOUS
 10
3.611443225
 20
5.4048967776
 11
3.6703672762
 21
5.6001198968
  0
LINE
  5
229
100
AcDbEntity
  8
LAYER_FEATURE
100
AcDbLine
 62
7
  6
CONTINUOUS
 10
3.7153672762
 20
5.6001198968
 11
3.7742913274
 21
5.4048967776
  0
LINE
  5
22A
100
AcDbEntity
  8
LAYER_FEATURE
100
AcDbLine
 62
7
  6
CONTINUOUS
 10
4.0453672762
 20
5.6001198968
 11
4.0453672762
 21
5.6226198968
  0
LINE
  5
22B
100
AcDbEntity
  8
LAYER_FEATURE
100
AcDbLine
 62
7
  6
CONTINUOUS
 10
4.0903672762
 20
5.6226198968
 11
4.0903672762
 21
5.6001198968
  0
LINE
  5
22C
100
AcDbEntity
  8
LAYER_FEATURE
100
AcDbLine
 62
7
  6
CONTINUOUS
 10
3.986443225
 20
5.4048967776
 11
4.0453672762
 21
5.6001198968
  0
LINE
  5
22D
100
AcDbEntity
  8
LAYER_FEATURE
100
AcDbLine
 62
7
  6
CONTINUOUS
 10
4.0903672762
 20
5.6001198968
 11
4.1492913274
 21
5.4048967776
  0
LINE
  5
22E
100
AcDbEntity
  8
LAYER_FEATURE
100
AcDbLine
 62
7
  6
CONTINUOUS
 10
4.4203672762
 20
5.6001198968
 11
4.4203672762
 21
5.6226198968
  0
LINE
  5
22F
100
AcDbEntity
  8
LAYER_FEATURE
100
AcDbLine
 62
7
  6
CONTINUOUS
 10
4.4653672762
 20
5.6226198968
 11
4.4653672762
 21
5.6001198968
  0
LINE
  5
230
100
AcDbEntity
  8
LAYER_FEATURE
100
AcDbLine
 62
7
  6
CONTINUOUS
 10
4.361443225
 20
5.4048967776
 11
4.4203672762
 21
5.6001198968
  0
LINE
  5
231
100
AcDbEntity
  8
LAYER_FEATURE
100
AcDbLine
 62
7
  6
CONTINUOUS
 10
4.4653672762
 20
5.6001198968
 11
4.5242913274
 21
5.4048967776
  0
LINE
  5
232
100
AcDbEntity
  8
LAYER_FEATURE
100
AcDbLine
 62
7
  6
CONTINUOUS
 10
4.7953672762
 20
5.6001198968
 11
4.7953672762
 21
5.6226198968
  0
LINE
  5
233
100
AcDbEntity
  8
LAYER_FEATURE
100
AcDbLine
 62
7
  6
CONTINUOUS
 10
4.8403672762
 20
5.6226198968
 11
4.8403672762
 21
5.6001198968
  0
LINE
  5
234
100
AcDbEntity
  8
LAYER_FEATURE
100
AcDbLine
 62
7
  6
CONTINUOUS
 10
4.736443225
 20
5.4048967776
 11
4.7953672762
 21
5.6001198968
  0
LINE
  5
235
100
AcDbEntity
  8
LAYER_FEATURE
100
AcDbLine
 62
7
  6
CONTINUOUS
 10
4.8403672762
 20
5.6001198968
 11
4.8992913274
 21
5.4048967776
  0
LINE
  5
236
100
AcDbEntity
  8
LAYER_FEATURE
100
AcDbLine
 62
7
  6
CONTINUOUS
 10
5.1703672762
 20
5.6001198968
 11
5.1703672762
 21
5.6226198968
  0
LINE
  5
237
100
AcDbEntity
  8
LAYER_FEATURE
100
AcDbLine
 62
7
  6
CONTINUOUS
 10
5.2153672762
 20
5.6226198968
 11
5.2153672762
 21
5.6001198968
  0
LINE
  5
238
100
AcDbEntity
  8
LAYER_FEATURE
100
AcDbLine
 62
7
  6
CONTINUOUS
 10
5.111443225
 20
5.4048967776
 11
5.1703672762
 21
5.6001198968
  0
LINE
  5
239
100
AcDbEntity
  8
LAYER_FEATURE
100
AcDbLine
 62
7
  6
CONTINUOUS
 10
5.2153672762
 20
5.6001198968
 11
5.2742913274
 21
5.4048967776
  0
LINE
  5
23A
100
AcDbEntity
  8
LAYER_FEATURE
100
AcDbLine
 62
7
  6
CONTINUOUS
 10
5.5453672762
 20
5.6001198968
 11
5.5453672762
 21
5.6226198968
  0
LINE
  5
23B
100
AcDbEntity
  8
LAYER_FEATURE
100
AcDbLine
 62
7
  6
CONTINUOUS
 10
5.5903672762
 20
5.6226198968
 11
5.5903672762
 21
5.6001198968
  0
LINE
  5
23C
100
AcDbEntity
  8
LAYER_FEATURE
100
AcDbLine
 62
7
  6
CONTINUOUS
 10
5.486443225
 20
5.4048967776
 11
5.5453672762
 21
5.6001198968
  0
LINE
  5
23D
100
AcDbEntity
  8
LAYER_FEATURE
100
AcDbLine
 62
7
  6
CONTINUOUS
 10
5.5903672762
 20
5.6001198968
 11
5.6492913274
 21
5.4048967776
  0
LINE
  5
23E
100
AcDbEntity
  8
LAYER_FEATURE
100
AcDbLine
 62
7
  6
CONTINUOUS
 10
5.9203672762
 20
5.6001198968
 11
5.9203672762
 21
5.6226198968
  0
LINE
  5
23F
100
AcDbEntity
  8
LAYER_FEATURE
100
AcDbLine
 62
7
  6
CONTINUOUS
 10
5.9653672762
 20
5.6226198968
 11
5.9653672762
 21
5.6001198968
  0
LINE
  5
240
100
AcDbEntity
  8
LAYER_FEATURE
100
AcDbLine
 62
7
  6
CONTINUOUS
 10
5.861443225
 20
5.4048967776
 11
5.9203672762
 21
5.6001198968
  0
LINE
  5
241
100
AcDbEntity
  8
0
100
AcDbLine
 62
7
  6
CONTINUOUS
 10
3.4124547929
 20
5.3951198968
 11
3.5982797595
 21
5.3951198968
  0
LINE
  5
242
100
AcDbEntity
  8
LAYER_FEATURE
100
AcDbLine
 62
7
  6
CONTINUOUS
 10
3.7874547929
 20
5.3951198968
 11
3.9732797595
 21
5.3951198968
  0
LINE
  5
243
100
AcDbEntity
  8
LAYER_FEATURE
100
AcDbLine
 62
7
  6
CONTINUOUS
 10
4.1624547929
 20
5.3951198968
 11
4.3482797595
 21
5.3951198968
  0
LINE
  5
244
100
AcDbEntity
  8
LAYER_FEATURE
100
AcDbLine
 62
7
  6
CONTINUOUS
 10
4.5374547929
 20
5.3951198968
 11
4.7232797595
 21
5.3951198968
  0
LINE
  5
245
100
AcDbEntity
  8
LAYER_FEATURE
100
AcDbLine
 62
7
  6
CONTINUOUS
 10
4.9124547929
 20
5.3951198968
 11
5.0982797595
 21
5.3951198968
  0
LINE
  5
246
100
AcDbEntity
  8
LAYER_FEATURE
100
AcDbLine
 62
7
  6
CONTINUOUS
 10
5.2874547929
 20
5.3951198968
 11
5.4732797595
 21
5.3951198968
  0
LINE
  5
247
100
AcDbEntity
  8
LAYER_FEATURE
100
AcDbLine
 62
7
  6
CONTINUOUS
 10
5.6624547929
 20
5.3951198968
 11
5.8482797595
 21
5.3951198968
  0
LINE
  5
248
100
AcDbEntity
  8
LAYER_FEATURE
100
AcDbLine
 62
7
  6
CONTINUOUS
 10
6.0374547929
 20
5.3951198968
 11
6.2232797595
 21
5.3951198968
  0
LINE
  5
249
100
AcDbEntity
  8
LAYER_FEATURE
100
AcDbLine
 62
7
  6
CONTINUOUS
 10
6.4124547929
 20
5.3951198968
 11
6.5982797595
 21
5.3951198968
  0
LINE
  5
24A
100
AcDbEntity
  8
LAYER_FEATURE
100
AcDbLine
 62
7
  6
CONTINUOUS
 10
6.7874547929
 20
5.3951198968
 11
6.9732797595
 21
5.3951198968
  0
LINE
  5
24B
100
AcDbEntity
  8
LAYER_FEATURE
100
AcDbLine
 62
7
  6
CONTINUOUS
 10
7.1624547929
 20
5.3951198968
 11
7.3482797595
 21
5.3951198968
  0
LINE
  5
24C
100
AcDbEntity
  8
LAYER_FEATURE
100
AcDbLine
 62
7
  6
CONTINUOUS
 10
7.5374547929
 20
5.3951198968
 11
7.7232797595
 21
5.3951198968
  0
LINE
  5
24D
100
AcDbEntity
  8
LAYER_FEATURE
100
AcDbLine
 62
7
  6
CONTINUOUS
 10
7.9124547929
 20
5.3951198968
 11
8.0982797595
 21
5.3951198968
  0
LINE
  5
24E
100
AcDbEntity
  8
LAYER_FEATURE
100
AcDbLine
 62
7
  6
CONTINUOUS
 10
8.2874547929
 20
5.3951198968
 11
8.4732797595
 21
5.3951198968
  0
LINE
  5
24F
100
AcDbEntity
  8
LAYER_FEATURE
100
AcDbLine
 62
7
  6
CONTINUOUS
 10
8.6624547929
 20
5.3951198968
 11
8.8482797595
 21
5.3951198968
  0
LINE
  5
250
100
AcDbEntity
  8
LAYER_FEATURE
100
AcDbLine
 62
7
  6
CONTINUOUS
 10
5.9653672762
 20
5.6001198968
 11
6.0242913274
 21
5.4048967776
  0
LINE
  5
251
100
AcDbEntity
  8
LAYER_FEATURE
100
AcDbLine
 62
7
  6
CONTINUOUS
 10
6.2953672762
 20
5.6001198968
 11
6.2953672762
 21
5.6226198968
  0
LINE
  5
252
100
AcDbEntity
  8
LAYER_FEATURE
100
AcDbLine
 62
7
  6
CONTINUOUS
 10
6.3403672762
 20
5.6226198968
 11
6.3403672762
 21
5.6001198968
  0
LINE
  5
253
100
AcDbEntity
  8
LAYER_FEATURE
100
AcDbLine
 62
7
  6
CONTINUOUS
 10
6.236443225
 20
5.4048967776
 11
6.2953672762
 21
5.6001198968
  0
LINE
  5
254
100
AcDbEntity
  8
LAYER_FEATURE
100
AcDbLine
 62
7
  6
CONTINUOUS
 10
3.6703672762
 20
5.6226198968
 11
3.7153672762
 21
5.6226198968
  0
LINE
  5
255
100
AcDbEntity
  8
LAYER_FEATURE
100
AcDbLine
 62
7
  6
CONTINUOUS
 10
4.0453672762
 20
5.6226198968
 11
4.0903672762
 21
5.6226198968
  0
LINE
  5
256
100
AcDbEntity
  8
LAYER_FEATURE
100
AcDbLine
 62
7
  6
CONTINUOUS
 10
4.4203672762
 20
5.6226198968
 11
4.4653672762
 21
5.6226198968
  0
LINE
  5
257
100
AcDbEntity
  8
LAYER_FEATURE
100
AcDbLine
 62
7
  6
CONTINUOUS
 10
4.7953672762
 20
5.6226198968
 11
4.8403672762
 21
5.6226198968
  0
LINE
  5
258
100
AcDbEntity
  8
LAYER_FEATURE
100
AcDbLine
 62
7
  6
CONTINUOUS
 10
5.1703672762
 20
5.6226198968
 11
5.2153672762
 21
5.6226198968
  0
LINE
  5
259
100
AcDbEntity
  8
LAYER_FEATURE
100
AcDbLine
 62
7
  6
CONTINUOUS
 10
5.5453672762
 20
5.6226198968
 11
5.5903672762
 21
5.6226198968
  0
LINE
  5
25A
100
AcDbEntity
  8
LAYER_FEATURE
100
AcDbLine
 62
7
  6
CONTINUOUS
 10
5.9203672762
 20
5.6226198968
 11
5.9653672762
 21
5.6226198968
  0
LINE
  5
25B
100
AcDbEntity
  8
LAYER_FEATURE
100
AcDbLine
 62
7
  6
CONTINUOUS
 10
6.2953672762
 20
5.6226198968
 11
6.3403672762
 21
5.6226198968
  0
LINE
  5
25C
100
AcDbEntity
  8
LAYER_FEATURE
100
AcDbLine
 62
7
  6
CONTINUOUS
 10
6.6703672762
 20
5.6226198968
 11
6.7153672762
 21
5.6226198968
  0
LINE
  5
25D
100
AcDbEntity
  8
LAYER_FEATURE
100
AcDbLine
 62
7
  6
CONTINUOUS
 10
7.0453672762
 20
5.6226198968
 11
7.0903672762
 21
5.6226198968
  0
LINE
  5
25E
100
AcDbEntity
  8
LAYER_FEATURE
100
AcDbLine
 62
7
  6
CONTINUOUS
 10
7.4203672762
 20
5.6226198968
 11
7.4653672762
 21
5.6226198968
  0
LINE
  5
25F
100
AcDbEntity
  8
LAYER_FEATURE
100
AcDbLine
 62
7
  6
CONTINUOUS
 10
7.7953672762
 20
5.6226198968
 11
7.8403672762
 21
5.6226198968
  0
LINE
  5
260
100
AcDbEntity
  8
LAYER_FEATURE
100
AcDbLine
 62
7
  6
CONTINUOUS
 10
8.1703672762
 20
5.6226198968
 11
8.2153672762
 21
5.6226198968
  0
LINE
  5
261
100
AcDbEntity
  8
LAYER_FEATURE
100
AcDbLine
 62
7
  6
CONTINUOUS
 10
8.5453672762
 20
5.6226198968
 11
8.5903672762
 21
5.6226198968
  0
LINE
  5
262
100
AcDbEntity
  8
0
100
AcDbLine
 62
7
  6
CONTINUOUS
 10
8.9128672762
 20
5.6451198968
 11
3.3478672762
 21
5.6451198968
  0
LINE
  5
263
100
AcDbEntity
  8
LAYER_FEATURE
100
AcDbLine
 62
7
  6
CONTINUOUS
 10
6.3403672762
 20
5.6001198968
 11
6.3992913274
 21
5.4048967776
  0
LINE
  5
264
100
AcDbEntity
  8
LAYER_FEATURE
100
AcDbLine
 62
7
  6
CONTINUOUS
 10
6.6703672762
 20
5.6001198968
 11
6.6703672762
 21
5.6226198968
  0
LINE
  5
265
100
AcDbEntity
  8
LAYER_FEATURE
100
AcDbLine
 62
7
  6
CONTINUOUS
 10
6.611443225
 20
5.4048967776
 11
6.6703672762
 21
5.6001198968
  0
LINE
  5
266
100
AcDbEntity
  8
LAYER_FEATURE
100
AcDbLine
 62
7
  6
CONTINUOUS
 10
6.7153672762
 20
5.6001198968
 11
6.7742913274
 21
5.4048967776
  0
LINE
  5
267
100
AcDbEntity
  8
LAYER_FEATURE
100
AcDbLine
 62
7
  6
CONTINUOUS
 10
6.7153672762
 20
5.6226198968
 11
6.7153672762
 21
5.6001198968
  0
LINE
  5
268
100
AcDbEntity
  8
LAYER_FEATURE
100
AcDbLine
 62
7
  6
CONTINUOUS
 10
7.0453672762
 20
5.6001198968
 11
7.0453672762
 21
5.6226198968
  0
LINE
  5
269
100
AcDbEntity
  8
LAYER_FEATURE
100
AcDbLine
 62
7
  6
CONTINUOUS
 10
6.986443225
 20
5.4048967776
 11
7.0453672762
 21
5.6001198968
  0
LINE
  5
26A
100
AcDbEntity
  8
LAYER_FEATURE
100
AcDbLine
 62
7
  6
CONTINUOUS
 10
7.0903672762
 20
5.6001198968
 11
7.1492913274
 21
5.4048967776
  0
LINE
  5
26B
100
AcDbEntity
  8
LAYER_FEATURE
100
AcDbLine
 62
7
  6
CONTINUOUS
 10
7.0903672762
 20
5.6226198968
 11
7.0903672762
 21
5.6001198968
  0
LINE
  5
26C
100
AcDbEntity
  8
LAYER_FEATURE
100
AcDbLine
 62
7
  6
CONTINUOUS
 10
7.4203672762
 20
5.6001198968
 11
7.4203672762
 21
5.6226198968
  0
LINE
  5
26D
100
AcDbEntity
  8
LAYER_FEATURE
100
AcDbLine
 62
7
  6
CONTINUOUS
 10
7.361443225
 20
5.4048967776
 11
7.4203672762
 21
5.6001198968
  0
LINE
  5
26E
100
AcDbEntity
  8
LAYER_FEATURE
100
AcDbLine
 62
7
  6
CONTINUOUS
 10
7.4653672762
 20
5.6001198968
 11
7.5242913274
 21
5.4048967776
  0
LINE
  5
26F
100
AcDbEntity
  8
LAYER_FEATURE
100
AcDbLine
 62
7
  6
CONTINUOUS
 10
7.4653672762
 20
5.6226198968
 11
7.4653672762
 21
5.6001198968
  0
LINE
  5
270
100
AcDbEntity
  8
LAYER_FEATURE
100
AcDbLine
 62
7
  6
CONTINUOUS
 10
7.7953672762
 20
5.6001198968
 11
7.7953672762
 21
5.6226198968
  0
LINE
  5
271
100
AcDbEntity
  8
LAYER_FEATURE
100
AcDbLine
 62
7
  6
CONTINUOUS
 10
7.736443225
 20
5.4048967776
 11
7.7953672762
 21
5.6001198968
  0
LINE
  5
272
100
AcDbEntity
  8
LAYER_FEATURE
100
AcDbLine
 62
7
  6
CONTINUOUS
 10
7.8403672762
 20
5.6001198968
 11
7.8992913274
 21
5.4048967776
  0
LINE
  5
273
100
AcDbEntity
  8
LAYER_FEATURE
100
AcDbLine
 62
7
  6
CONTINUOUS
 10
7.8403672762
 20
5.6226198968
 11
7.8403672762
 21
5.6001198968
  0
LINE
  5
274
100
AcDbEntity
  8
LAYER_FEATURE
100
AcDbLine
 62
7
  6
CONTINUOUS
 10
8.1703672762
 20
5.6001198968
 11
8.1703672762
 21
5.6226198968
  0
LINE
  5
275
100
AcDbEntity
  8
LAYER_FEATURE
100
AcDbLine
 62
7
  6
CONTINUOUS
 10
8.111443225
 20
5.4048967776
 11
8.1703672762
 21
5.6001198968
  0
LINE
  5
276
100
AcDbEntity
  8
LAYER_FEATURE
100
AcDbLine
 62
7
  6
CONTINUOUS
 10
8.2153672762
 20
5.6001198968
 11
8.2742913274
 21
5.4048967776
  0
LINE
  5
277
100
AcDbEntity
  8
LAYER_FEATURE
100
AcDbLine
 62
7
  6
CONTINUOUS
 10
8.2153672762
 20
5.6226198968
 11
8.2153672762
 21
5.6001198968
  0
LINE
  5
278
100
AcDbEntity
  8
LAYER_FEATURE
100
AcDbLine
 62
7
  6
CONTINUOUS
 10
8.5453672762
 20
5.6001198968
 11
8.5453672762
 21
5.6226198968
  0
LINE
  5
279
100
AcDbEntity
  8
LAYER_FEATURE
100
AcDbLine
 62
7
  6
CONTINUOUS
 10
8.486443225
 20
5.4048967776
 11
8.5453672762
 21
5.6001198968
  0
LINE
  5
27A
100
AcDbEntity
  8
LAYER_FEATURE
100
AcDbLine
 62
7
  6
CONTINUOUS
 10
8.5903672762
 20
5.6001198968
 11
8.6492913274
 21
5.4048967776
  0
LINE
  5
27B
100
AcDbEntity
  8
LAYER_FEATURE
100
AcDbLine
 62
7
  6
CONTINUOUS
 10
8.5903672762
 20
5.6226198968
 11
8.5903672762
 21
5.6001198968
  0
LINE
  5
27C
100
AcDbEntity
  8
0
100
AcDbLine
 62
7
  6
CONTINUOUS
 10
8.9203672762
 20
5.6001198968
 11
8.9203672762
 21
5.6376198968
  0
LINE
  5
27D
100
AcDbEntity
  8
LAYER_FEATURE
100
AcDbLine
 62
7
  6
CONTINUOUS
 10
8.861443225
 20
5.4048967776
 11
8.9203672762
 21
5.6001198968
  0
LINE
  5
27E
100
AcDbEntity
  8
0
100
AcDbLine
 62
7
  6
CONTINUOUS
 10
3.2808720839
 20
13.6000477814
 11
3.2808720839
 21
11.6000477814
  0
LINE
  5
27F
100
AcDbEntity
  8
0
100
AcDbLine
 62
7
  6
CONTINUOUS
 10
8.8608720839
 20
11.6000477814
 11
3.2808720839
 21
11.6000477814
  0
LINE
  5
280
100
AcDbEntity
  8
0
100
AcDbLine
 62
7
  6
CONTINUOUS
 10
3.2808720839
 20
13.6000477814
 11
8.8608720839
 21
13.6000477814
  0
LINE
  5
281
100
AcDbEntity
  8
0
100
AcDbLine
 62
7
  6
CONTINUOUS
 10
8.8608720839
 20
11.6000477814
 11
8.8608720839
 21
13.6000477814
  0
LINE
  5
282
100
AcDbEntity
  8
LAYER_FEATURE
100
AcDbLine
 62
7
  6
CONTINUOUS
 10
14.5603552569
 20
5.3356247044
 11
14.5603552569
 21
5.5406247044
  0
LINE
  5
283
100
AcDbEntity
  8
0
100
AcDbLine
 62
7
  6
CONTINUOUS
 10
14.5603552569
 20
5.5406247044
 11
14.5603552569
 21
5.5856247044
  0
LINE
  5
284
100
AcDbEntity
  8
LAYER_FEATURE
100
AcDbLine
 62
7
  6
CONTINUOUS
 10
14.5603552569
 20
5.3356247044
 11
16.5603552569
 21
5.3356247044
  0
LINE
  5
285
100
AcDbEntity
  8
LAYER_FEATURE
100
AcDbLine
 62
7
  6
CONTINUOUS
 10
16.5603552569
 20
5.5406247044
 11
14.5603552569
 21
5.5406247044
  0
LINE
  5
286
100
AcDbEntity
  8
0
100
AcDbLine
 62
7
  6
CONTINUOUS
 10
14.5603552569
 20
5.5856247044
 11
16.5603552569
 21
5.5856247044
  0
LINE
  5
287
100
AcDbEntity
  8
0
100
AcDbLine
 62
7
  6
CONTINUOUS
 10
16.5603552569
 20
5.5856247044
 11
16.5603552569
 21
5.5406247044
  0
LINE
  5
288
100
AcDbEntity
  8
LAYER_FEATURE
100
AcDbLine
 62
7
  6
CONTINUOUS
 10
16.5603552569
 20
5.3356247044
 11
16.5603552569
 21
5.5406247044
  0
LINE
  5
289
100
AcDbEntity
  8
0
100
AcDbLine
 62
7
  6
CONTINUOUS
 10
12.6510341652
 20
11.8005172546
 11
12.6624732352
 21
11.7772068807
  0
LINE
  5
28A
100
AcDbEntity
  8
0
100
AcDbLine
 62
7
  6
CONTINUOUS
 10
12.6507772748
 20
11.8027313624
 11
12.6510341652
 21
11.8005172546
  0
LINE
  5
28B
100
AcDbEntity
  8
0
100
AcDbLine
 62
7
  6
CONTINUOUS
 10
12.9717019427
 20
11.6558542438
 11
12.9664233632
 21
11.7772068807
  0
LINE
  5
28C
100
AcDbEntity
  8
0
100
AcDbLine
 62
7
  6
CONTINUOUS
 10
12.6624732352
 20
11.7772068807
 11
12.776297105
 21
11.6558542438
  0
LINE
  5
28D
100
AcDbEntity
  8
0
100
AcDbLine
 62
7
  6
CONTINUOUS
 10
12.9664233632
 20
11.7772068807
 11
12.9595599212
 21
11.791193105
  0
LINE
  5
28E
100
AcDbEntity
  8
LAYER_FEATURE
100
AcDbLine
 62
7
  6
CONTINUOUS
 10
13.0010076659
 20
11.791193105
 11
13.0078711079
 21
11.7772068807
  0
LINE
  5
28F
100
AcDbEntity
  8
0
100
AcDbLine
 62
7
  6
CONTINUOUS
 10
12.9715026536
 20
11.654264324
 11
12.9717019427
 21
11.6558542438
  0
LINE
  5
290
100
AcDbEntity
  8
0
100
AcDbLine
 62
7
  6
CONTINUOUS
 10
13.1349091131
 20
13.3693854291
 11
12.6507764663
 21
11.8027316098
  0
LINE
  5
291
100
AcDbEntity
  8
LAYER_FEATURE
100
AcDbLine
 62
7
  6
CONTINUOUS
 10
13.3170998155
 20
11.6558542438
 11
13.311821236
 21
11.7772068807
  0
LINE
  5
292
100
AcDbEntity
  8
0
100
AcDbLine
 62
7
  6
CONTINUOUS
 10
12.9707454334
 20
11.791193105
 11
12.9664233632
 21
11.7772068807
  0
LINE
  5
293
100
AcDbEntity
  8
LAYER_FEATURE
100
AcDbLine
 62
7
  6
CONTINUOUS
 10
13.0078711079
 20
11.7772068807
 11
13.1216949778
 21
11.6558542438
  0
LINE
  5
294
100
AcDbEntity
  8
LAYER_FEATURE
100
AcDbLine
 62
7
  6
CONTINUOUS
 10
13.311821236
 20
11.7772068807
 11
13.304957794
 21
11.791193105
  0
LINE
  5
295
100
AcDbEntity
  8
LAYER_FEATURE
100
AcDbLine
 62
7
  6
CONTINUOUS
 10
13.3464055387
 20
11.791193105
 11
13.3532689807
 21
11.7772068807
  0
LINE
  5
296
100
AcDbEntity
  8
LAYER_FEATURE
100
AcDbLine
 62
7
  6
CONTINUOUS
 10
13.3169005264
 20
11.654264324
 11
13.3170998155
 21
11.6558542438
  0
LINE
  5
297
100
AcDbEntity
  8
0
100
AcDbLine
 62
7
  6
CONTINUOUS
 10
12.971502657
 20
11.654264323
 11
13.0090924074
 21
11.7759047997
  0
LINE
  5
298
100
AcDbEntity
  8
LAYER_FEATURE
100
AcDbLine
 62
7
  6
CONTINUOUS
 10
13.3532689807
 20
11.7772068807
 11
13.4670928505
 21
11.6558542438
  0
LINE
  5
299
100
AcDbEntity
  8
LAYER_FEATURE
100
AcDbLine
 62
7
  6
CONTINUOUS
 10
13.6572191087
 20
11.7772068807
 11
13.6503556667
 21
11.791193105
  0
LINE
  5
29A
100
AcDbEntity
  8
LAYER_FEATURE
100
AcDbLine
 62
7
  6
CONTINUOUS
 10
13.6624976882
 20
11.6558542438
 11
13.6572191087
 21
11.7772068807
  0
LINE
  5
29B
100
AcDbEntity
  8
LAYER_FEATURE
100
AcDbLine
 62
7
  6
CONTINUOUS
 10
13.3161433062
 20
11.791193105
 11
13.311821236
 21
11.7772068807
  0
LINE
  5
29C
100
AcDbEntity
  8
LAYER_FEATURE
100
AcDbLine
 62
7
  6
CONTINUOUS
 10
13.3169005298
 20
11.654264323
 11
13.3544902801
 21
11.7759047997
  0
LINE
  5
29D
100
AcDbEntity
  8
LAYER_FEATURE
100
AcDbLine
 62
7
  6
CONTINUOUS
 10
13.6986668534
 20
11.7772068807
 11
13.8124907233
 21
11.6558542438
  0
LINE
  5
29E
100
AcDbEntity
  8
LAYER_FEATURE
100
AcDbLine
 62
7
  6
CONTINUOUS
 10
13.6918034114
 20
11.791193105
 11
13.6986668534
 21
11.7772068807
  0
LINE
  5
29F
100
AcDbEntity
  8
LAYER_FEATURE
100
AcDbLine
 62
7
  6
CONTINUOUS
 10
13.6622983991
 20
11.654264324
 11
13.6624976882
 21
11.6558542438
  0
LINE
  5
2A0
100
AcDbEntity
  8
LAYER_FEATURE
100
AcDbLine
 62
7
  6
CONTINUOUS
 10
14.0026169815
 20
11.7772068807
 11
13.9957535395
 21
11.791193105
  0
LINE
  5
2A1
100
AcDbEntity
  8
LAYER_FEATURE
100
AcDbLine
 62
7
  6
CONTINUOUS
 10
14.0372012842
 20
11.791193105
 11
14.0440647262
 21
11.7772068807
  0
LINE
  5
2A2
100
AcDbEntity
  8
LAYER_FEATURE
100
AcDbLine
 62
7
  6
CONTINUOUS
 10
14.007895561
 20
11.6558542438
 11
14.0026169815
 21
11.7772068807
  0
LINE
  5
2A3
100
AcDbEntity
  8
LAYER_FEATURE
100
AcDbLine
 62
7
  6
CONTINUOUS
 10
13.6615411789
 20
11.791193105
 11
13.6572191087
 21
11.7772068807
  0
LINE
  5
2A4
100
AcDbEntity
  8
LAYER_FEATURE
100
AcDbLine
 62
7
  6
CONTINUOUS
 10
13.6622984025
 20
11.654264323
 11
13.6998881529
 21
11.7759047997
  0
LINE
  5
2A5
100
AcDbEntity
  8
LAYER_FEATURE
100
AcDbLine
 62
7
  6
CONTINUOUS
 10
14.0440647262
 20
11.7772068807
 11
14.157888596
 21
11.6558542438
  0
LINE
  5
2A6
100
AcDbEntity
  8
LAYER_FEATURE
100
AcDbLine
 62
7
  6
CONTINUOUS
 10
14.3532934337
 20
11.6558542438
 11
14.3480148542
 21
11.7772068807
  0
LINE
  5
2A7
100
AcDbEntity
  8
LAYER_FEATURE
100
AcDbLine
 62
7
  6
CONTINUOUS
 10
14.0076962719
 20
11.654264324
 11
14.007895561
 21
11.6558542438
  0
LINE
  5
2A8
100
AcDbEntity
  8
LAYER_FEATURE
100
AcDbLine
 62
7
  6
CONTINUOUS
 10
14.0069390517
 20
11.791193105
 11
14.0026169815
 21
11.7772068807
  0
LINE
  5
2A9
100
AcDbEntity
  8
LAYER_FEATURE
100
AcDbLine
 62
7
  6
CONTINUOUS
 10
14.3894625989
 20
11.7772068807
 11
14.5032864688
 21
11.6558542438
  0
LINE
  5
2AA
100
AcDbEntity
  8
LAYER_FEATURE
100
AcDbLine
 62
7
  6
CONTINUOUS
 10
14.3480148542
 20
11.7772068807
 11
14.3411514122
 21
11.791193105
  0
LINE
  5
2AB
100
AcDbEntity
  8
LAYER_FEATURE
100
AcDbLine
 62
7
  6
CONTINUOUS
 10
14.3825991569
 20
11.791193105
 11
14.3894625989
 21
11.7772068807
  0
LINE
  5
2AC
100
AcDbEntity
  8
LAYER_FEATURE
100
AcDbLine
 62
7
  6
CONTINUOUS
 10
14.3530941446
 20
11.654264324
 11
14.3532934337
 21
11.6558542438
  0
LINE
  5
2AD
100
AcDbEntity
  8
LAYER_FEATURE
100
AcDbLine
 62
7
  6
CONTINUOUS
 10
14.0076962753
 20
11.654264323
 11
14.0452860256
 21
11.7759047997
  0
LINE
  5
2AE
100
AcDbEntity
  8
LAYER_FEATURE
100
AcDbLine
 62
7
  6
CONTINUOUS
 10
14.7348604717
 20
11.7772068807
 11
14.8486843415
 21
11.6558542438
  0
LINE
  5
2AF
100
AcDbEntity
  8
LAYER_FEATURE
100
AcDbLine
 62
7
  6
CONTINUOUS
 10
14.693412727
 20
11.7772068807
 11
14.686549285
 21
11.791193105
  0
LINE
  5
2B0
100
AcDbEntity
  8
LAYER_FEATURE
100
AcDbLine
 62
7
  6
CONTINUOUS
 10
14.7279970297
 20
11.791193105
 11
14.7348604717
 21
11.7772068807
  0
LINE
  5
2B1
100
AcDbEntity
  8
LAYER_FEATURE
100
AcDbLine
 62
7
  6
CONTINUOUS
 10
14.6986913065
 20
11.6558542438
 11
14.693412727
 21
11.7772068807
  0
LINE
  5
2B2
100
AcDbEntity
  8
LAYER_FEATURE
100
AcDbLine
 62
7
  6
CONTINUOUS
 10
14.3523369244
 20
11.791193105
 11
14.3480148542
 21
11.7772068807
  0
LINE
  5
2B3
100
AcDbEntity
  8
LAYER_FEATURE
100
AcDbLine
 62
7
  6
CONTINUOUS
 10
14.353094148
 20
11.654264323
 11
14.3906838984
 21
11.7759047997
  0
LINE
  5
2B4
100
AcDbEntity
  8
0
100
AcDbLine
 62
7
  6
CONTINUOUS
 10
12.7914038176
 20
11.6497768372
 11
12.9625599461
 21
11.6497768372
  0
LINE
  5
2B5
100
AcDbEntity
  8
LAYER_FEATURE
100
AcDbLine
 62
7
  6
CONTINUOUS
 10
13.1368016904
 20
11.6497768372
 11
13.3079578188
 21
11.6497768372
  0
LINE
  5
2B6
100
AcDbEntity
  8
LAYER_FEATURE
100
AcDbLine
 62
7
  6
CONTINUOUS
 10
13.4821995631
 20
11.6497768372
 11
13.6533556916
 21
11.6497768372
  0
LINE
  5
2B7
100
AcDbEntity
  8
LAYER_FEATURE
100
AcDbLine
 62
7
  6
CONTINUOUS
 10
13.8275974359
 20
11.6497768372
 11
13.9987535643
 21
11.6497768372
  0
LINE
  5
2B8
100
AcDbEntity
  8
LAYER_FEATURE
100
AcDbLine
 62
7
  6
CONTINUOUS
 10
14.1729953086
 20
11.6497768372
 11
14.3441514371
 21
11.6497768372
  0
LINE
  5
2B9
100
AcDbEntity
  8
LAYER_FEATURE
100
AcDbLine
 62
7
  6
CONTINUOUS
 10
14.5183931814
 20
11.6497768372
 11
14.6895493098
 21
11.6497768372
  0
LINE
  5
2BA
100
AcDbEntity
  8
LAYER_FEATURE
100
AcDbLine
 62
7
  6
CONTINUOUS
 10
14.8637910541
 20
11.6497768372
 11
15.0349471826
 21
11.6497768372
  0
LINE
  5
2BB
100
AcDbEntity
  8
LAYER_FEATURE
100
AcDbLine
 62
7
  6
CONTINUOUS
 10
15.2091889269
 20
11.6497768372
 11
15.3803450553
 21
11.6497768372
  0
LINE
  5
2BC
100
AcDbEntity
  8
LAYER_FEATURE
100
AcDbLine
 62
7
  6
CONTINUOUS
 10
15.5545867997
 20
11.6497768372
 11
15.7257429281
 21
11.6497768372
  0
LINE
  5
2BD
100
AcDbEntity
  8
LAYER_FEATURE
100
AcDbLine
 62
7
  6
CONTINUOUS
 10
15.8999846724
 20
11.6497768372
 11
16.0711408008
 21
11.6497768372
  0
LINE
  5
2BE
100
AcDbEntity
  8
LAYER_FEATURE
100
AcDbLine
 62
7
  6
CONTINUOUS
 10
16.2453825452
 20
11.6497768372
 11
16.4165386736
 21
11.6497768372
  0
LINE
  5
2BF
100
AcDbEntity
  8
LAYER_FEATURE
100
AcDbLine
 62
7
  6
CONTINUOUS
 10
16.5907804179
 20
11.6497768372
 11
16.7619365463
 21
11.6497768372
  0
LINE
  5
2C0
100
AcDbEntity
  8
LAYER_FEATURE
100
AcDbLine
 62
7
  6
CONTINUOUS
 10
16.9361782907
 20
11.6497768372
 11
17.1073344191
 21
11.6497768372
  0
LINE
  5
2C1
100
AcDbEntity
  8
LAYER_FEATURE
100
AcDbLine
 62
7
  6
CONTINUOUS
 10
17.2815761634
 20
11.6497768372
 11
17.4527322918
 21
11.6497768372
  0
LINE
  5
2C2
100
AcDbEntity
  8
LAYER_FEATURE
100
AcDbLine
 62
7
  6
CONTINUOUS
 10
17.6269740362
 20
11.6497768372
 11
17.7981301646
 21
11.6497768372
  0
LINE
  5
2C3
100
AcDbEntity
  8
LAYER_FEATURE
100
AcDbLine
 62
7
  6
CONTINUOUS
 10
15.0802583444
 20
11.7772068807
 11
15.1940822143
 21
11.6558542438
  0
LINE
  5
2C4
100
AcDbEntity
  8
LAYER_FEATURE
100
AcDbLine
 62
7
  6
CONTINUOUS
 10
14.6984920174
 20
11.654264324
 11
14.6986913065
 21
11.6558542438
  0
LINE
  5
2C5
100
AcDbEntity
  8
LAYER_FEATURE
100
AcDbLine
 62
7
  6
CONTINUOUS
 10
12.9595599212
 20
11.791193105
 11
13.0010076659
 21
11.791193105
  0
LINE
  5
2C6
100
AcDbEntity
  8
LAYER_FEATURE
100
AcDbLine
 62
7
  6
CONTINUOUS
 10
13.304957794
 20
11.791193105
 11
13.3464055387
 21
11.791193105
  0
LINE
  5
2C7
100
AcDbEntity
  8
LAYER_FEATURE
100
AcDbLine
 62
7
  6
CONTINUOUS
 10
13.6503556667
 20
11.791193105
 11
13.6918034114
 21
11.791193105
  0
LINE
  5
2C8
100
AcDbEntity
  8
LAYER_FEATURE
100
AcDbLine
 62
7
  6
CONTINUOUS
 10
13.9957535395
 20
11.791193105
 11
14.0372012842
 21
11.791193105
  0
LINE
  5
2C9
100
AcDbEntity
  8
LAYER_FEATURE
100
AcDbLine
 62
7
  6
CONTINUOUS
 10
14.3411514122
 20
11.791193105
 11
14.3825991569
 21
11.791193105
  0
LINE
  5
2CA
100
AcDbEntity
  8
LAYER_FEATURE
100
AcDbLine
 62
7
  6
CONTINUOUS
 10
14.686549285
 20
11.791193105
 11
14.7279970297
 21
11.791193105
  0
LINE
  5
2CB
100
AcDbEntity
  8
LAYER_FEATURE
100
AcDbLine
 62
7
  6
CONTINUOUS
 10
15.0319471577
 20
11.791193105
 11
15.0733949024
 21
11.791193105
  0
LINE
  5
2CC
100
AcDbEntity
  8
LAYER_FEATURE
100
AcDbLine
 62
7
  6
CONTINUOUS
 10
15.3773450305
 20
11.791193105
 11
15.4187927752
 21
11.791193105
  0
LINE
  5
2CD
100
AcDbEntity
  8
LAYER_FEATURE
100
AcDbLine
 62
7
  6
CONTINUOUS
 10
15.7227429032
 20
11.791193105
 11
15.7641906479
 21
11.791193105
  0
LINE
  5
2CE
100
AcDbEntity
  8
LAYER_FEATURE
100
AcDbLine
 62
7
  6
CONTINUOUS
 10
16.068140776
 20
11.791193105
 11
16.1095885207
 21
11.791193105
  0
LINE
  5
2CF
100
AcDbEntity
  8
LAYER_FEATURE
100
AcDbLine
 62
7
  6
CONTINUOUS
 10
16.4135386487
 20
11.791193105
 11
16.4549863934
 21
11.791193105
  0
LINE
  5
2D0
100
AcDbEntity
  8
LAYER_FEATURE
100
AcDbLine
 62
7
  6
CONTINUOUS
 10
16.7589365215
 20
11.791193105
 11
16.8003842662
 21
11.791193105
  0
LINE
  5
2D1
100
AcDbEntity
  8
LAYER_FEATURE
100
AcDbLine
 62
7
  6
CONTINUOUS
 10
17.1043343942
 20
11.791193105
 11
17.1457821389
 21
11.791193105
  0
LINE
  5
2D2
100
AcDbEntity
  8
LAYER_FEATURE
100
AcDbLine
 62
7
  6
CONTINUOUS
 10
17.449732267
 20
11.791193105
 11
17.4911800117
 21
11.791193105
  0
LINE
  5
2D3
100
AcDbEntity
  8
0
100
AcDbLine
 62
7
  6
CONTINUOUS
 10
17.7813587403
 20
11.8051793293
 11
12.6556543086
 21
11.8051793293
  0
LINE
  5
2D4
100
AcDbEntity
  8
LAYER_FEATURE
100
AcDbLine
 62
7
  6
CONTINUOUS
 10
15.0388105997
 20
11.7772068807
 11
15.0319471577
 21
11.791193105
  0
LINE
  5
2D5
100
AcDbEntity
  8
LAYER_FEATURE
100
AcDbLine
 62
7
  6
CONTINUOUS
 10
15.0733949024
 20
11.791193105
 11
15.0802583444
 21
11.7772068807
  0
LINE
  5
2D6
100
AcDbEntity
  8
LAYER_FEATURE
100
AcDbLine
 62
7
  6
CONTINUOUS
 10
15.0440891792
 20
11.6558542438
 11
15.0388105997
 21
11.7772068807
  0
LINE
  5
2D7
100
AcDbEntity
  8
LAYER_FEATURE
100
AcDbLine
 62
7
  6
CONTINUOUS
 10
14.6977347972
 20
11.791193105
 11
14.693412727
 21
11.7772068807
  0
LINE
  5
2D8
100
AcDbEntity
  8
LAYER_FEATURE
100
AcDbLine
 62
7
  6
CONTINUOUS
 10
14.6984920208
 20
11.654264323
 11
14.7360817711
 21
11.7759047997
  0
LINE
  5
2D9
100
AcDbEntity
  8
LAYER_FEATURE
100
AcDbLine
 62
7
  6
CONTINUOUS
 10
15.4256562172
 20
11.7772068807
 11
15.539480087
 21
11.6558542438
  0
LINE
  5
2DA
100
AcDbEntity
  8
LAYER_FEATURE
100
AcDbLine
 62
7
  6
CONTINUOUS
 10
15.3842084725
 20
11.7772068807
 11
15.3773450305
 21
11.791193105
  0
LINE
  5
2DB
100
AcDbEntity
  8
LAYER_FEATURE
100
AcDbLine
 62
7
  6
CONTINUOUS
 10
15.0438898901
 20
11.654264324
 11
15.0440891792
 21
11.6558542438
  0
LINE
  5
2DC
100
AcDbEntity
  8
LAYER_FEATURE
100
AcDbLine
 62
7
  6
CONTINUOUS
 10
15.0431326699
 20
11.791193105
 11
15.0388105997
 21
11.7772068807
  0
LINE
  5
2DD
100
AcDbEntity
  8
LAYER_FEATURE
100
AcDbLine
 62
7
  6
CONTINUOUS
 10
15.7710540899
 20
11.7772068807
 11
15.8848779598
 21
11.6558542438
  0
LINE
  5
2DE
100
AcDbEntity
  8
LAYER_FEATURE
100
AcDbLine
 62
7
  6
CONTINUOUS
 10
15.4187927752
 20
11.791193105
 11
15.4256562172
 21
11.7772068807
  0
LINE
  5
2DF
100
AcDbEntity
  8
LAYER_FEATURE
100
AcDbLine
 62
7
  6
CONTINUOUS
 10
15.389487052
 20
11.6558542438
 11
15.3842084725
 21
11.7772068807
  0
LINE
  5
2E0
100
AcDbEntity
  8
LAYER_FEATURE
100
AcDbLine
 62
7
  6
CONTINUOUS
 10
15.3892885401
 20
11.6542640843
 11
15.389487052
 21
11.6558542438
  0
LINE
  5
2E1
100
AcDbEntity
  8
LAYER_FEATURE
100
AcDbLine
 62
7
  6
CONTINUOUS
 10
15.0438898935
 20
11.654264323
 11
15.0814796439
 21
11.7759047997
  0
LINE
  5
2E2
100
AcDbEntity
  8
LAYER_FEATURE
100
AcDbLine
 62
7
  6
CONTINUOUS
 10
16.1164519627
 20
11.7772068807
 11
16.2302758326
 21
11.6558542438
  0
LINE
  5
2E3
100
AcDbEntity
  8
LAYER_FEATURE
100
AcDbLine
 62
7
  6
CONTINUOUS
 10
15.7296063452
 20
11.7772068807
 11
15.7227429032
 21
11.791193105
  0
LINE
  5
2E4
100
AcDbEntity
  8
LAYER_FEATURE
100
AcDbLine
 62
7
  6
CONTINUOUS
 10
15.7641906479
 20
11.791193105
 11
15.7710540899
 21
11.7772068807
  0
LINE
  5
2E5
100
AcDbEntity
  8
LAYER_FEATURE
100
AcDbLine
 62
7
  6
CONTINUOUS
 10
15.3885305427
 20
11.791193105
 11
15.3842084725
 21
11.7772068807
  0
LINE
  5
2E6
100
AcDbEntity
  8
LAYER_FEATURE
100
AcDbLine
 62
7
  6
CONTINUOUS
 10
15.3892877663
 20
11.654264323
 11
15.4268775166
 21
11.7759047997
  0
LINE
  5
2E7
100
AcDbEntity
  8
LAYER_FEATURE
100
AcDbLine
 62
7
  6
CONTINUOUS
 10
16.4618498354
 20
11.7772068807
 11
16.5756737053
 21
11.6558542438
  0
LINE
  5
2E8
100
AcDbEntity
  8
LAYER_FEATURE
100
AcDbLine
 62
7
  6
CONTINUOUS
 10
16.075004218
 20
11.7772068807
 11
16.068140776
 21
11.791193105
  0
LINE
  5
2E9
100
AcDbEntity
  8
LAYER_FEATURE
100
AcDbLine
 62
7
  6
CONTINUOUS
 10
15.7348849247
 20
11.6558542438
 11
15.7296063452
 21
11.7772068807
  0
LINE
  5
2EA
100
AcDbEntity
  8
LAYER_FEATURE
100
AcDbLine
 62
7
  6
CONTINUOUS
 10
15.7346856356
 20
11.654264324
 11
15.7348849247
 21
11.6558542438
  0
LINE
  5
2EB
100
AcDbEntity
  8
LAYER_FEATURE
100
AcDbLine
 62
7
  6
CONTINUOUS
 10
16.1095885207
 20
11.791193105
 11
16.1164519627
 21
11.7772068807
  0
LINE
  5
2EC
100
AcDbEntity
  8
LAYER_FEATURE
100
AcDbLine
 62
7
  6
CONTINUOUS
 10
16.0802827975
 20
11.6558542438
 11
16.075004218
 21
11.7772068807
  0
LINE
  5
2ED
100
AcDbEntity
  8
LAYER_FEATURE
100
AcDbLine
 62
7
  6
CONTINUOUS
 10
15.7339284154
 20
11.791193105
 11
15.7296063452
 21
11.7772068807
  0
LINE
  5
2EE
100
AcDbEntity
  8
LAYER_FEATURE
100
AcDbLine
 62
7
  6
CONTINUOUS
 10
15.734685639
 20
11.654264323
 11
15.7722753894
 21
11.7759047997
  0
LINE
  5
2EF
100
AcDbEntity
  8
LAYER_FEATURE
100
AcDbLine
 62
7
  6
CONTINUOUS
 10
16.8072477082
 20
11.7772068807
 11
16.9210715781
 21
11.6558542438
  0
LINE
  5
2F0
100
AcDbEntity
  8
LAYER_FEATURE
100
AcDbLine
 62
7
  6
CONTINUOUS
 10
16.4204020907
 20
11.7772068807
 11
16.4135386487
 21
11.791193105
  0
LINE
  5
2F1
100
AcDbEntity
  8
LAYER_FEATURE
100
AcDbLine
 62
7
  6
CONTINUOUS
 10
16.4549863934
 20
11.791193105
 11
16.4618498354
 21
11.7772068807
  0
LINE
  5
2F2
100
AcDbEntity
  8
LAYER_FEATURE
100
AcDbLine
 62
7
  6
CONTINUOUS
 10
16.0800835084
 20
11.654264324
 11
16.0802827975
 21
11.6558542438
  0
LINE
  5
2F3
100
AcDbEntity
  8
LAYER_FEATURE
100
AcDbLine
 62
7
  6
CONTINUOUS
 10
16.0793262882
 20
11.791193105
 11
16.075004218
 21
11.7772068807
  0
LINE
  5
2F4
100
AcDbEntity
  8
LAYER_FEATURE
100
AcDbLine
 62
7
  6
CONTINUOUS
 10
17.1526455809
 20
11.7772068807
 11
17.2664694508
 21
11.6558542438
  0
LINE
  5
2F5
100
AcDbEntity
  8
LAYER_FEATURE
100
AcDbLine
 62
7
  6
CONTINUOUS
 10
16.4256806702
 20
11.6558542438
 11
16.4204020907
 21
11.7772068807
  0
LINE
  5
2F6
100
AcDbEntity
  8
LAYER_FEATURE
100
AcDbLine
 62
7
  6
CONTINUOUS
 10
16.0800835118
 20
11.654264323
 11
16.1176732621
 21
11.7759047997
  0
LINE
  5
2F7
100
AcDbEntity
  8
0
100
AcDbLine
 62
7
  6
CONTINUOUS
 10
13.1397869555
 20
13.3718331486
 11
18.2654913871
 21
13.3718331486
  0
LINE
  5
2F8
100
AcDbEntity
  8
LAYER_FEATURE
100
AcDbLine
 62
7
  6
CONTINUOUS
 10
17.4980434537
 20
11.7772068807
 11
17.6118673236
 21
11.6558542438
  0
LINE
  5
2F9
100
AcDbEntity
  8
LAYER_FEATURE
100
AcDbLine
 62
7
  6
CONTINUOUS
 10
16.7657999635
 20
11.7772068807
 11
16.7589365215
 21
11.791193105
  0
LINE
  5
2FA
100
AcDbEntity
  8
LAYER_FEATURE
100
AcDbLine
 62
7
  6
CONTINUOUS
 10
16.8003842662
 20
11.791193105
 11
16.8072477082
 21
11.7772068807
  0
LINE
  5
2FB
100
AcDbEntity
  8
LAYER_FEATURE
100
AcDbLine
 62
7
  6
CONTINUOUS
 10
16.4254813811
 20
11.654264324
 11
16.4256806702
 21
11.6558542438
  0
LINE
  5
2FC
100
AcDbEntity
  8
LAYER_FEATURE
100
AcDbLine
 62
7
  6
CONTINUOUS
 10
16.4247241609
 20
11.791193105
 11
16.4204020907
 21
11.7772068807
  0
LINE
  5
2FD
100
AcDbEntity
  8
LAYER_FEATURE
100
AcDbLine
 62
7
  6
CONTINUOUS
 10
16.4254813845
 20
11.654264323
 11
16.4630711349
 21
11.7759047997
  0
LINE
  5
2FE
100
AcDbEntity
  8
LAYER_FEATURE
100
AcDbLine
 62
7
  6
CONTINUOUS
 10
17.1111978362
 20
11.7772068807
 11
17.1043343942
 21
11.791193105
  0
LINE
  5
2FF
100
AcDbEntity
  8
LAYER_FEATURE
100
AcDbLine
 62
7
  6
CONTINUOUS
 10
17.1457821389
 20
11.791193105
 11
17.1526455809
 21
11.7772068807
  0
LINE
  5
300
100
AcDbEntity
  8
LAYER_FEATURE
100
AcDbLine
 62
7
  6
CONTINUOUS
 10
16.771078543
 20
11.6558542438
 11
16.7657999635
 21
11.7772068807
  0
LINE
  5
301
100
AcDbEntity
  8
LAYER_FEATURE
100
AcDbLine
 62
7
  6
CONTINUOUS
 10
16.7708792539
 20
11.654264324
 11
16.771078543
 21
11.6558542438
  0
LINE
  5
302
100
AcDbEntity
  8
LAYER_FEATURE
100
AcDbLine
 62
7
  6
CONTINUOUS
 10
16.7701220337
 20
11.791193105
 11
16.7657999635
 21
11.7772068807
  0
LINE
  5
303
100
AcDbEntity
  8
LAYER_FEATURE
100
AcDbLine
 62
7
  6
CONTINUOUS
 10
16.7708792573
 20
11.654264323
 11
16.8084690076
 21
11.7759047997
  0
LINE
  5
304
100
AcDbEntity
  8
LAYER_FEATURE
100
AcDbLine
 62
7
  6
CONTINUOUS
 10
17.456595709
 20
11.7772068807
 11
17.449732267
 21
11.791193105
  0
LINE
  5
305
100
AcDbEntity
  8
LAYER_FEATURE
100
AcDbLine
 62
7
  6
CONTINUOUS
 10
17.4911800117
 20
11.791193105
 11
17.4980434537
 21
11.7772068807
  0
LINE
  5
306
100
AcDbEntity
  8
LAYER_FEATURE
100
AcDbLine
 62
7
  6
CONTINUOUS
 10
17.1164764157
 20
11.6558542438
 11
17.1111978362
 21
11.7772068807
  0
LINE
  5
307
100
AcDbEntity
  8
LAYER_FEATURE
100
AcDbLine
 62
7
  6
CONTINUOUS
 10
17.1162771266
 20
11.654264324
 11
17.1164764157
 21
11.6558542438
  0
LINE
  5
308
100
AcDbEntity
  8
LAYER_FEATURE
100
AcDbLine
 62
7
  6
CONTINUOUS
 10
17.1155199064
 20
11.791193105
 11
17.1111978362
 21
11.7772068807
  0
LINE
  5
309
100
AcDbEntity
  8
0
100
AcDbLine
 62
7
  6
CONTINUOUS
 10
17.8019935817
 20
11.7772068807
 11
17.7905545117
 21
11.8005172546
  0
LINE
  5
30A
100
AcDbEntity
  8
LAYER_FEATURE
100
AcDbLine
 62
7
  6
CONTINUOUS
 10
17.4618742885
 20
11.6558542438
 11
17.456595709
 21
11.7772068807
  0
LINE
  5
30B
100
AcDbEntity
  8
LAYER_FEATURE
100
AcDbLine
 62
7
  6
CONTINUOUS
 10
17.11627713
 20
11.654264323
 11
17.1538668804
 21
11.7759047997
  0
LINE
  5
30C
100
AcDbEntity
  8
LAYER_FEATURE
100
AcDbLine
 62
7
  6
CONTINUOUS
 10
17.4616749994
 20
11.654264324
 11
17.4618742885
 21
11.6558542438
  0
LINE
  5
30D
100
AcDbEntity
  8
LAYER_FEATURE
100
AcDbLine
 62
7
  6
CONTINUOUS
 10
17.4609177792
 20
11.791193105
 11
17.456595709
 21
11.7772068807
  0
LINE
  5
30E
100
AcDbEntity
  8
LAYER_FEATURE
100
AcDbLine
 62
7
  6
CONTINUOUS
 10
17.4616750028
 20
11.654264323
 11
17.4992647531
 21
11.7759047997
  0
LINE
  5
30F
100
AcDbEntity
  8
LAYER_FEATURE
100
AcDbLine
 62
7
  6
CONTINUOUS
 10
17.8072721612
 20
11.6558542438
 11
17.8019935817
 21
11.7772068807
  0
LINE
  5
310
100
AcDbEntity
  8
LAYER_FEATURE
100
AcDbLine
 62
7
  6
CONTINUOUS
 10
17.8070728721
 20
11.654264324
 11
17.8072721612
 21
11.6558542438
  0
LINE
  5
311
100
AcDbEntity
  8
LAYER_FEATURE
100
AcDbLine
 62
7
  6
CONTINUOUS
 10
18.2861262285
 20
13.3438607
 11
17.8019935817
 21
11.7772068807
  0
LINE
  5
312
100
AcDbEntity
  8
LAYER_FEATURE
100
AcDbLine
 62
7
  6
CONTINUOUS
 10
17.8070728755
 20
11.654264323
 11
18.2912055223
 21
13.2209181422
  0
LINE
  5
313
100
AcDbEntity
  8
LAYER_FEATURE
100
AcDbLine
 62
7
  6
CONTINUOUS
 10
18.291404808
 20
13.2225080631
 11
18.2861262285
 21
13.3438607
  0
LINE
  5
314
100
AcDbEntity
  8
LAYER_FEATURE
100
AcDbLine
 62
7
  6
CONTINUOUS
 10
18.291404808
 20
13.2225080631
 11
18.2912055189
 21
13.2209181432
  0
LINE
  5
315
100
AcDbEntity
  8
0
100
AcDbLine
 62
7
  6
CONTINUOUS
 10
18.2746871585
 20
13.3671710738
 11
18.2861262285
 21
13.3438607
  0
ARC
  5
316
100
AcDbEntity
  8
0
100
AcDbCircle
 62
7
  6
CONTINUOUS
 10
3.4124547929
 20
5.4088698968
 40
0.01375
100
AcDbArc
 50
196.7953511265
 51
270.0
  0
ARC
  5
317
100
AcDbEntity
  8
0
100
AcDbCircle
 62
7
  6
CONTINUOUS
 10
3.5982797595
 20
5.4088698968
 40
0.01375
100
AcDbArc
 50
270.0
 51
343.2046488735
  0
ARC
  5
318
100
AcDbEntity
  8
LAYER_FEATURE
100
AcDbCircle
 62
7
  6
CONTINUOUS
 10
3.7874547929
 20
5.4088698968
 40
0.01375
100
AcDbArc
 50
196.7953511265
 51
270.0
  0
ARC
  5
319
100
AcDbEntity
  8
LAYER_FEATURE
100
AcDbCircle
 62
7
  6
CONTINUOUS
 10
3.9732797595
 20
5.4088698968
 40
0.01375
100
AcDbArc
 50
270.0
 51
343.2046488735
  0
ARC
  5
31A
100
AcDbEntity
  8
LAYER_FEATURE
100
AcDbCircle
 62
7
  6
CONTINUOUS
 10
4.1624547929
 20
5.4088698968
 40
0.01375
100
AcDbArc
 50
196.7953511265
 51
270.0
  0
ARC
  5
31B
100
AcDbEntity
  8
LAYER_FEATURE
100
AcDbCircle
 62
7
  6
CONTINUOUS
 10
4.3482797595
 20
5.4088698968
 40
0.01375
100
AcDbArc
 50
270.0
 51
343.2046488735
  0
ARC
  5
31C
100
AcDbEntity
  8
LAYER_FEATURE
100
AcDbCircle
 62
7
  6
CONTINUOUS
 10
4.5374547929
 20
5.4088698968
 40
0.01375
100
AcDbArc
 50
196.7953511265
 51
270.0
  0
ARC
  5
31D
100
AcDbEntity
  8
LAYER_FEATURE
100
AcDbCircle
 62
7
  6
CONTINUOUS
 10
4.7232797595
 20
5.4088698968
 40
0.01375
100
AcDbArc
 50
270.0
 51
343.2046488735
  0
ARC
  5
31E
100
AcDbEntity
  8
LAYER_FEATURE
100
AcDbCircle
 62
7
  6
CONTINUOUS
 10
4.9124547929
 20
5.4088698968
 40
0.01375
100
AcDbArc
 50
196.7953511265
 51
270.0
  0
ARC
  5
31F
100
AcDbEntity
  8
LAYER_FEATURE
100
AcDbCircle
 62
7
  6
CONTINUOUS
 10
5.0982797595
 20
5.4088698968
 40
0.01375
100
AcDbArc
 50
270.0
 51
343.2046488735
  0
ARC
  5
320
100
AcDbEntity
  8
LAYER_FEATURE
100
AcDbCircle
 62
7
  6
CONTINUOUS
 10
5.2874547929
 20
5.4088698968
 40
0.01375
100
AcDbArc
 50
196.7953511265
 51
270.0
  0
ARC
  5
321
100
AcDbEntity
  8
LAYER_FEATURE
100
AcDbCircle
 62
7
  6
CONTINUOUS
 10
5.4732797595
 20
5.4088698968
 40
0.01375
100
AcDbArc
 50
270.0
 51
343.2046488735
  0
ARC
  5
322
100
AcDbEntity
  8
LAYER_FEATURE
100
AcDbCircle
 62
7
  6
CONTINUOUS
 10
5.6624547929
 20
5.4088698968
 40
0.01375
100
AcDbArc
 50
196.7953511265
 51
270.0
  0
ARC
  5
323
100
AcDbEntity
  8
LAYER_FEATURE
100
AcDbCircle
 62
7
  6
CONTINUOUS
 10
5.8482797595
 20
5.4088698968
 40
0.01375
100
AcDbArc
 50
270.0
 51
343.2046488735
  0
ARC
  5
324
100
AcDbEntity
  8
LAYER_FEATURE
100
AcDbCircle
 62
7
  6
CONTINUOUS
 10
6.0374547929
 20
5.4088698968
 40
0.01375
100
AcDbArc
 50
196.7953511265
 51
270.0
  0
ARC
  5
325
100
AcDbEntity
  8
LAYER_FEATURE
100
AcDbCircle
 62
7
  6
CONTINUOUS
 10
6.2232797595
 20
5.4088698968
 40
0.01375
100
AcDbArc
 50
270.0
 51
343.2046488735
  0
ARC
  5
326
100
AcDbEntity
  8
LAYER_FEATURE
100
AcDbCircle
 62
7
  6
CONTINUOUS
 10
6.4124547929
 20
5.4088698968
 40
0.01375
100
AcDbArc
 50
196.7953511265
 51
270.0
  0
ARC
  5
327
100
AcDbEntity
  8
LAYER_FEATURE
100
AcDbCircle
 62
7
  6
CONTINUOUS
 10
6.5982797595
 20
5.4088698968
 40
0.01375
100
AcDbArc
 50
270.0
 51
343.2046488735
  0
ARC
  5
328
100
AcDbEntity
  8
LAYER_FEATURE
100
AcDbCircle
 62
7
  6
CONTINUOUS
 10
6.7874547929
 20
5.4088698968
 40
0.01375
100
AcDbArc
 50
196.7953511265
 51
270.0
  0
ARC
  5
329
100
AcDbEntity
  8
LAYER_FEATURE
100
AcDbCircle
 62
7
  6
CONTINUOUS
 10
6.9732797595
 20
5.4088698968
 40
0.01375
100
AcDbArc
 50
270.0
 51
343.2046488735
  0
ARC
  5
32A
100
AcDbEntity
  8
LAYER_FEATURE
100
AcDbCircle
 62
7
  6
CONTINUOUS
 10
7.1624547929
 20
5.4088698968
 40
0.01375
100
AcDbArc
 50
196.7953511265
 51
270.0
  0
ARC
  5
32B
100
AcDbEntity
  8
LAYER_FEATURE
100
AcDbCircle
 62
7
  6
CONTINUOUS
 10
7.3482797595
 20
5.4088698968
 40
0.01375
100
AcDbArc
 50
270.0
 51
343.2046488735
  0
ARC
  5
32C
100
AcDbEntity
  8
LAYER_FEATURE
100
AcDbCircle
 62
7
  6
CONTINUOUS
 10
7.5374547929
 20
5.4088698968
 40
0.01375
100
AcDbArc
 50
196.7953511265
 51
270.0
  0
ARC
  5
32D
100
AcDbEntity
  8
LAYER_FEATURE
100
AcDbCircle
 62
7
  6
CONTINUOUS
 10
7.7232797595
 20
5.4088698968
 40
0.01375
100
AcDbArc
 50
270.0
 51
343.2046488735
  0
ARC
  5
32E
100
AcDbEntity
  8
LAYER_FEATURE
100
AcDbCircle
 62
7
  6
CONTINUOUS
 10
7.9124547929
 20
5.4088698968
 40
0.01375
100
AcDbArc
 50
196.7953511265
 51
270.0
  0
ARC
  5
32F
100
AcDbEntity
  8
LAYER_FEATURE
100
AcDbCircle
 62
7
  6
CONTINUOUS
 10
8.8482797595
 20
5.4088698968
 40
0.01375
100
AcDbArc
 50
270.0
 51
343.2046488735
  0
ARC
  5
330
100
AcDbEntity
  8
LAYER_FEATURE
100
AcDbCircle
 62
7
  6
CONTINUOUS
 10
8.6624547929
 20
5.4088698968
 40
0.01375
100
AcDbArc
 50
196.7953511265
 51
270.0
  0
ARC
  5
331
100
AcDbEntity
  8
LAYER_FEATURE
100
AcDbCircle
 62
7
  6
CONTINUOUS
 10
8.4732797595
 20
5.4088698968
 40
0.01375
100
AcDbArc
 50
270.0
 51
343.2046488735
  0
ARC
  5
332
100
AcDbEntity
  8
LAYER_FEATURE
100
AcDbCircle
 62
7
  6
CONTINUOUS
 10
8.2874547929
 20
5.4088698968
 40
0.01375
100
AcDbArc
 50
196.7953511265
 51
270.0
  0
ARC
  5
333
100
AcDbEntity
  8
LAYER_FEATURE
100
AcDbCircle
 62
7
  6
CONTINUOUS
 10
8.0982797595
 20
5.4088698968
 40
0.01375
100
AcDbArc
 50
270.0
 51
343.2046488735
  0
ARC
  5
334
100
AcDbEntity
  8
0
100
AcDbCircle
 62
7
  6
CONTINUOUS
 10
3.3478672762
 20
5.6376198968
 40
0.0075
100
AcDbArc
 50
90.0
 51
180.0
  0
ARC
  5
335
100
AcDbEntity
  8
0
100
AcDbCircle
 62
7
  6
CONTINUOUS
 10
8.9128672762
 20
5.6376198968
 40
0.0075
100
AcDbArc
 50
0.0
 51
90.0
  0
SPLINE
  5
336
100
AcDbEntity
  8
0
100
AcDbSpline
 62
7
  6
CONTINUOUS
 70
0
 71
3
 72
11
 73
7
 74
0
 42
0.0000001
 43
0.0000001
 44
0.0000000001
 40
0.0
 40
0.0
 40
0.0
 40
0.0
 40
0.2644444522
 40
0.5366447956
 40
0.7886683147
 40
1.0
 40
1.0
 40
1.0
 40
1.0
 10
18.2654913871
 20
13.3718331486
 30
0.0
 10
18.2664370459
 20
13.3718331486
 30
0.0
 10
18.268359185
 20
13.3715707666
 30
0.0
 10
18.2710301366
 20
13.3705976071
 30
0.0
 10
18.2732493978
 20
13.3691465941
 30
0.0
 10
18.2743542288
 20
13.3678495134
 30
0.0
 10
18.2746871585
 20
13.3671710738
 30
0.0
  0
SPLINE
  5
337
100
AcDbEntity
  8
0
100
AcDbSpline
 62
7
  6
CONTINUOUS
 70
0
 71
3
 72
11
 73
7
 74
0
 42
0.0000001
 43
0.0000001
 44
0.0000000001
 40
0.0
 40
0.0
 40
0.0
 40
0.0
 40
0.2022595964
 40
0.4301234434
 40
0.6973865799
 40
1.0
 40
1.0
 40
1.0
 40
1.0
 10
13.1349096786
 20
13.3693852563
 30
0.0
 10
13.1350232868
 20
13.369759255
 30
0.0
 10
13.1354749534
 20
13.3704981463
 30
0.0
 10
13.1366097362
 20
13.3712749725
 30
0.0
 10
13.1380973049
 20
13.3717357617
 30
0.0
 10
13.1392021452
 20
13.3718331486
 30
0.0
 10
13.1397869555
 20
13.3718331486
 30
0.0
  0
SPLINE
  5
338
100
AcDbEntity
  8
LAYER_FEATURE
100
AcDbSpline
 62
7
  6
CONTINUOUS
 70
0
 71
3
 72
12
 73
8
 74
0
 42
0.0000001
 43
0.0000001
 44
0.0000000001
 40
0.0
 40
0.0
 40
0.0
 40
0.0
 40
0.3032786873
 40
0.5691591591
 40
0.7966019883
 40
0.9000382471
 40
1.0
 40
1.0
 40
1.0
 40
1.0
 10
17.7981301646
 20
11.6497768372
 30
0.0
 10
17.7992060992
 20
11.6497768372
 30
0.0
 10
17.801233366
 20
11.6499489479
 30
0.0
 10
17.8039561058
 20
11.6508000666
 30
0.0
 10
17.8057406017
 20
11.6520322027
 30
0.0
 10
17.806671687
 20
11.6532589128
 30
0.0
 10
17.8069676494
 20
11.6539256614
 30
0.0
 10
17.8070721901
 20
11.6542645346
 30
0.0
  0
SPLINE
  5
339
100
AcDbEntity
  8
LAYER_FEATURE
100
AcDbSpline
 62
7
  6
CONTINUOUS
 70
0
 71
3
 72
11
 73
7
 74
0
 42
0.0000001
 43
0.0000001
 44
0.0000000001
 40
0.0
 40
0.0
 40
0.0
 40
0.0
 40
0.2304429948
 40
0.4848904459
 40
0.7473057978
 40
1.0
 40
1.0
 40
1.0
 40
1.0
 10
17.6118673236
 20
11.6558542438
 30
0.0
 10
17.6127430463
 20
11.6549205973
 30
0.0
 10
17.6148696915
 20
11.653218609
 30
0.0
 10
17.6185887898
 20
11.6513255881
 30
0.0
 10
17.6227044442
 20
11.6500923379
 30
0.0
 10
17.6255703617
 20
11.6497768372
 30
0.0
 10
17.6269740362
 20
11.6497768372
 30
0.0
  0
SPLINE
  5
33A
100
AcDbEntity
  8
LAYER_FEATURE
100
AcDbSpline
 62
7
  6
CONTINUOUS
 70
0
 71
3
 72
12
 73
8
 74
0
 42
0.0000001
 43
0.0000001
 44
0.0000000001
 40
0.0
 40
0.0
 40
0.0
 40
0.0
 40
0.3032786873
 40
0.5691591591
 40
0.7966019883
 40
0.9000382471
 40
1.0
 40
1.0
 40
1.0
 40
1.0
 10
17.4527322918
 20
11.6497768372
 30
0.0
 10
17.4538082265
 20
11.6497768372
 30
0.0
 10
17.4558354932
 20
11.6499489479
 30
0.0
 10
17.4585582331
 20
11.6508000666
 30
0.0
 10
17.460342729
 20
11.6520322027
 30
0.0
 10
17.4612738142
 20
11.6532589128
 30
0.0
 10
17.4615697767
 20
11.6539256614
 30
0.0
 10
17.4616743174
 20
11.6542645346
 30
0.0
  0
SPLINE
  5
33B
100
AcDbEntity
  8
LAYER_FEATURE
100
AcDbSpline
 62
7
  6
CONTINUOUS
 70
0
 71
3
 72
11
 73
7
 74
0
 42
0.0000001
 43
0.0000001
 44
0.0000000001
 40
0.0
 40
0.0
 40
0.0
 40
0.0
 40
0.2304429948
 40
0.484890446
 40
0.7473057978
 40
1.0
 40
1.0
 40
1.0
 40
1.0
 10
17.2664694508
 20
11.6558542438
 30
0.0
 10
17.2673451735
 20
11.6549205973
 30
0.0
 10
17.2694718187
 20
11.653218609
 30
0.0
 10
17.273190917
 20
11.6513255881
 30
0.0
 10
17.2773065714
 20
11.6500923379
 30
0.0
 10
17.280172489
 20
11.6497768372
 30
0.0
 10
17.2815761634
 20
11.6497768372
 30
0.0
  0
SPLINE
  5
33C
100
AcDbEntity
  8
LAYER_FEATURE
100
AcDbSpline
 62
7
  6
CONTINUOUS
 70
0
 71
3
 72
12
 73
8
 74
0
 42
0.0000001
 43
0.0000001
 44
0.0000000001
 40
0.0
 40
0.0
 40
0.0
 40
0.0
 40
0.3032786873
 40
0.5691591591
 40
0.7966019883
 40
0.9000382471
 40
1.0
 40
1.0
 40
1.0
 40
1.0
 10
17.1073344191
 20
11.6497768372
 30
0.0
 10
17.1084103537
 20
11.6497768372
 30
0.0
 10
17.1104376205
 20
11.6499489479
 30
0.0
 10
17.1131603603
 20
11.6508000666
 30
0.0
 10
17.1149448562
 20
11.6520322027
 30
0.0
 10
17.1158759415
 20
11.6532589128
 30
0.0
 10
17.1161719039
 20
11.6539256614
 30
0.0
 10
17.1162764446
 20
11.6542645346
 30
0.0
  0
SPLINE
  5
33D
100
AcDbEntity
  8
LAYER_FEATURE
100
AcDbSpline
 62
7
  6
CONTINUOUS
 70
0
 71
3
 72
11
 73
7
 74
0
 42
0.0000001
 43
0.0000001
 44
0.0000000001
 40
0.0
 40
0.0
 40
0.0
 40
0.0
 40
0.2304429948
 40
0.484890446
 40
0.7473057978
 40
1.0
 40
1.0
 40
1.0
 40
1.0
 10
16.9210715781
 20
11.6558542438
 30
0.0
 10
16.9219473008
 20
11.6549205973
 30
0.0
 10
16.924073946
 20
11.653218609
 30
0.0
 10
16.9277930443
 20
11.6513255881
 30
0.0
 10
16.9319086987
 20
11.6500923379
 30
0.0
 10
16.9347746162
 20
11.6497768372
 30
0.0
 10
16.9361782907
 20
11.6497768372
 30
0.0
  0
SPLINE
  5
33E
100
AcDbEntity
  8
LAYER_FEATURE
100
AcDbSpline
 62
7
  6
CONTINUOUS
 70
0
 71
3
 72
12
 73
8
 74
0
 42
0.0000001
 43
0.0000001
 44
0.0000000001
 40
0.0
 40
0.0
 40
0.0
 40
0.0
 40
0.3032786873
 40
0.5691591591
 40
0.7966019883
 40
0.9000382471
 40
1.0
 40
1.0
 40
1.0
 40
1.0
 10
16.7619365463
 20
11.6497768372
 30
0.0
 10
16.763012481
 20
11.6497768372
 30
0.0
 10
16.7650397477
 20
11.6499489479
 30
0.0
 10
16.7677624876
 20
11.6508000666
 30
0.0
 10
16.7695469835
 20
11.6520322027
 30
0.0
 10
16.7704780687
 20
11.6532589128
 30
0.0
 10
16.7707740312
 20
11.6539256614
 30
0.0
 10
16.7708785719
 20
11.6542645346
 30
0.0
  0
SPLINE
  5
33F
100
AcDbEntity
  8
LAYER_FEATURE
100
AcDbSpline
 62
7
  6
CONTINUOUS
 70
0
 71
3
 72
11
 73
7
 74
0
 42
0.0000001
 43
0.0000001
 44
0.0000000001
 40
0.0
 40
0.0
 40
0.0
 40
0.0
 40
0.2304429948
 40
0.484890446
 40
0.7473057978
 40
1.0
 40
1.0
 40
1.0
 40
1.0
 10
16.5756737053
 20
11.6558542438
 30
0.0
 10
16.576549428
 20
11.6549205973
 30
0.0
 10
16.5786760732
 20
11.653218609
 30
0.0
 10
16.5823951715
 20
11.6513255881
 30
0.0
 10
16.5865108259
 20
11.6500923379
 30
0.0
 10
16.5893767435
 20
11.6497768372
 30
0.0
 10
16.5907804179
 20
11.6497768372
 30
0.0
  0
SPLINE
  5
340
100
AcDbEntity
  8
LAYER_FEATURE
100
AcDbSpline
 62
7
  6
CONTINUOUS
 70
0
 71
3
 72
12
 73
8
 74
0
 42
0.0000001
 43
0.0000001
 44
0.0000000001
 40
0.0
 40
0.0
 40
0.0
 40
0.0
 40
0.3032786873
 40
0.5691591591
 40
0.7966019883
 40
0.9000382471
 40
1.0
 40
1.0
 40
1.0
 40
1.0
 10
16.4165386736
 20
11.6497768372
 30
0.0
 10
16.4176146082
 20
11.6497768372
 30
0.0
 10
16.419641875
 20
11.6499489479
 30
0.0
 10
16.4223646148
 20
11.6508000666
 30
0.0
 10
16.4241491107
 20
11.6520322027
 30
0.0
 10
16.425080196
 20
11.6532589128
 30
0.0
 10
16.4253761584
 20
11.6539256614
 30
0.0
 10
16.4254806991
 20
11.6542645346
 30
0.0
  0
SPLINE
  5
341
100
AcDbEntity
  8
LAYER_FEATURE
100
AcDbSpline
 62
7
  6
CONTINUOUS
 70
0
 71
3
 72
11
 73
7
 74
0
 42
0.0000001
 43
0.0000001
 44
0.0000000001
 40
0.0
 40
0.0
 40
0.0
 40
0.0
 40
0.2304429948
 40
0.484890446
 40
0.7473057978
 40
1.0
 40
1.0
 40
1.0
 40
1.0
 10
16.2302758326
 20
11.6558542438
 30
0.0
 10
16.2311515553
 20
11.6549205973
 30
0.0
 10
16.2332782005
 20
11.653218609
 30
0.0
 10
16.2369972988
 20
11.6513255881
 30
0.0
 10
16.2411129532
 20
11.6500923379
 30
0.0
 10
16.2439788707
 20
11.6497768372
 30
0.0
 10
16.2453825452
 20
11.6497768372
 30
0.0
  0
SPLINE
  5
342
100
AcDbEntity
  8
LAYER_FEATURE
100
AcDbSpline
 62
7
  6
CONTINUOUS
 70
0
 71
3
 72
12
 73
8
 74
0
 42
0.0000001
 43
0.0000001
 44
0.0000000001
 40
0.0
 40
0.0
 40
0.0
 40
0.0
 40
0.3032786873
 40
0.5691591591
 40
0.7966019883
 40
0.9000382471
 40
1.0
 40
1.0
 40
1.0
 40
1.0
 10
16.0711408008
 20
11.6497768372
 30
0.0
 10
16.0722167355
 20
11.6497768372
 30
0.0
 10
16.0742440022
 20
11.6499489479
 30
0.0
 10
16.0769667421
 20
11.6508000666
 30
0.0
 10
16.078751238
 20
11.6520322027
 30
0.0
 10
16.0796823232
 20
11.6532589128
 30
0.0
 10
16.0799782857
 20
11.6539256614
 30
0.0
 10
16.0800828264
 20
11.6542645346
 30
0.0
  0
SPLINE
  5
343
100
AcDbEntity
  8
LAYER_FEATURE
100
AcDbSpline
 62
7
  6
CONTINUOUS
 70
0
 71
3
 72
11
 73
7
 74
0
 42
0.0000001
 43
0.0000001
 44
0.0000000001
 40
0.0
 40
0.0
 40
0.0
 40
0.0
 40
0.2304429948
 40
0.484890446
 40
0.7473057978
 40
1.0
 40
1.0
 40
1.0
 40
1.0
 10
15.8848779598
 20
11.6558542438
 30
0.0
 10
15.8857536825
 20
11.6549205973
 30
0.0
 10
15.8878803277
 20
11.653218609
 30
0.0
 10
15.891599426
 20
11.6513255881
 30
0.0
 10
15.8957150804
 20
11.6500923379
 30
0.0
 10
15.898580998
 20
11.6497768372
 30
0.0
 10
15.8999846724
 20
11.6497768372
 30
0.0
  0
SPLINE
  5
344
100
AcDbEntity
  8
LAYER_FEATURE
100
AcDbSpline
 62
7
  6
CONTINUOUS
 70
0
 71
3
 72
12
 73
8
 74
0
 42
0.0000001
 43
0.0000001
 44
0.0000000001
 40
0.0
 40
0.0
 40
0.0
 40
0.0
 40
0.3032786873
 40
0.5691591591
 40
0.7966019883
 40
0.9000382471
 40
1.0
 40
1.0
 40
1.0
 40
1.0
 10
15.7257429281
 20
11.6497768372
 30
0.0
 10
15.7268188627
 20
11.6497768372
 30
0.0
 10
15.7288461295
 20
11.6499489479
 30
0.0
 10
15.7315688693
 20
11.6508000666
 30
0.0
 10
15.7333533652
 20
11.6520322027
 30
0.0
 10
15.7342844505
 20
11.6532589128
 30
0.0
 10
15.7345804129
 20
11.6539256614
 30
0.0
 10
15.7346849536
 20
11.6542645346
 30
0.0
  0
SPLINE
  5
345
100
AcDbEntity
  8
LAYER_FEATURE
100
AcDbSpline
 62
7
  6
CONTINUOUS
 70
0
 71
3
 72
11
 73
7
 74
0
 42
0.0000001
 43
0.0000001
 44
0.0000000001
 40
0.0
 40
0.0
 40
0.0
 40
0.0
 40
0.2304429948
 40
0.484890446
 40
0.7473057978
 40
1.0
 40
1.0
 40
1.0
 40
1.0
 10
15.539480087
 20
11.6558542438
 30
0.0
 10
15.5403558097
 20
11.6549205973
 30
0.0
 10
15.542482455
 20
11.653218609
 30
0.0
 10
15.5462015533
 20
11.6513255881
 30
0.0
 10
15.5503172077
 20
11.6500923379
 30
0.0
 10
15.5531831252
 20
11.6497768372
 30
0.0
 10
15.5545867997
 20
11.6497768372
 30
0.0
  0
SPLINE
  5
346
100
AcDbEntity
  8
LAYER_FEATURE
100
AcDbSpline
 62
7
  6
CONTINUOUS
 70
0
 71
3
 72
12
 73
8
 74
0
 42
0.0000001
 43
0.0000001
 44
0.0000000001
 40
0.0
 40
0.0
 40
0.0
 40
0.0
 40
0.3032791263
 40
0.5691606655
 40
0.7966045908
 40
0.9000406746
 40
1.0
 40
1.0
 40
1.0
 40
1.0
 10
15.3803450553
 20
11.6497768372
 30
0.0
 10
15.3814209914
 20
11.6497768372
 30
0.0
 10
15.3834482609
 20
11.649948956
 30
0.0
 10
15.3861710172
 20
11.6508000625
 30
0.0
 10
15.3879555015
 20
11.6520322298
 30
0.0
 10
15.3888865822
 20
11.6532589321
 30
0.0
 10
15.389182557
 20
11.6539256656
 30
0.0
 10
15.3892870944
 20
11.6542645308
 30
0.0
  0
SPLINE
  5
347
100
AcDbEntity
  8
LAYER_FEATURE
100
AcDbSpline
 62
7
  6
CONTINUOUS
 70
0
 71
3
 72
11
 73
7
 74
0
 42
0.0000001
 43
0.0000001
 44
0.0000000001
 40
0.0
 40
0.0
 40
0.0
 40
0.0
 40
0.2304429948
 40
0.4848904459
 40
0.7473057978
 40
1.0
 40
1.0
 40
1.0
 40
1.0
 10
15.1940822143
 20
11.6558542438
 30
0.0
 10
15.194957937
 20
11.6549205973
 30
0.0
 10
15.1970845822
 20
11.653218609
 30
0.0
 10
15.2008036805
 20
11.6513255881
 30
0.0
 10
15.2049193349
 20
11.6500923379
 30
0.0
 10
15.2077852525
 20
11.6497768372
 30
0.0
 10
15.2091889269
 20
11.6497768372
 30
0.0
  0
SPLINE
  5
348
100
AcDbEntity
  8
LAYER_FEATURE
100
AcDbSpline
 62
7
  6
CONTINUOUS
 70
0
 71
3
 72
12
 73
8
 74
0
 42
0.0000001
 43
0.0000001
 44
0.0000000001
 40
0.0
 40
0.0
 40
0.0
 40
0.0
 40
0.3032786873
 40
0.5691591591
 40
0.7966019883
 40
0.9000382471
 40
1.0
 40
1.0
 40
1.0
 40
1.0
 10
15.0349471826
 20
11.6497768372
 30
0.0
 10
15.0360231172
 20
11.6497768372
 30
0.0
 10
15.038050384
 20
11.6499489479
 30
0.0
 10
15.0407731238
 20
11.6508000666
 30
0.0
 10
15.0425576197
 20
11.6520322027
 30
0.0
 10
15.043488705
 20
11.6532589128
 30
0.0
 10
15.0437846674
 20
11.6539256614
 30
0.0
 10
15.0438892081
 20
11.6542645346
 30
0.0
  0
SPLINE
  5
349
100
AcDbEntity
  8
LAYER_FEATURE
100
AcDbSpline
 62
7
  6
CONTINUOUS
 70
0
 71
3
 72
11
 73
7
 74
0
 42
0.0000001
 43
0.0000001
 44
0.0000000001
 40
0.0
 40
0.0
 40
0.0
 40
0.0
 40
0.2304429948
 40
0.484890446
 40
0.7473057978
 40
1.0
 40
1.0
 40
1.0
 40
1.0
 10
14.8486843415
 20
11.6558542438
 30
0.0
 10
14.8495600642
 20
11.6549205973
 30
0.0
 10
14.8516867095
 20
11.653218609
 30
0.0
 10
14.8554058078
 20
11.6513255881
 30
0.0
 10
14.8595214622
 20
11.6500923379
 30
0.0
 10
14.8623873797
 20
11.6497768372
 30
0.0
 10
14.8637910541
 20
11.6497768372
 30
0.0
  0
SPLINE
  5
34A
100
AcDbEntity
  8
LAYER_FEATURE
100
AcDbSpline
 62
7
  6
CONTINUOUS
 70
0
 71
3
 72
12
 73
8
 74
0
 42
0.0000001
 43
0.0000001
 44
0.0000000001
 40
0.0
 40
0.0
 40
0.0
 40
0.0
 40
0.3032786873
 40
0.5691591591
 40
0.7966019883
 40
0.9000382471
 40
1.0
 40
1.0
 40
1.0
 40
1.0
 10
14.6895493098
 20
11.6497768372
 30
0.0
 10
14.6906252445
 20
11.6497768372
 30
0.0
 10
14.6926525112
 20
11.6499489479
 30
0.0
 10
14.6953752511
 20
11.6508000666
 30
0.0
 10
14.697159747
 20
11.6520322027
 30
0.0
 10
14.6980908322
 20
11.6532589128
 30
0.0
 10
14.6983867947
 20
11.6539256614
 30
0.0
 10
14.6984913354
 20
11.6542645346
 30
0.0
  0
SPLINE
  5
34B
100
AcDbEntity
  8
LAYER_FEATURE
100
AcDbSpline
 62
7
  6
CONTINUOUS
 70
0
 71
3
 72
11
 73
7
 74
0
 42
0.0000001
 43
0.0000001
 44
0.0000000001
 40
0.0
 40
0.0
 40
0.0
 40
0.0
 40
0.2304429948
 40
0.484890446
 40
0.7473057978
 40
1.0
 40
1.0
 40
1.0
 40
1.0
 10
14.5032864688
 20
11.6558542438
 30
0.0
 10
14.5041621915
 20
11.6549205973
 30
0.0
 10
14.5062888367
 20
11.653218609
 30
0.0
 10
14.510007935
 20
11.6513255881
 30
0.0
 10
14.5141235894
 20
11.6500923379
 30
0.0
 10
14.5169895069
 20
11.6497768372
 30
0.0
 10
14.5183931814
 20
11.6497768372
 30
0.0
  0
SPLINE
  5
34C
100
AcDbEntity
  8
LAYER_FEATURE
100
AcDbSpline
 62
7
  6
CONTINUOUS
 70
0
 71
3
 72
12
 73
8
 74
0
 42
0.0000001
 43
0.0000001
 44
0.0000000001
 40
0.0
 40
0.0
 40
0.0
 40
0.0
 40
0.3032786873
 40
0.5691591591
 40
0.7966019883
 40
0.9000382471
 40
1.0
 40
1.0
 40
1.0
 40
1.0
 10
14.3441514371
 20
11.6497768372
 30
0.0
 10
14.3452273717
 20
11.6497768372
 30
0.0
 10
14.3472546385
 20
11.6499489479
 30
0.0
 10
14.3499773783
 20
11.6508000666
 30
0.0
 10
14.3517618742
 20
11.6520322027
 30
0.0
 10
14.3526929595
 20
11.6532589128
 30
0.0
 10
14.3529889219
 20
11.6539256614
 30
0.0
 10
14.3530934626
 20
11.6542645346
 30
0.0
  0
SPLINE
  5
34D
100
AcDbEntity
  8
LAYER_FEATURE
100
AcDbSpline
 62
7
  6
CONTINUOUS
 70
0
 71
3
 72
11
 73
7
 74
0
 42
0.0000001
 43
0.0000001
 44
0.0000000001
 40
0.0
 40
0.0
 40
0.0
 40
0.0
 40
0.2304429948
 40
0.484890446
 40
0.7473057978
 40
1.0
 40
1.0
 40
1.0
 40
1.0
 10
14.157888596
 20
11.6558542438
 30
0.0
 10
14.1587643187
 20
11.6549205973
 30
0.0
 10
14.160890964
 20
11.653218609
 30
0.0
 10
14.1646100623
 20
11.6513255881
 30
0.0
 10
14.1687257167
 20
11.6500923379
 30
0.0
 10
14.1715916342
 20
11.6497768372
 30
0.0
 10
14.1729953086
 20
11.6497768372
 30
0.0
  0
SPLINE
  5
34E
100
AcDbEntity
  8
LAYER_FEATURE
100
AcDbSpline
 62
7
  6
CONTINUOUS
 70
0
 71
3
 72
12
 73
8
 74
0
 42
0.0000001
 43
0.0000001
 44
0.0000000001
 40
0.0
 40
0.0
 40
0.0
 40
0.0
 40
0.3032786873
 40
0.5691591591
 40
0.7966019883
 40
0.9000382471
 40
1.0
 40
1.0
 40
1.0
 40
1.0
 10
13.9987535643
 20
11.6497768372
 30
0.0
 10
13.999829499
 20
11.6497768372
 30
0.0
 10
14.0018567657
 20
11.6499489479
 30
0.0
 10
14.0045795056
 20
11.6508000666
 30
0.0
 10
14.0063640015
 20
11.6520322027
 30
0.0
 10
14.0072950867
 20
11.6532589128
 30
0.0
 10
14.0075910492
 20
11.6539256614
 30
0.0
 10
14.0076955899
 20
11.6542645346
 30
0.0
  0
SPLINE
  5
34F
100
AcDbEntity
  8
LAYER_FEATURE
100
AcDbSpline
 62
7
  6
CONTINUOUS
 70
0
 71
3
 72
11
 73
7
 74
0
 42
0.0000001
 43
0.0000001
 44
0.0000000001
 40
0.0
 40
0.0
 40
0.0
 40
0.0
 40
0.2304429948
 40
0.4848904459
 40
0.7473057978
 40
1.0
 40
1.0
 40
1.0
 40
1.0
 10
13.8124907233
 20
11.6558542438
 30
0.0
 10
13.813366446
 20
11.6549205973
 30
0.0
 10
13.8154930912
 20
11.653218609
 30
0.0
 10
13.8192121895
 20
11.6513255881
 30
0.0
 10
13.8233278439
 20
11.6500923379
 30
0.0
 10
13.8261937614
 20
11.6497768372
 30
0.0
 10
13.8275974359
 20
11.6497768372
 30
0.0
  0
SPLINE
  5
350
100
AcDbEntity
  8
LAYER_FEATURE
100
AcDbSpline
 62
7
  6
CONTINUOUS
 70
0
 71
3
 72
12
 73
8
 74
0
 42
0.0000001
 43
0.0000001
 44
0.0000000001
 40
0.0
 40
0.0
 40
0.0
 40
0.0
 40
0.3032786873
 40
0.5691591591
 40
0.7966019883
 40
0.9000382471
 40
1.0
 40
1.0
 40
1.0
 40
1.0
 10
13.6533556916
 20
11.6497768372
 30
0.0
 10
13.6544316262
 20
11.6497768372
 30
0.0
 10
13.656458893
 20
11.6499489479
 30
0.0
 10
13.6591816328
 20
11.6508000666
 30
0.0
 10
13.6609661287
 20
11.6520322027
 30
0.0
 10
13.661897214
 20
11.6532589128
 30
0.0
 10
13.6621931764
 20
11.6539256614
 30
0.0
 10
13.6622977171
 20
11.6542645346
 30
0.0
  0
SPLINE
  5
351
100
AcDbEntity
  8
LAYER_FEATURE
100
AcDbSpline
 62
7
  6
CONTINUOUS
 70
0
 71
3
 72
11
 73
7
 74
0
 42
0.0000001
 43
0.0000001
 44
0.0000000001
 40
0.0
 40
0.0
 40
0.0
 40
0.0
 40
0.2304429948
 40
0.484890446
 40
0.7473057978
 40
1.0
 40
1.0
 40
1.0
 40
1.0
 10
13.4670928505
 20
11.6558542438
 30
0.0
 10
13.4679685732
 20
11.6549205973
 30
0.0
 10
13.4700952185
 20
11.653218609
 30
0.0
 10
13.4738143168
 20
11.6513255881
 30
0.0
 10
13.4779299712
 20
11.6500923379
 30
0.0
 10
13.4807958887
 20
11.6497768372
 30
0.0
 10
13.4821995631
 20
11.6497768372
 30
0.0
  0
SPLINE
  5
352
100
AcDbEntity
  8
LAYER_FEATURE
100
AcDbSpline
 62
7
  6
CONTINUOUS
 70
0
 71
3
 72
12
 73
8
 74
0
 42
0.0000001
 43
0.0000001
 44
0.0000000001
 40
0.0
 40
0.0
 40
0.0
 40
0.0
 40
0.3032786873
 40
0.5691591591
 40
0.7966019883
 40
0.9000382471
 40
1.0
 40
1.0
 40
1.0
 40
1.0
 10
13.3079578188
 20
11.6497768372
 30
0.0
 10
13.3090337535
 20
11.6497768372
 30
0.0
 10
13.3110610202
 20
11.6499489479
 30
0.0
 10
13.3137837601
 20
11.6508000666
 30
0.0
 10
13.315568256
 20
11.6520322027
 30
0.0
 10
13.3164993412
 20
11.6532589128
 30
0.0
 10
13.3167953037
 20
11.6539256614
 30
0.0
 10
13.3168998444
 20
11.6542645346
 30
0.0
  0
SPLINE
  5
353
100
AcDbEntity
  8
LAYER_FEATURE
100
AcDbSpline
 62
7
  6
CONTINUOUS
 70
0
 71
3
 72
11
 73
7
 74
0
 42
0.0000001
 43
0.0000001
 44
0.0000000001
 40
0.0
 40
0.0
 40
0.0
 40
0.0
 40
0.2304429948
 40
0.484890446
 40
0.7473057978
 40
1.0
 40
1.0
 40
1.0
 40
1.0
 10
13.1216949778
 20
11.6558542438
 30
0.0
 10
13.1225707005
 20
11.6549205973
 30
0.0
 10
13.1246973457
 20
11.653218609
 30
0.0
 10
13.128416444
 20
11.6513255881
 30
0.0
 10
13.1325320984
 20
11.6500923379
 30
0.0
 10
13.1353980159
 20
11.6497768372
 30
0.0
 10
13.1368016904
 20
11.6497768372
 30
0.0
  0
SPLINE
  5
354
100
AcDbEntity
  8
0
100
AcDbSpline
 62
7
  6
CONTINUOUS
 70
0
 71
3
 72
12
 73
8
 74
0
 42
0.0000001
 43
0.0000001
 44
0.0000000001
 40
0.0
 40
0.0
 40
0.0
 40
0.0
 40
0.3032786873
 40
0.5691591591
 40
0.7966019883
 40
0.9000382471
 40
1.0
 40
1.0
 40
1.0
 40
1.0
 10
12.9625599461
 20
11.6497768372
 30
0.0
 10
12.9636358807
 20
11.6497768372
 30
0.0
 10
12.9656631475
 20
11.6499489479
 30
0.0
 10
12.9683858873
 20
11.6508000666
 30
0.0
 10
12.9701703832
 20
11.6520322027
 30
0.0
 10
12.9711014685
 20
11.6532589128
 30
0.0
 10
12.9713974309
 20
11.6539256614
 30
0.0
 10
12.9715019716
 20
11.6542645346
 30
0.0
  0
SPLINE
  5
355
100
AcDbEntity
  8
0
100
AcDbSpline
 62
7
  6
CONTINUOUS
 70
0
 71
3
 72
11
 73
7
 74
0
 42
0.0000001
 43
0.0000001
 44
0.0000000001
 40
0.0
 40
0.0
 40
0.0
 40
0.0
 40
0.2304429948
 40
0.484890446
 40
0.7473057978
 40
1.0
 40
1.0
 40
1.0
 40
1.0
 10
12.776297105
 20
11.6558542438
 30
0.0
 10
12.7771728277
 20
11.6549205973
 30
0.0
 10
12.7792994729
 20
11.653218609
 30
0.0
 10
12.7830185713
 20
11.6513255881
 30
0.0
 10
12.7871342257
 20
11.6500923379
 30
0.0
 10
12.7900001432
 20
11.6497768372
 30
0.0
 10
12.7914038176
 20
11.6497768372
 30
0.0
  0
SPLINE
  5
356
100
AcDbEntity
  8
0
100
AcDbSpline
 62
7
  6
CONTINUOUS
 70
0
 71
3
 72
11
 73
7
 74
0
 42
0.0000001
 43
0.0000001
 44
0.0000000001
 40
0.0
 40
0.0
 40
0.0
 40
0.0
 40
0.3026134201
 40
0.5698765566
 40
0.7977404036
 40
1.0
 40
1.0
 40
1.0
 40
1.0
 10
12.6556543086
 20
11.8051793293
 30
0.0
 10
12.6550694984
 20
11.8051793293
 30
0.0
 10
12.6539646581
 20
11.8050819424
 30
0.0
 10
12.6524770894
 20
11.8046211532
 30
0.0
 10
12.6513423066
 20
11.803844327
 30
0.0
 10
12.65089064
 20
11.8031054358
 30
0.0
 10
12.6507770318
 20
11.802731437
 30
0.0
  0
SPLINE
  5
357
100
AcDbEntity
  8
0
100
AcDbSpline
 62
7
  6
CONTINUOUS
 70
0
 71
3
 72
11
 73
7
 74
0
 42
0.0000001
 43
0.0000001
 44
0.0000000001
 40
0.0
 40
0.0
 40
0.0
 40
0.0
 40
0.2113316853
 40
0.4633552044
 40
0.7355555478
 40
1.0
 40
1.0
 40
1.0
 40
1.0
 10
17.7905545117
 20
11.8005172546
 30
0.0
 10
17.7902215819
 20
11.8011956941
 30
0.0
 10
17.789116751
 20
11.8024927749
 30
0.0
 10
17.7868974898
 20
11.8039437878
 30
0.0
 10
17.7842265382
 20
11.8049169473
 30
0.0
 10
17.7823043991
 20
11.8051793293
 30
0.0
 10
17.7813587403
 20
11.8051793293
 30
0.0
  0
ENDSEC
  0
SECTION
  2
OBJECTS
  0
DICTIONARY
  5
C
100
AcDbDictionary
280
0
281
1
  3
ACAD_GROUP
350
D
  3
ACAD_MLINESTYLE
350
17
  3
ACAD_LAYOUT
350
1A
  3
ACAD_PLOTSETTINGS
350
19
  3
ACAD_PLOTSTYLENAME
350
E
  0
DICTIONARY
  5
D
102
{ACAD_REACTORS
330
C
102
}
100
AcDbDictionary
280
0
281
1
  0
ACDBDICTIONARYWDFLT
  5
E
102
{ACAD_REACTORS
330
C
102
}
100
AcDbDictionary
281
1
  3
Normal
350
F
100
AcDbDictionaryWithDefault
340
F
  0
DICTIONARY
  5
17
102
{ACAD_REACTORS
330
C
102
}
100
AcDbDictionary
280
0
281
1
  3
Standard
350
18
  0
DICTIONARY
  5
19
102
{ACAD_REACTORS
330
C
102
}
100
AcDbDictionary
281
1
  0
DICTIONARY
  5
1A
102
{ACAD_REACTORS
330
C
102
}
100
AcDbDictionary
281
1
  3
Model
350
358
  3
Layout1
350
359
  0
ACDBPLACEHOLDER
  5
F
102
{ACAD_REACTORS
330
E
102
}
  0
MLINESTYLE
  5
18
102
{ACAD_REACTORS
330
17
102
}
100
AcDbMlineStyle
  2
STANDARD
 70
0
  3

 62
256
 51
90.0
 52
90.0
 71
2
 49
0.5
 62
256
  6
BYLAYER
 49
-0.5
 62
256
  6
BYLAYER
  0
LAYOUT
  5
358
102
{ACAD_REACTORS
330
1A
102
}
100
AcDbPlotSettings
  1

  2
none_device
  4
ANSI_C_(22.00_x_17.00_Inches)
  6

 40
0.0
 41
0.0
 42
0.0
 43
0.0
 44
558.8
 45
431.8
 46
0.0
 47
0.0
 48
0.0
 49
0.0
140
0.0
141
0.0
142
1.0
143
1.0
 70
1024
 72
0
 73
0
 74
0
  7

 75
0
147
1.0
148
0.0
149
0.0
100
AcDbLayout
  1
Model
 70
0
 71
0
 10
0.0
 20
0.0
 11
22.0
 21
17.0
 12
0.0
 22
0.0
 32
0.0
 14
0.0
 24
0.0
 34
0.0
 15
0.0
 25
0.0
 35
0.0
146
0.0
 13
0.0
 23
0.0
 33
0.0
 16
1.0
 26
0.0
 36
0.0
 17
0.0
 27
1.0
 37
0.0
 76
0
330
21C
345
0
346
0
  0
LAYOUT
  5
359
102
{ACAD_REACTORS
330
1A
102
}
100
AcDbPlotSettings
  1

  2
none_device
  4
ANSI_C_(22.00_x_17.00_Inches)
  6

 40
0.0
 41
0.0
 42
0.0
 43
0.0
 44
558.8
 45
431.8
 46
0.0
 47
0.0
 48
0.0
 49
0.0
140
0.0
141
0.0
142
1.0
143
1.0
 70
0
 72
0
 73
0
 74
0
  7

 75
0
147
1.0
148
0.0
149
0.0
100
AcDbLayout
  1
Layout1
 70
0
 71
1
 10
0.0
 20
0.0
 11
22.0
 21
17.0
 12
0.0
 22
0.0
 32
0.0
 14
0.0
 24
0.0
 34
0.0
 15
0.0
 25
0.0
 35
0.0
146
0.0
 13
0.0
 23
0.0
 33
0.0
 16
1.0
 26
0.0
 36
0.0
 17
0.0
 27
1.0
 37
0.0
 76
0
330
21D
345
0
346
0
  0
ENDSEC
  0
EOF