999
DXF file: _cgs_temp_output.dxf
999
Pro/ENGINEER 2016360 by Parametric Technology Corporation
  0
SECTION
  2
HEADER
  9
$ACADVER
  1
AC1021
  9
$DWGCODEPAGE
  3
ANSI_1252
  9
$EXTMAX
 10
22.0
 20
17.0
 30
0.0
  9
$EXTMIN
 10
0.0
 20
0.0
 30
0.0
  9
$LIMMIN
 10
0.0
 20
0.0
  9
$LIMMAX
 10
22.0
 20
17.0
  9
$VIEWCTR
 10
11.0
 20
8.5
  9
$VIEWSIZE
 40
17.0
  9
$CLAYER
  8
0
  9
$LTSCALE
 40
1.21
  9
$CELTYPE
  6
BYLAYER
  9
$DIMSCALE
 40
1.0
  9
$DIMASZ
 40
0.1875
  9
$DIMEXO
 40
0.0625
  9
$DIMDLI
 40
0.836
  9
$DIMEXE
 40
0.125
  9
$DIMCEN
 40
0.198
  9
$DIMLFAC
 40
1.0
  9
$DIMBLK
  1
_CLOSED
  9
$DIMALT
 70
0
  9
$DIMALTF
 40
25.4
  9
$DIMTXT
 40
0.15625
  9
$DIMTOL
 70
0
  9
$DIMLIM
 70
0
  9
$DIMTFAC
 40
1.0
  9
$DIMGAP
 40
0.09
  9
$DIMDSEP
 70
46
  9
$AUNITS
 70
0
  9
$PDMODE
 70
3
  9
$PDSIZE
 40
0.3125
  9
$HANDSEED
  5
2E6
  9
$TILEMODE
 70
1
  9
$MEASUREMENT
 70
0
  9
$INSUNITS
 70
1
  0
ENDSEC
  0
SECTION
  2
CLASSES
  0
CLASS
  1
ACDBDICTIONARYWDFLT
  2
AcDbDictionaryWithDefault
  3
AutoCAD 2000
 90
0
 91
1
280
0
281
0
  0
CLASS
  1
ACDBPLACEHOLDER
  2
AcDbPlaceHolder
  3
AutoCAD 2000
 90
0
 91
1
280
0
281
0
  0
CLASS
  1
LAYOUT
  2
AcDbLayout
  3
AutoCAD 2000
 90
0
 91
0
280
0
281
0
  0
ENDSEC
  0
SECTION
  2
TABLES
  0
TABLE
  2
VPORT
  5
8
100
AcDbSymbolTable
 70
2
  0
VPORT
  5
1F4
100
AcDbSymbolTableRecord
100
AcDbViewportTableRecord
  2
*ACTIVE
 70
0
 10
0.0
 20
0.0
 11
1.0
 21
1.0
 12
11.0
 22
8.5
 13
0.0
 23
0.0
 14
1.0
 24
1.0
 15
0.0
 25
0.0
 16
0.0
 26
0.0
 36
1.0
 17
0.0
 27
0.0
 37
0.0
 40
17.0
 41
1.2941176471
 42
50.0
 43
0.0
 44
0.0
 50
0.0
 51
0.0
 71
0
 72
100
 73
1
 74
1
 75
0
 76
0
 77
0
 78
0
  0
ENDTAB
  0
TABLE
  2
LTYPE
  5
5
100
AcDbSymbolTable
 70
6
  0
LTYPE
  5
14
100
AcDbSymbolTableRecord
100
AcDbLinetypeTableRecord
  2
BYBLOCK
 70
0
  3

 72
65
 73
0
 40
0.0
  0
LTYPE
  5
15
100
AcDbSymbolTableRecord
100
AcDbLinetypeTableRecord
  2
BYLAYER
 70
0
  3

 72
65
 73
0
 40
0.0
  0
LTYPE
  5
16
100
AcDbSymbolTableRecord
100
AcDbLinetypeTableRecord
  2
CONTINUOUS
 70
64
  3
Solid line
 72
65
 73
0
 40
0.0
  0
LTYPE
  5
1F5
100
AcDbSymbolTableRecord
100
AcDbLinetypeTableRecord
  2
CENTER
 70
64
  3
____ _ ____ _ ____ _ ____ _ ____ _ ____ _ ____
 72
65
 73
4
 40
0.6
 49
0.375
 74
0
 49
-0.075
 74
0
 49
0.075
 74
0
 49
-0.075
 74
0
  0
LTYPE
  5
1F6
100
AcDbSymbolTableRecord
100
AcDbLinetypeTableRecord
  2
HIDDEN
 70
64
  3
- - - - - - - - - - - - - - - - - - - -
 72
65
 73
2
 40
0.2
 49
0.1
 74
0
 49
-0.1
 74
0
  0
LTYPE
  5
1F7
100
AcDbSymbolTableRecord
100
AcDbLinetypeTableRecord
  2
PHANTOM
 70
64
  3
_____ _ _ _____ _ _ _____ _ _ _____
 72
65
 73
6
 40
0.8
 49
0.45
 74
0
 49
-0.05
 74
0
 49
0.1
 74
0
 49
-0.05
 74
0
 49
0.1
 74
0
 49
-0.05
 74
0
  0
LTYPE
  5
1F8
100
AcDbSymbolTableRecord
100
AcDbLinetypeTableRecord
  2
DOT
 70
64
  3
. . . . . . . . . . . . . . . . . . . .
 72
65
 73
2
 40
0.2
 49
0.1
 74
0
 49
-0.1
 74
0
  0
LTYPE
  5
1F9
100
AcDbSymbolTableRecord
100
AcDbLinetypeTableRecord
  2
DASHED
 70
64
  3
- - - - - - - - - - - - - - - - - - - -
 72
65
 73
2
 40
0.2
 49
0.1
 74
0
 49
-0.1
 74
0
  0
ENDTAB
  0
TABLE
  2
LAYER
  5
2
100
AcDbSymbolTable
 70
36
  0
LAYER
  5
10
100
AcDbSymbolTableRecord
100
AcDbLayerTableRecord
  2
0
 70
0
 62
7
  6
CONTINUOUS
370
-3
390
F
  0
LAYER
  5
1FA
100
AcDbSymbolTableRecord
100
AcDbLayerTableRecord
  2
DEFAULT_1
 70
0
 62
7
  6
CENTER
370
-3
390
F
  0
LAYER
  5
1FB
100
AcDbSymbolTableRecord
100
AcDbLayerTableRecord
  2
DEFAULT_2
 70
0
 62
8
  6
HIDDEN
370
-3
390
F
  0
LAYER
  5
1FC
100
AcDbSymbolTableRecord
100
AcDbLayerTableRecord
  2
DEFAULT_3
 70
0
 62
7
  6
PHANTOM
370
-3
390
F
  0
LAYER
  5
1FD
100
AcDbSymbolTableRecord
100
AcDbLayerTableRecord
  2
01_ALL_DTM_PLN
 70
0
 62
7
  6
CONTINUOUS
370
-3
390
F
  0
LAYER
  5
1FE
100
AcDbSymbolTableRecord
100
AcDbLayerTableRecord
  2
01__ASM_ALL_DTM_PLN
 70
0
 62
7
  6
CONTINUOUS
370
-3
390
F
  0
LAYER
  5
1FF
100
AcDbSymbolTableRecord
100
AcDbLayerTableRecord
  2
01__ASM_DEF_DTM_PLN
 70
0
 62
7
  6
CONTINUOUS
370
-3
390
F
  0
LAYER
  5
200
100
AcDbSymbolTableRecord
100
AcDbLayerTableRecord
  2
01___PRT_ALL_DTM_PLN
 70
0
 62
7
  6
CONTINUOUS
370
-3
390
F
  0
LAYER
  5
201
100
AcDbSymbolTableRecord
100
AcDbLayerTableRecord
  2
01___PRT_DEF_DTM_PLN
 70
0
 62
7
  6
CONTINUOUS
370
-3
390
F
  0
LAYER
  5
202
100
AcDbSymbolTableRecord
100
AcDbLayerTableRecord
  2
02_ALL_AXES
 70
0
 62
7
  6
CONTINUOUS
370
-3
390
F
  0
LAYER
  5
203
100
AcDbSymbolTableRecord
100
AcDbLayerTableRecord
  2
02__ASM_ALL_AXES
 70
0
 62
7
  6
CONTINUOUS
370
-3
390
F
  0
LAYER
  5
204
100
AcDbSymbolTableRecord
100
AcDbLayerTableRecord
  2
02___PRT_ALL_AXES
 70
0
 62
7
  6
CONTINUOUS
370
-3
390
F
  0
LAYER
  5
205
100
AcDbSymbolTableRecord
100
AcDbLayerTableRecord
  2
03_ALL_CURVES
 70
0
 62
7
  6
CONTINUOUS
370
-3
390
F
  0
LAYER
  5
206
100
AcDbSymbolTableRecord
100
AcDbLayerTableRecord
  2
03__ASM_ALL_CURVES
 70
0
 62
7
  6
CONTINUOUS
370
-3
390
F
  0
LAYER
  5
207
100
AcDbSymbolTableRecord
100
AcDbLayerTableRecord
  2
03___PRT_ALL_CURVES
 70
0
 62
7
  6
CONTINUOUS
370
-3
390
F
  0
LAYER
  5
208
100
AcDbSymbolTableRecord
100
AcDbLayerTableRecord
  2
04_ALL_DTM_PNT
 70
0
 62
7
  6
CONTINUOUS
370
-3
390
F
  0
LAYER
  5
209
100
AcDbSymbolTableRecord
100
AcDbLayerTableRecord
  2
04__ASM_ALL_DTM_PNT
 70
0
 62
7
  6
CONTINUOUS
370
-3
390
F
  0
LAYER
  5
20A
100
AcDbSymbolTableRecord
100
AcDbLayerTableRecord
  2
04___PRT_ALL_DTM_PNT
 70
0
 62
7
  6
CONTINUOUS
370
-3
390
F
  0
LAYER
  5
20B
100
AcDbSymbolTableRecord
100
AcDbLayerTableRecord
  2
05_ALL_DTM_CSYS
 70
0
 62
7
  6
CONTINUOUS
370
-3
390
F
  0
LAYER
  5
20C
100
AcDbSymbolTableRecord
100
AcDbLayerTableRecord
  2
05__ASM_ALL_DTM_CSYS
 70
0
 62
7
  6
CONTINUOUS
370
-3
390
F
  0
LAYER
  5
20D
100
AcDbSymbolTableRecord
100
AcDbLayerTableRecord
  2
05__ASM_DEF_DTM_CSYS
 70
0
 62
7
  6
CONTINUOUS
370
-3
390
F
  0
LAYER
  5
20E
100
AcDbSymbolTableRecord
100
AcDbLayerTableRecord
  2
05___PRT_ALL_DTM_CSYS
 70
0
 62
7
  6
CONTINUOUS
370
-3
390
F
  0
LAYER
  5
20F
100
AcDbSymbolTableRecord
100
AcDbLayerTableRecord
  2
05___PRT_DEF_DTM_CSYS
 70
0
 62
7
  6
CONTINUOUS
370
-3
390
F
  0
LAYER
  5
210
100
AcDbSymbolTableRecord
100
AcDbLayerTableRecord
  2
06_ALL_SURFS
 70
0
 62
7
  6
CONTINUOUS
370
-3
390
F
  0
LAYER
  5
211
100
AcDbSymbolTableRecord
100
AcDbLayerTableRecord
  2
06__ASM_ALL_SURFS
 70
0
 62
7
  6
CONTINUOUS
370
-3
390
F
  0
LAYER
  5
212
100
AcDbSymbolTableRecord
100
AcDbLayerTableRecord
  2
06___PRT_ALL_SURFS
 70
0
 62
7
  6
CONTINUOUS
370
-3
390
F
  0
LAYER
  5
213
100
AcDbSymbolTableRecord
100
AcDbLayerTableRecord
  2
07__ASM_ALL_SKELETONS
 70
0
 62
7
  6
CONTINUOUS
370
-3
390
F
  0
ENDTAB
  0
TABLE
  2
STYLE
  5
3
100
AcDbSymbolTable
 70
1
  0
STYLE
  5
11
100
AcDbSymbolTableRecord
100
AcDbTextStyleTableRecord
  2
STANDARD
 70
0
 40
0.0
 41
0.8
 50
0.0
 71
0
 42
0.2
  3
txt
  4

  0
STYLE
  5
214
100
AcDbSymbolTableRecord
100
AcDbTextStyleTableRecord
  2
TEXTSTYLE_1
 70
0
 40
0.0
 41
0.8
 50
0.0
 71
0
 42
0.2
  3
gdt
  4

  0
ENDTAB
  0
TABLE
  2
VIEW
  5
6
100
AcDbSymbolTable
 70
0
  0
ENDTAB
  0
TABLE
  2
UCS
  5
7
100
AcDbSymbolTable
 70
0
  0
ENDTAB
  0
TABLE
  2
APPID
  5
9
100
AcDbSymbolTable
 70
1
  0
APPID
  5
215
100
AcDbSymbolTableRecord
100
AcDbRegAppTableRecord
  2
ACAD
 70
0
  0
ENDTAB
  0
TABLE
  2
BLOCK_RECORD
  5
1
100
AcDbSymbolTable
 70
0
  0
BLOCK_RECORD
  5
216
100
AcDbSymbolTableRecord
100
AcDbBlockTableRecord
  2
*Model_Space
  0
BLOCK_RECORD
  5
217
100
AcDbSymbolTableRecord
100
AcDbBlockTableRecord
  2
*Paper_Space
  0
ENDTAB
  0
TABLE
  2
DIMSTYLE
  5
A
100
AcDbSymbolTable
 70
1
100
AcDbDimStyleTable
 71
0
  0
DIMSTYLE
105
218
100
AcDbSymbolTableRecord
100
AcDbDimStyleTableRecord
  2
STANDARD
 70
0
  3

  4

 40
1.0
 41
0.1875
 42
0.0625
 43
0.38
 44
0.125
 45
0.0
 46
0.0
 47
0.0001
 48
0.0001
140
0.15625
141
0.09
142
0.0
143
25.4
144
1.0
145
0.0
146
1.0
147
0.09
 71
0.0
 72
0.0
 73
1
 74
1
 75
0
 76
0
 77
0
 78
4
 79
1
170
0
171
3
172
0
173
0
174
0
175
0
176
0
177
0
178
0
270
2
179
4
271
4
272
4
273
2
274
2
275
0
280
0
281
0
282
0
283
1
284
4
285
0
286
0
287
3
288
0
340
11
278
46
  0
ENDTAB
  0
ENDSEC
  0
SECTION
  2
BLOCKS
  0
BLOCK
  5
20
100
AcDbEntity
  8
0
100
AcDbBlockBegin
  2
*Model_Space
 70
0
 10
0.0
 20
0.0
 30
0.0
  3
*Model_Space
  1

  0
ENDBLK
  5
21
100
AcDbEntity
  8
0
100
AcDbBlockEnd
  0
BLOCK
  5
1C
100
AcDbEntity
  8
0
100
AcDbBlockBegin
  2
*Paper_Space
 70
0
 10
0.0
 20
0.0
 30
0.0
  3
*Paper_Space
  1

  0
ENDBLK
  5
1D
100
AcDbEntity
  8
0
100
AcDbBlockEnd
  0
ENDSEC
  0
SECTION
  2
ENTITIES
  0
MTEXT
  5
219
100
AcDbEntity
  8
0
100
AcDbMText
 62
7
  6
CONTINUOUS
  7
STANDARD
 71
1
 72
1
 10
15.9560215477
 20
0.9479130325
 30
0.0
 11
1.0
 21
0.0
 31
0.0
 44
0.9
  1
SCALE: 1:1.000
 40
0.3
 41
3.36
  0
LINE
  5
21A
100
AcDbEntity
  8
0
100
AcDbLine
 62
7
  6
CONTINUOUS
 10
0.0
 20
0.0
 11
0.0
 21
17.0
  0
LINE
  5
21B
100
AcDbEntity
  8
0
100
AcDbLine
 62
7
  6
CONTINUOUS
 10
0.0
 20
0.0
 11
22.0
 21
0.0
  0
LINE
  5
21C
100
AcDbEntity
  8
0
100
AcDbLine
 62
7
  6
CONTINUOUS
 10
0.0
 20
17.0
 11
22.0
 21
17.0
  0
LINE
  5
21D
100
AcDbEntity
  8
0
100
AcDbLine
 62
7
  6
CONTINUOUS
 10
22.0
 20
0.0
 11
22.0
 21
17.0
  0
LINE
  5
21E
100
AcDbEntity
  8
0
100
AcDbLine
 62
7
  6
CONTINUOUS
 10
5.6303672762
 20
5.6606199202
 11
5.6303672762
 21
5.612498825
  0
LINE
  5
21F
100
AcDbEntity
  8
0
100
AcDbLine
 62
7
  6
CONTINUOUS
 10
5.674689918
 20
5.3748496953
 11
5.6322045578
 21
5.5934179255
  0
LINE
  5
220
100
AcDbEntity
  8
0
100
AcDbLine
 62
7
  6
CONTINUOUS
 10
5.6992305976
 20
5.3546199202
 11
6.5615039548
 21
5.3546199202
  0
LINE
  5
221
100
AcDbEntity
  8
0
100
AcDbLine
 62
7
  6
CONTINUOUS
 10
5.6777839701
 20
5.4649532535
 11
6.5829505822
 21
5.4649532535
  0
LINE
  5
222
100
AcDbEntity
  8
0
100
AcDbLine
 62
7
  6
CONTINUOUS
 10
6.6053672762
 20
5.6856199202
 11
5.6553672762
 21
5.6856199202
  0
LINE
  5
223
100
AcDbEntity
  8
0
100
AcDbLine
 62
7
  6
CONTINUOUS
 10
6.6303672762
 20
5.612498825
 11
6.6303672762
 21
5.6606199202
  0
LINE
  5
224
100
AcDbEntity
  8
0
100
AcDbLine
 62
7
  6
CONTINUOUS
 10
6.5860446344
 20
5.3748496953
 11
6.6285299945
 21
5.5934179255
  0
LINE
  5
225
100
AcDbEntity
  8
0
100
AcDbLine
 62
7
  6
CONTINUOUS
 10
6.5708720839
 20
10.6000477814
 11
5.5708720839
 21
10.6000477814
  0
LINE
  5
226
100
AcDbEntity
  8
0
100
AcDbLine
 62
7
  6
CONTINUOUS
 10
5.5708720839
 20
10.6000477814
 11
5.5708720839
 21
14.6000477814
  0
LINE
  5
227
100
AcDbEntity
  8
0
100
AcDbLine
 62
7
  6
CONTINUOUS
 10
6.5708720839
 20
10.6000477814
 11
6.5708720839
 21
14.6000477814
  0
LINE
  5
228
100
AcDbEntity
  8
0
100
AcDbLine
 62
7
  6
CONTINUOUS
 10
5.5708720839
 20
14.6000477814
 11
6.5708720839
 21
14.6000477814
  0
LINE
  5
229
100
AcDbEntity
  8
0
100
AcDbLine
 62
7
  6
CONTINUOUS
 10
13.5603552569
 20
5.4054580612
 11
13.5603552569
 21
5.6261247279
  0
LINE
  5
22A
100
AcDbEntity
  8
0
100
AcDbLine
 62
7
  6
CONTINUOUS
 10
13.6775546286
 20
5.3840796278
 11
13.6931558852
 21
5.3165031613
  0
LINE
  5
22B
100
AcDbEntity
  8
0
100
AcDbLine
 62
7
  6
CONTINUOUS
 10
13.9275546286
 20
5.3165031613
 11
13.9431558852
 21
5.3840796278
  0
LINE
  5
22C
100
AcDbEntity
  8
0
100
AcDbLine
 62
7
  6
CONTINUOUS
 10
14.1775546286
 20
5.3840796278
 11
14.1931558852
 21
5.3165031613
  0
LINE
  5
22D
100
AcDbEntity
  8
0
100
AcDbLine
 62
7
  6
CONTINUOUS
 10
14.4275546286
 20
5.3165031613
 11
14.4431558852
 21
5.3840796278
  0
LINE
  5
22E
100
AcDbEntity
  8
0
100
AcDbLine
 62
7
  6
CONTINUOUS
 10
14.6775546286
 20
5.3840796278
 11
14.6931558852
 21
5.3165031613
  0
LINE
  5
22F
100
AcDbEntity
  8
0
100
AcDbLine
 62
7
  6
CONTINUOUS
 10
14.9275546286
 20
5.3165031613
 11
14.9431558852
 21
5.3840796278
  0
LINE
  5
230
100
AcDbEntity
  8
0
100
AcDbLine
 62
7
  6
CONTINUOUS
 10
15.1775546286
 20
5.3840796278
 11
15.1931558852
 21
5.3165031613
  0
LINE
  5
231
100
AcDbEntity
  8
0
100
AcDbLine
 62
7
  6
CONTINUOUS
 10
13.7200322595
 20
5.2951247279
 11
13.9006782544
 21
5.2951247279
  0
LINE
  5
232
100
AcDbEntity
  8
0
100
AcDbLine
 62
7
  6
CONTINUOUS
 10
14.2200322595
 20
5.2951247279
 11
14.4006782544
 21
5.2951247279
  0
LINE
  5
233
100
AcDbEntity
  8
0
100
AcDbLine
 62
7
  6
CONTINUOUS
 10
14.7200322595
 20
5.2951247279
 11
14.9006782544
 21
5.2951247279
  0
LINE
  5
234
100
AcDbEntity
  8
0
100
AcDbLine
 62
7
  6
CONTINUOUS
 10
15.2200322595
 20
5.2951247279
 11
15.4006782544
 21
5.2951247279
  0
LINE
  5
235
100
AcDbEntity
  8
0
100
AcDbLine
 62
7
  6
CONTINUOUS
 10
15.7200322595
 20
5.2951247279
 11
15.9006782544
 21
5.2951247279
  0
LINE
  5
236
100
AcDbEntity
  8
0
100
AcDbLine
 62
7
  6
CONTINUOUS
 10
16.2200322595
 20
5.2951247279
 11
16.4006782544
 21
5.2951247279
  0
LINE
  5
237
100
AcDbEntity
  8
0
100
AcDbLine
 62
7
  6
CONTINUOUS
 10
16.7200322595
 20
5.2951247279
 11
16.9006782544
 21
5.2951247279
  0
LINE
  5
238
100
AcDbEntity
  8
0
100
AcDbLine
 62
7
  6
CONTINUOUS
 10
17.2200322595
 20
5.2951247279
 11
17.4006782544
 21
5.2951247279
  0
LINE
  5
239
100
AcDbEntity
  8
0
100
AcDbLine
 62
7
  6
CONTINUOUS
 10
15.4275546286
 20
5.3165031613
 11
15.4431558852
 21
5.3840796278
  0
LINE
  5
23A
100
AcDbEntity
  8
0
100
AcDbLine
 62
7
  6
CONTINUOUS
 10
13.5603552569
 20
5.4054580612
 11
13.6506782544
 21
5.4054580612
  0
LINE
  5
23B
100
AcDbEntity
  8
0
100
AcDbLine
 62
7
  6
CONTINUOUS
 10
13.9700322595
 20
5.4054580612
 11
14.1506782544
 21
5.4054580612
  0
LINE
  5
23C
100
AcDbEntity
  8
0
100
AcDbLine
 62
7
  6
CONTINUOUS
 10
14.4700322595
 20
5.4054580612
 11
14.6506782544
 21
5.4054580612
  0
LINE
  5
23D
100
AcDbEntity
  8
0
100
AcDbLine
 62
7
  6
CONTINUOUS
 10
14.9700322595
 20
5.4054580612
 11
15.1506782544
 21
5.4054580612
  0
LINE
  5
23E
100
AcDbEntity
  8
0
100
AcDbLine
 62
7
  6
CONTINUOUS
 10
15.4700322595
 20
5.4054580612
 11
15.6506782544
 21
5.4054580612
  0
LINE
  5
23F
100
AcDbEntity
  8
0
100
AcDbLine
 62
7
  6
CONTINUOUS
 10
15.9700322595
 20
5.4054580612
 11
16.1506782544
 21
5.4054580612
  0
LINE
  5
240
100
AcDbEntity
  8
0
100
AcDbLine
 62
7
  6
CONTINUOUS
 10
16.4700322595
 20
5.4054580612
 11
16.6506782544
 21
5.4054580612
  0
LINE
  5
241
100
AcDbEntity
  8
0
100
AcDbLine
 62
7
  6
CONTINUOUS
 10
16.9700322595
 20
5.4054580612
 11
17.1506782544
 21
5.4054580612
  0
LINE
  5
242
100
AcDbEntity
  8
0
100
AcDbLine
 62
7
  6
CONTINUOUS
 10
17.4700322595
 20
5.4054580612
 11
17.5603552569
 21
5.4054580612
  0
LINE
  5
243
100
AcDbEntity
  8
0
100
AcDbLine
 62
7
  6
CONTINUOUS
 10
15.6775546286
 20
5.3840796278
 11
15.6931558852
 21
5.3165031613
  0
LINE
  5
244
100
AcDbEntity
  8
0
100
AcDbLine
 62
7
  6
CONTINUOUS
 10
13.5603552569
 20
5.6261247279
 11
17.5603552569
 21
5.6261247279
  0
LINE
  5
245
100
AcDbEntity
  8
0
100
AcDbLine
 62
7
  6
CONTINUOUS
 10
15.9275546286
 20
5.3165031613
 11
15.9431558852
 21
5.3840796278
  0
LINE
  5
246
100
AcDbEntity
  8
0
100
AcDbLine
 62
7
  6
CONTINUOUS
 10
16.1775546286
 20
5.3840796278
 11
16.1931558852
 21
5.3165031613
  0
LINE
  5
247
100
AcDbEntity
  8
0
100
AcDbLine
 62
7
  6
CONTINUOUS
 10
16.4275546286
 20
5.3165031613
 11
16.4431558852
 21
5.3840796278
  0
LINE
  5
248
100
AcDbEntity
  8
0
100
AcDbLine
 62
7
  6
CONTINUOUS
 10
16.6775546286
 20
5.3840796278
 11
16.6931558852
 21
5.3165031613
  0
LINE
  5
249
100
AcDbEntity
  8
0
100
AcDbLine
 62
7
  6
CONTINUOUS
 10
16.9275546286
 20
5.3165031613
 11
16.9431558852
 21
5.3840796278
  0
LINE
  5
24A
100
AcDbEntity
  8
0
100
AcDbLine
 62
7
  6
CONTINUOUS
 10
17.1775546286
 20
5.3840796278
 11
17.1931558852
 21
5.3165031613
  0
LINE
  5
24B
100
AcDbEntity
  8
0
100
AcDbLine
 62
7
  6
CONTINUOUS
 10
17.5603552569
 20
5.4054580612
 11
17.5603552569
 21
5.6261247279
  0
LINE
  5
24C
100
AcDbEntity
  8
0
100
AcDbLine
 62
7
  6
CONTINUOUS
 10
17.4275546286
 20
5.3165031613
 11
17.4431558852
 21
5.3840796278
  0
LINE
  5
24D
100
AcDbEntity
  8
0
100
AcDbLine
 62
7
  6
CONTINUOUS
 10
14.6142015865
 20
10.8755668738
 11
15.447915246
 21
10.8755668738
  0
LINE
  5
24E
100
AcDbEntity
  8
0
100
AcDbLine
 62
7
  6
CONTINUOUS
 10
14.5330330644
 20
10.9554217945
 11
14.5854271954
 21
10.8881419037
  0
LWPOLYLINE
  5
24F
100
AcDbEntity
  8
0
100
AcDbPolyline
 62
7
  6
CONTINUOUS
 90
6
 70
0
 10
15.4922264776
 20
10.9216248888
 10
15.4990903498
 20
10.9225780067
 10
15.5052914969
 20
10.9252760548
 10
15.5102277775
 20
10.9291782792
 10
15.5138762283
 20
10.9338529071
 10
15.5161922657
 20
10.9386385513
  0
LINE
  5
250
100
AcDbEntity
  8
0
100
AcDbLine
 62
7
  6
CONTINUOUS
 10
15.4758862952
 20
10.9216246086
 11
15.4922323661
 21
10.9216246086
  0
LINE
  5
251
100
AcDbEntity
  8
0
100
AcDbLine
 62
7
  6
CONTINUOUS
 10
14.510841394
 20
10.9971952243
 11
14.5255203427
 21
10.9672826718
  0
LINE
  5
252
100
AcDbEntity
  8
0
100
AcDbLine
 62
7
  6
CONTINUOUS
 10
15.4012498165
 20
11.0127354735
 11
14.5262418722
 21
11.0127354735
  0
LWPOLYLINE
  5
253
100
AcDbEntity
  8
0
100
AcDbPolyline
 62
7
  6
CONTINUOUS
 90
6
 70
0
 10
15.6132596393
 20
11.3132883437
 10
15.6201235115
 20
11.3142414615
 10
15.6263246586
 20
11.3169395096
 10
15.6312609392
 20
11.320841734
 10
15.63490939
 20
11.3255163619
 10
15.6372254274
 20
11.3303020062
  0
LINE
  5
254
100
AcDbEntity
  8
0
100
AcDbLine
 62
7
  6
CONTINUOUS
 10
15.5969194569
 20
11.3132880634
 11
15.6132655278
 21
11.3132880634
  0
LWPOLYLINE
  5
255
100
AcDbEntity
  8
0
100
AcDbPolyline
 62
7
  6
CONTINUOUS
 90
6
 70
0
 10
15.734292801
 20
11.7049517985
 10
15.7411566732
 20
11.7059049163
 10
15.7473578203
 20
11.7086029644
 10
15.7522941009
 20
11.7125051888
 10
15.7559425517
 20
11.7171798168
 10
15.7582585891
 20
11.721965461
  0
LINE
  5
256
100
AcDbEntity
  8
0
100
AcDbLine
 62
7
  6
CONTINUOUS
 10
15.7179526186
 20
11.7049515182
 11
15.7342986895
 21
11.7049515182
  0
LINE
  5
257
100
AcDbEntity
  8
0
100
AcDbLine
 62
7
  6
CONTINUOUS
 10
15.4465813367
 20
10.9672826718
 11
15.431902388
 21
10.9971952243
  0
LINE
  5
258
100
AcDbEntity
  8
0
100
AcDbLine
 62
7
  6
CONTINUOUS
 10
14.5099823978
 20
11.0045764086
 11
15.4782476914
 21
14.1378840471
  0
LWPOLYLINE
  5
259
100
AcDbEntity
  8
0
100
AcDbPolyline
 62
7
  6
CONTINUOUS
 90
6
 70
0
 10
15.8553259627
 20
12.0966152533
 10
15.8621898349
 20
12.0975683711
 10
15.868390982
 20
12.1002664192
 10
15.8733272626
 20
12.1041686436
 10
15.8769757134
 20
12.1088432716
 10
15.8792917508
 20
12.1136289158
  0
LINE
  5
25A
100
AcDbEntity
  8
0
100
AcDbLine
 62
7
  6
CONTINUOUS
 10
15.8389857803
 20
12.096614973
 11
15.8553318512
 21
12.096614973
  0
LINE
  5
25B
100
AcDbEntity
  8
0
100
AcDbLine
 62
7
  6
CONTINUOUS
 10
15.4643477804
 20
10.8881419037
 11
15.4507095615
 21
10.9554217945
  0
LINE
  5
25C
100
AcDbEntity
  8
0
100
AcDbLine
 62
7
  6
CONTINUOUS
 10
15.5618346882
 20
11.0944995716
 11
15.5570962039
 21
11.1487266614
  0
LWPOLYLINE
  5
25D
100
AcDbEntity
  8
0
100
AcDbPolyline
 62
7
  6
CONTINUOUS
 90
8
 70
0
 10
15.5570956861
 20
11.1487339116
 10
15.5569845896
 20
11.1501509332
 10
15.5567393679
 20
11.1591268807
 10
15.5572256334
 20
11.1701579186
 10
15.5585127228
 20
11.1820039675
 10
15.5604647427
 20
11.1932757118
 10
15.5627601617
 20
11.2026743271
 10
15.5633412524
 20
11.2046302458
  0
LWPOLYLINE
  5
25E
100
AcDbEntity
  8
0
100
AcDbPolyline
 62
7
  6
CONTINUOUS
 90
6
 70
0
 10
15.9763591244
 20
12.4882787081
 10
15.9832229966
 20
12.4892318259
 10
15.9894241437
 20
12.4919298741
 10
15.9943604243
 20
12.4958320985
 10
15.9980088751
 20
12.5005067264
 10
16.0003249125
 20
12.5052923706
  0
LINE
  5
25F
100
AcDbEntity
  8
0
100
AcDbLine
 62
7
  6
CONTINUOUS
 10
15.960018942
 20
12.4882784278
 11
15.9763650129
 21
12.4882784278
  0
LINE
  5
260
100
AcDbEntity
  8
0
100
AcDbLine
 62
7
  6
CONTINUOUS
 10
15.6828678499
 20
11.4861630264
 11
15.6781293656
 21
11.5403901162
  0
LWPOLYLINE
  5
261
100
AcDbEntity
  8
0
100
AcDbPolyline
 62
7
  6
CONTINUOUS
 90
8
 70
0
 10
15.6781288478
 20
11.5403973664
 10
15.6780177513
 20
11.541814388
 10
15.6777725296
 20
11.5507903355
 10
15.6782587951
 20
11.5618213735
 10
15.6795458845
 20
11.5736674223
 10
15.6814979044
 20
11.5849391666
 10
15.6837933234
 20
11.5943377819
 10
15.6843744141
 20
11.5962937006
  0
LINE
  5
262
100
AcDbEntity
  8
0
100
AcDbLine
 62
7
  6
CONTINUOUS
 10
15.5619057688
 20
11.0900076547
 11
15.5618368992
 21
11.0944742353
  0
LINE
  5
263
100
AcDbEntity
  8
0
100
AcDbLine
 62
7
  6
CONTINUOUS
 10
15.4641743004
 20
10.8837260683
 11
15.4643477804
 21
10.8881419037
  0
LINE
  5
264
100
AcDbEntity
  8
0
100
AcDbLine
 62
7
  6
CONTINUOUS
 10
15.6829389305
 20
11.4816711095
 11
15.6828700609
 21
11.4861376901
  0
LINE
  5
265
100
AcDbEntity
  8
0
100
AcDbLine
 62
7
  6
CONTINUOUS
 10
16.3364971214
 20
13.7044252744
 11
16.3367768745
 21
13.7049082879
  0
LINE
  5
266
100
AcDbEntity
  8
0
100
AcDbLine
 62
7
  6
CONTINUOUS
 10
16.2154639597
 20
13.3127618196
 11
16.2157437127
 21
13.3132448331
  0
LINE
  5
267
100
AcDbEntity
  8
0
100
AcDbLine
 62
7
  6
CONTINUOUS
 10
15.8039010116
 20
11.8778264812
 11
15.7991625273
 21
11.932053571
  0
LWPOLYLINE
  5
268
100
AcDbEntity
  8
0
100
AcDbPolyline
 62
7
  6
CONTINUOUS
 90
8
 70
0
 10
15.7991620095
 20
11.9320608212
 10
15.799050913
 20
11.9334778428
 10
15.7988056913
 20
11.9424537904
 10
15.7992919568
 20
11.9534848283
 10
15.8005790462
 20
11.9653308772
 10
15.8025310661
 20
11.9766026215
 10
15.8048264851
 20
11.9860012367
 10
15.8054075758
 20
11.9879571554
  0
LINE
  5
269
100
AcDbEntity
  8
0
100
AcDbLine
 62
7
  6
CONTINUOUS
 10
15.8039720922
 20
11.8733345643
 11
15.8039032226
 21
11.8778011449
  0
LINE
  5
26A
100
AcDbEntity
  8
0
100
AcDbLine
 62
7
  6
CONTINUOUS
 10
16.094430798
 20
12.9210983648
 11
16.094710551
 21
12.9215813782
  0
LWPOLYLINE
  5
26B
100
AcDbEntity
  8
0
100
AcDbPolyline
 62
7
  6
CONTINUOUS
 90
6
 70
0
 10
16.0973922861
 20
12.8799421629
 10
16.1042561583
 20
12.8808952807
 10
16.1104573054
 20
12.8835933289
 10
16.115393586
 20
12.8874955533
 10
16.1190420368
 20
12.8921701812
 10
16.1213580742
 20
12.8969558254
  0
LINE
  5
26C
100
AcDbEntity
  8
0
100
AcDbLine
 62
7
  6
CONTINUOUS
 10
16.0810521037
 20
12.8799418826
 11
16.0973981746
 21
12.8799418826
  0
LINE
  5
26D
100
AcDbEntity
  8
0
100
AcDbLine
 62
7
  6
CONTINUOUS
 10
15.9249341733
 20
12.269489936
 11
15.920195689
 21
12.3237170258
  0
LWPOLYLINE
  5
26E
100
AcDbEntity
  8
0
100
AcDbPolyline
 62
7
  6
CONTINUOUS
 90
8
 70
0
 10
15.9201951712
 20
12.323724276
 10
15.9200840747
 20
12.3251412976
 10
15.919838853
 20
12.3341172452
 10
15.9203251185
 20
12.3451482831
 10
15.9216122079
 20
12.356994332
 10
15.9235642278
 20
12.3682660763
 10
15.9258596468
 20
12.3776646915
 10
15.9264407375
 20
12.3796206102
  0
LINE
  5
26F
100
AcDbEntity
  8
0
100
AcDbLine
 62
7
  6
CONTINUOUS
 10
15.9250052539
 20
12.2649980191
 11
15.9249363843
 21
12.2694645997
  0
LWPOLYLINE
  5
270
100
AcDbEntity
  8
0
100
AcDbPolyline
 62
7
  6
CONTINUOUS
 90
3
 70
0
 10
15.5604574617
 20
11.0817242018
 10
15.5613980721
 20
11.0856101591
 10
15.5619057688
 20
11.0900076547
  0
LWPOLYLINE
  5
271
100
AcDbEntity
  8
0
100
AcDbPolyline
 62
7
  6
CONTINUOUS
 90
3
 70
0
 10
15.6814906234
 20
11.4733876567
 10
15.6824312338
 20
11.4772736139
 10
15.6829389305
 20
11.4816711095
  0
LWPOLYLINE
  5
272
100
AcDbEntity
  8
0
100
AcDbPolyline
 62
7
  6
CONTINUOUS
 90
3
 70
0
 10
15.8025237851
 20
11.8650511115
 10
15.8034643955
 20
11.8689370687
 10
15.8039720922
 20
11.8733345643
  0
LWPOLYLINE
  5
273
100
AcDbEntity
  8
0
100
AcDbPolyline
 62
7
  6
CONTINUOUS
 90
3
 70
0
 10
15.9235569468
 20
12.2567145663
 10
15.9244975572
 20
12.2606005235
 10
15.9250052539
 20
12.2649980191
  0
LINE
  5
274
100
AcDbEntity
  8
0
100
AcDbLine
 62
7
  6
CONTINUOUS
 10
15.4641747205
 20
10.8837259387
 11
15.486038876
 21
10.954478372
  0
LINE
  5
275
100
AcDbEntity
  8
0
100
AcDbLine
 62
7
  6
CONTINUOUS
 10
15.5633437262
 20
11.2046369591
 11
15.6070720377
 21
11.3461418269
  0
LINE
  5
276
100
AcDbEntity
  8
0
100
AcDbLine
 62
7
  6
CONTINUOUS
 10
15.6843768879
 20
11.5963004139
 11
15.7281051994
 21
11.7378052817
  0
LINE
  5
277
100
AcDbEntity
  8
0
100
AcDbLine
 62
7
  6
CONTINUOUS
 10
15.8054100496
 20
11.9879638687
 11
15.8491383611
 21
12.1294687365
  0
LINE
  5
278
100
AcDbEntity
  8
0
100
AcDbLine
 62
7
  6
CONTINUOUS
 10
15.9264432114
 20
12.3796273235
 11
15.9701715228
 21
12.5211321913
  0
LINE
  5
279
100
AcDbEntity
  8
0
100
AcDbLine
 62
7
  6
CONTINUOUS
 10
16.0474763731
 20
12.7712907783
 11
16.0912046845
 21
12.9127956461
  0
LINE
  5
27A
100
AcDbEntity
  8
0
100
AcDbLine
 62
7
  6
CONTINUOUS
 10
16.1685095348
 20
13.1629542332
 11
16.2122378462
 21
13.3044591009
  0
LINE
  5
27B
100
AcDbEntity
  8
0
100
AcDbLine
 62
7
  6
CONTINUOUS
 10
16.2895426965
 20
13.554617688
 11
16.3332710079
 21
13.6961225557
  0
LINE
  5
27C
100
AcDbEntity
  8
0
100
AcDbLine
 62
7
  6
CONTINUOUS
 10
16.4105758582
 20
13.9462811428
 11
16.4324400141
 21
14.0170335772
  0
LINE
  5
27D
100
AcDbEntity
  8
0
100
AcDbLine
 62
7
  6
CONTINUOUS
 10
15.5167297794
 20
10.9402209319
 11
15.5604580959
 21
11.0817258162
  0
LINE
  5
27E
100
AcDbEntity
  8
0
100
AcDbLine
 62
7
  6
CONTINUOUS
 10
15.6377629411
 20
11.3318843867
 11
15.6814912576
 21
11.473389271
  0
LINE
  5
27F
100
AcDbEntity
  8
0
100
AcDbLine
 62
7
  6
CONTINUOUS
 10
15.7587961028
 20
11.7235478415
 11
15.8025244193
 21
11.8650527258
  0
LINE
  5
280
100
AcDbEntity
  8
0
100
AcDbLine
 62
7
  6
CONTINUOUS
 10
15.8798292645
 20
12.1152112963
 11
15.923557581
 21
12.2567161806
  0
LINE
  5
281
100
AcDbEntity
  8
0
100
AcDbLine
 62
7
  6
CONTINUOUS
 10
16.0008624262
 20
12.5068747511
 11
16.0445907427
 21
12.6483796354
  0
LINE
  5
282
100
AcDbEntity
  8
0
100
AcDbLine
 62
7
  6
CONTINUOUS
 10
16.1218955879
 20
12.8985382059
 11
16.1656239045
 21
13.0400430902
  0
LINE
  5
283
100
AcDbEntity
  8
0
100
AcDbLine
 62
7
  6
CONTINUOUS
 10
16.2429287496
 20
13.2902016608
 11
16.2866570662
 21
13.4317065451
  0
LINE
  5
284
100
AcDbEntity
  8
0
100
AcDbLine
 62
7
  6
CONTINUOUS
 10
16.3639619113
 20
13.6818651156
 11
16.4076902279
 21
13.8233699999
  0
LINE
  5
285
100
AcDbEntity
  8
0
100
AcDbLine
 62
7
  6
CONTINUOUS
 10
16.3634243976
 20
13.680282735
 11
16.3639619392
 21
13.6818651865
  0
LINE
  5
286
100
AcDbEntity
  8
0
100
AcDbLine
 62
7
  6
CONTINUOUS
 10
16.2423912359
 20
13.2886192802
 11
16.2429287775
 21
13.2902017316
  0
LINE
  5
287
100
AcDbEntity
  8
0
100
AcDbLine
 62
7
  6
CONTINUOUS
 10
16.1213580742
 20
12.8969558254
 11
16.1218956158
 21
12.8985382768
  0
LINE
  5
288
100
AcDbEntity
  8
0
100
AcDbLine
 62
7
  6
CONTINUOUS
 10
16.0003249125
 20
12.5052923706
 11
16.0008624541
 21
12.506874822
  0
LINE
  5
289
100
AcDbEntity
  8
0
100
AcDbLine
 62
7
  6
CONTINUOUS
 10
15.8792917508
 20
12.1136289158
 11
15.8798292924
 21
12.1152113672
  0
LWPOLYLINE
  5
28A
100
AcDbEntity
  8
0
100
AcDbPolyline
 62
7
  6
CONTINUOUS
 90
3
 70
0
 10
16.3332716962
 20
13.6961249229
 10
16.3351817604
 20
13.7015613543
 10
16.3364971214
 20
13.7044252744
  0
LWPOLYLINE
  5
28B
100
AcDbEntity
  8
0
100
AcDbPolyline
 62
7
  6
CONTINUOUS
 90
3
 70
0
 10
16.2122385345
 20
13.304461468
 10
16.2141485987
 20
13.3098978995
 10
16.2154639597
 20
13.3127618196
  0
LWPOLYLINE
  5
28C
100
AcDbEntity
  8
0
100
AcDbPolyline
 62
7
  6
CONTINUOUS
 90
3
 70
0
 10
16.0912053728
 20
12.9127980132
 10
16.093115437
 20
12.9182344446
 10
16.094430798
 20
12.9210983648
  0
LWPOLYLINE
  5
28D
100
AcDbEntity
  8
0
100
AcDbPolyline
 62
7
  6
CONTINUOUS
 90
3
 70
0
 10
15.9701722111
 20
12.5211345584
 10
15.9720822753
 20
12.5265709898
 10
15.9733976363
 20
12.52943491
  0
LWPOLYLINE
  5
28E
100
AcDbEntity
  8
0
100
AcDbPolyline
 62
7
  6
CONTINUOUS
 90
3
 70
0
 10
15.8491390494
 20
12.1294711036
 10
15.8510491136
 20
12.134907535
 10
15.8523644746
 20
12.1377714552
  0
LWPOLYLINE
  5
28F
100
AcDbEntity
  8
0
100
AcDbPolyline
 62
7
  6
CONTINUOUS
 90
3
 70
0
 10
15.7281058877
 20
11.7378076488
 10
15.7300159519
 20
11.7432440802
 10
15.7313313129
 20
11.7461080003
  0
LWPOLYLINE
  5
290
100
AcDbEntity
  8
0
100
AcDbPolyline
 62
7
  6
CONTINUOUS
 90
3
 70
0
 10
15.607072726
 20
11.346144194
 10
15.6089827902
 20
11.3515806254
 10
15.6102981512
 20
11.3544445455
  0
LINE
  5
291
100
AcDbEntity
  8
0
100
AcDbLine
 62
7
  6
CONTINUOUS
 10
15.9733976363
 20
12.52943491
 11
15.9736773893
 21
12.5299179234
  0
LINE
  5
292
100
AcDbEntity
  8
0
100
AcDbLine
 62
7
  6
CONTINUOUS
 10
15.8523644746
 20
12.1377714552
 11
15.8526442276
 21
12.1382544686
  0
LINE
  5
293
100
AcDbEntity
  8
0
100
AcDbLine
 62
7
  6
CONTINUOUS
 10
16.045967335
 20
12.6611533908
 11
16.0412288507
 21
12.7153804806
  0
LWPOLYLINE
  5
294
100
AcDbEntity
  8
0
100
AcDbPolyline
 62
7
  6
CONTINUOUS
 90
8
 70
0
 10
16.0412283329
 20
12.7153877309
 10
16.0411172364
 20
12.7168047525
 10
16.0408720147
 20
12.7257807
 10
16.0413582802
 20
12.7368117379
 10
16.0426453697
 20
12.7486577868
 10
16.0445973895
 20
12.7599295311
 10
16.0468928085
 20
12.7693281464
 10
16.0474738992
 20
12.771284065
  0
LINE
  5
295
100
AcDbEntity
  8
0
100
AcDbLine
 62
7
  6
CONTINUOUS
 10
16.0460384156
 20
12.6566614739
 11
16.045969546
 21
12.6611280545
  0
LWPOLYLINE
  5
296
100
AcDbEntity
  8
0
100
AcDbPolyline
 62
7
  6
CONTINUOUS
 90
3
 70
0
 10
16.0445901085
 20
12.6483780211
 10
16.0455307189
 20
12.6522639783
 10
16.0460384156
 20
12.6566614739
  0
LWPOLYLINE
  5
297
100
AcDbEntity
  8
0
100
AcDbPolyline
 62
7
  6
CONTINUOUS
 90
3
 70
0
 10
16.1656232702
 20
13.0400414759
 10
16.1665638806
 20
13.0439274331
 10
16.1670715773
 20
13.0483249287
  0
LWPOLYLINE
  5
298
100
AcDbEntity
  8
0
100
AcDbPolyline
 62
7
  6
CONTINUOUS
 90
3
 70
0
 10
16.2866564319
 20
13.4317049307
 10
16.2875970423
 20
13.435590888
 10
16.288104739
 20
13.4399883836
  0
LWPOLYLINE
  5
299
100
AcDbEntity
  8
0
100
AcDbPolyline
 62
7
  6
CONTINUOUS
 90
3
 70
0
 10
16.4076895936
 20
13.8233683855
 10
16.408630204
 20
13.8272543428
 10
16.4091379007
 20
13.8316518384
  0
LINE
  5
29A
100
AcDbEntity
  8
0
100
AcDbLine
 62
7
  6
CONTINUOUS
 10
15.7582585891
 20
11.721965461
 11
15.7587961307
 21
11.7235479124
  0
LINE
  5
29B
100
AcDbEntity
  8
0
100
AcDbLine
 62
7
  6
CONTINUOUS
 10
15.6372254274
 20
11.3303020062
 11
15.637762969
 21
11.3318844576
  0
LINE
  5
29C
100
AcDbEntity
  8
0
100
AcDbLine
 62
7
  6
CONTINUOUS
 10
15.5161922657
 20
10.9386385513
 11
15.5167298073
 21
10.9402210028
  0
LWPOLYLINE
  5
29D
100
AcDbEntity
  8
0
100
AcDbPolyline
 62
7
  6
CONTINUOUS
 90
3
 70
0
 10
15.4860395642
 20
10.9544807392
 10
15.4879496285
 20
10.9599171706
 10
15.4892649895
 20
10.9627810907
  0
LINE
  5
29E
100
AcDbEntity
  8
0
100
AcDbLine
 62
7
  6
CONTINUOUS
 10
15.7313313129
 20
11.7461080003
 11
15.7316110659
 21
11.7465910138
  0
LINE
  5
29F
100
AcDbEntity
  8
0
100
AcDbLine
 62
7
  6
CONTINUOUS
 10
16.1670004967
 20
13.0528168457
 11
16.1622620124
 21
13.1070439354
  0
LWPOLYLINE
  5
2A0
100
AcDbEntity
  8
0
100
AcDbPolyline
 62
7
  6
CONTINUOUS
 90
8
 70
0
 10
16.1622614946
 20
13.1070511857
 10
16.1621503981
 20
13.1084682073
 10
16.1619051764
 20
13.1174441548
 10
16.1623914419
 20
13.1284751927
 10
16.1636785314
 20
13.1403212416
 10
16.1656305512
 20
13.1515929859
 10
16.1679259702
 20
13.1609916012
 10
16.1685070609
 20
13.1629475198
  0
LINE
  5
2A1
100
AcDbEntity
  8
0
100
AcDbLine
 62
7
  6
CONTINUOUS
 10
16.1670715773
 20
13.0483249287
 11
16.1670027077
 21
13.0527915093
  0
LINE
  5
2A2
100
AcDbEntity
  8
0
100
AcDbLine
 62
7
  6
CONTINUOUS
 10
15.6102981512
 20
11.3544445455
 11
15.6105779042
 21
11.354927559
  0
LWPOLYLINE
  5
2A3
100
AcDbEntity
  8
0
100
AcDbPolyline
 62
7
  6
CONTINUOUS
 90
6
 70
0
 10
16.2184254478
 20
13.2716056177
 10
16.22528932
 20
13.2725587356
 10
16.2314904671
 20
13.2752567837
 10
16.2364267477
 20
13.2791590081
 10
16.2400751985
 20
13.283833636
 10
16.2423912359
 20
13.2886192802
  0
LINE
  5
2A4
100
AcDbEntity
  8
0
100
AcDbLine
 62
7
  6
CONTINUOUS
 10
16.2020852654
 20
13.2716053375
 11
16.2184313363
 21
13.2716053375
  0
LINE
  5
2A5
100
AcDbEntity
  8
0
100
AcDbLine
 62
7
  6
CONTINUOUS
 10
16.2880336584
 20
13.4444803005
 11
16.2832951741
 21
13.4987073903
  0
LWPOLYLINE
  5
2A6
100
AcDbEntity
  8
0
100
AcDbPolyline
 62
7
  6
CONTINUOUS
 90
8
 70
0
 10
16.2832946563
 20
13.4987146405
 10
16.2831835598
 20
13.5001316621
 10
16.2829383381
 20
13.5091076096
 10
16.2834246036
 20
13.5201386475
 10
16.2847116931
 20
13.5319846964
 10
16.2866637129
 20
13.5432564407
 10
16.2889591319
 20
13.552655056
 10
16.2895402226
 20
13.5546109746
  0
LINE
  5
2A7
100
AcDbEntity
  8
0
100
AcDbLine
 62
7
  6
CONTINUOUS
 10
16.288104739
 20
13.4399883836
 11
16.2880358694
 21
13.4444549642
  0
LINE
  5
2A8
100
AcDbEntity
  8
0
100
AcDbLine
 62
7
  6
CONTINUOUS
 10
16.432613074
 20
14.0214495422
 11
16.432439594
 21
14.0170337068
  0
LINE
  5
2A9
100
AcDbEntity
  8
0
100
AcDbLine
 62
7
  6
CONTINUOUS
 10
15.4892649895
 20
10.9627810907
 11
15.4895447425
 21
10.9632641042
  0
LINE
  5
2AA
100
AcDbEntity
  8
0
100
AcDbLine
 62
7
  6
CONTINUOUS
 10
16.4091379007
 20
13.8316518384
 11
16.4090690311
 21
13.836118419
  0
LWPOLYLINE
  5
2AB
100
AcDbEntity
  8
0
100
AcDbPolyline
 62
7
  6
CONTINUOUS
 90
6
 70
0
 10
16.3394586095
 20
13.6632690725
 10
16.3463224817
 20
13.6642221904
 10
16.3525236288
 20
13.6669202385
 10
16.3574599094
 20
13.6708224629
 10
16.3611083602
 20
13.6754970908
 10
16.3634243976
 20
13.680282735
  0
LINE
  5
2AC
100
AcDbEntity
  8
0
100
AcDbLine
 62
7
  6
CONTINUOUS
 10
16.4090668201
 20
13.8361437553
 11
16.4043283358
 21
13.8903708451
  0
LWPOLYLINE
  5
2AD
100
AcDbEntity
  8
0
100
AcDbPolyline
 62
7
  6
CONTINUOUS
 90
8
 70
0
 10
16.404327818
 20
13.8903780953
 10
16.4042167215
 20
13.8917951169
 10
16.4039714998
 20
13.9007710644
 10
16.4044577653
 20
13.9118021023
 10
16.4057448548
 20
13.9236481512
 10
16.4076968746
 20
13.9349198955
 10
16.4099922936
 20
13.9443185108
 10
16.4105733843
 20
13.9462744295
  0
LINE
  5
2AE
100
AcDbEntity
  8
0
100
AcDbLine
 62
7
  6
CONTINUOUS
 10
16.3231184271
 20
13.6632687923
 11
16.339464498
 21
13.6632687923
  0
LINE
  5
2AF
100
AcDbEntity
  8
0
100
AcDbLine
 62
7
  6
CONTINUOUS
 10
16.432613074
 20
14.0214495422
 11
16.4189748551
 21
14.088729433
  0
LINE
  5
2B0
100
AcDbEntity
  8
0
100
AcDbLine
 62
7
  6
CONTINUOUS
 10
16.3695151101
 20
14.146043112
 11
15.4945071658
 21
14.146043112
  0
LINE
  5
2B1
100
AcDbEntity
  8
0
100
AcDbLine
 62
7
  6
CONTINUOUS
 10
16.4148466304
 20
14.1005903103
 11
16.4001676817
 21
14.1305028628
  0
ARC
  5
2B2
100
AcDbEntity
  8
0
100
AcDbCircle
 62
7
  6
CONTINUOUS
 10
5.6777839701
 20
5.4899532535
 40
0.025
100
AcDbArc
 50
191.0
 51
270.0
  0
ARC
  5
2B3
100
AcDbEntity
  8
0
100
AcDbCircle
 62
7
  6
CONTINUOUS
 10
5.6992305989
 20
5.3796199133
 40
0.025
100
AcDbArc
 50
190.9999840474
 51
269.999996956
  0
ARC
  5
2B4
100
AcDbEntity
  8
0
100
AcDbCircle
 62
7
  6
CONTINUOUS
 10
5.7303672762
 20
5.612498825
 40
0.1
100
AcDbArc
 50
180.0
 51
191.0
  0
ARC
  5
2B5
100
AcDbEntity
  8
0
100
AcDbCircle
 62
7
  6
CONTINUOUS
 10
5.6553672762
 20
5.6606199202
 40
0.025
100
AcDbArc
 50
90.0
 51
180.0
  0
ARC
  5
2B6
100
AcDbEntity
  8
0
100
AcDbCircle
 62
7
  6
CONTINUOUS
 10
6.5829505822
 20
5.4899532535
 40
0.025
100
AcDbArc
 50
270.0
 51
349.0
  0
ARC
  5
2B7
100
AcDbEntity
  8
0
100
AcDbCircle
 62
7
  6
CONTINUOUS
 10
6.5615039548
 20
5.3796199202
 40
0.025
100
AcDbArc
 50
270.0
 51
349.0
  0
ARC
  5
2B8
100
AcDbEntity
  8
0
100
AcDbCircle
 62
7
  6
CONTINUOUS
 10
6.5303672762
 20
5.612498825
 40
0.1
100
AcDbArc
 50
349.0
 51
360.0
  0
ARC
  5
2B9
100
AcDbEntity
  8
0
100
AcDbCircle
 62
7
  6
CONTINUOUS
 10
6.6053672762
 20
5.6606199202
 40
0.025
100
AcDbArc
 50
0.0
 51
90.0
  0
ARC
  5
2BA
100
AcDbEntity
  8
0
100
AcDbCircle
 62
7
  6
CONTINUOUS
 10
13.7200322595
 20
5.3227080612
 40
0.0275833333
100
AcDbArc
 50
193.0
 51
270.0
  0
ARC
  5
2BB
100
AcDbEntity
  8
0
100
AcDbCircle
 62
7
  6
CONTINUOUS
 10
13.9006782544
 20
5.3227080612
 40
0.0275833333
100
AcDbArc
 50
270.0
 51
347.0
  0
ARC
  5
2BC
100
AcDbEntity
  8
0
100
AcDbCircle
 62
7
  6
CONTINUOUS
 10
14.2200322595
 20
5.3227080612
 40
0.0275833333
100
AcDbArc
 50
193.0
 51
270.0
  0
ARC
  5
2BD
100
AcDbEntity
  8
0
100
AcDbCircle
 62
7
  6
CONTINUOUS
 10
14.4006782544
 20
5.3227080612
 40
0.0275833333
100
AcDbArc
 50
270.0
 51
347.0
  0
ARC
  5
2BE
100
AcDbEntity
  8
0
100
AcDbCircle
 62
7
  6
CONTINUOUS
 10
14.7200322595
 20
5.3227080612
 40
0.0275833333
100
AcDbArc
 50
193.0
 51
270.0
  0
ARC
  5
2BF
100
AcDbEntity
  8
0
100
AcDbCircle
 62
7
  6
CONTINUOUS
 10
14.9006782544
 20
5.3227080612
 40
0.0275833333
100
AcDbArc
 50
270.0
 51
347.0
  0
ARC
  5
2C0
100
AcDbEntity
  8
0
100
AcDbCircle
 62
7
  6
CONTINUOUS
 10
15.2200322595
 20
5.3227080612
 40
0.0275833333
100
AcDbArc
 50
193.0
 51
270.0
  0
ARC
  5
2C1
100
AcDbEntity
  8
0
100
AcDbCircle
 62
7
  6
CONTINUOUS
 10
15.4006782544
 20
5.3227080612
 40
0.0275833333
100
AcDbArc
 50
270.0
 51
347.0
  0
ARC
  5
2C2
100
AcDbEntity
  8
0
100
AcDbCircle
 62
7
  6
CONTINUOUS
 10
13.6506782544
 20
5.3778747279
 40
0.0275833333
100
AcDbArc
 50
13.0
 51
90.0
  0
ARC
  5
2C3
100
AcDbEntity
  8
0
100
AcDbCircle
 62
7
  6
CONTINUOUS
 10
13.9700322595
 20
5.3778747279
 40
0.0275833333
100
AcDbArc
 50
90.0
 51
167.0
  0
ARC
  5
2C4
100
AcDbEntity
  8
0
100
AcDbCircle
 62
7
  6
CONTINUOUS
 10
14.1506782544
 20
5.3778747279
 40
0.0275833333
100
AcDbArc
 50
13.0
 51
90.0
  0
ARC
  5
2C5
100
AcDbEntity
  8
0
100
AcDbCircle
 62
7
  6
CONTINUOUS
 10
14.4700322595
 20
5.3778747279
 40
0.0275833333
100
AcDbArc
 50
90.0
 51
167.0
  0
ARC
  5
2C6
100
AcDbEntity
  8
0
100
AcDbCircle
 62
7
  6
CONTINUOUS
 10
14.6506782544
 20
5.3778747279
 40
0.0275833333
100
AcDbArc
 50
13.0
 51
90.0
  0
ARC
  5
2C7
100
AcDbEntity
  8
0
100
AcDbCircle
 62
7
  6
CONTINUOUS
 10
14.9700322595
 20
5.3778747279
 40
0.0275833333
100
AcDbArc
 50
90.0
 51
167.0
  0
ARC
  5
2C8
100
AcDbEntity
  8
0
100
AcDbCircle
 62
7
  6
CONTINUOUS
 10
15.1506782544
 20
5.3778747279
 40
0.0275833333
100
AcDbArc
 50
13.0
 51
90.0
  0
ARC
  5
2C9
100
AcDbEntity
  8
0
100
AcDbCircle
 62
7
  6
CONTINUOUS
 10
15.4700322595
 20
5.3778747279
 40
0.0275833333
100
AcDbArc
 50
90.0
 51
167.0
  0
ARC
  5
2CA
100
AcDbEntity
  8
0
100
AcDbCircle
 62
7
  6
CONTINUOUS
 10
17.4006782544
 20
5.3227080612
 40
0.0275833333
100
AcDbArc
 50
270.0
 51
347.0
  0
ARC
  5
2CB
100
AcDbEntity
  8
0
100
AcDbCircle
 62
7
  6
CONTINUOUS
 10
17.2200322595
 20
5.3227080612
 40
0.0275833333
100
AcDbArc
 50
193.0
 51
270.0
  0
ARC
  5
2CC
100
AcDbEntity
  8
0
100
AcDbCircle
 62
7
  6
CONTINUOUS
 10
16.9006782544
 20
5.3227080612
 40
0.0275833333
100
AcDbArc
 50
270.0
 51
347.0
  0
ARC
  5
2CD
100
AcDbEntity
  8
0
100
AcDbCircle
 62
7
  6
CONTINUOUS
 10
16.7200322595
 20
5.3227080612
 40
0.0275833333
100
AcDbArc
 50
193.0
 51
270.0
  0
ARC
  5
2CE
100
AcDbEntity
  8
0
100
AcDbCircle
 62
7
  6
CONTINUOUS
 10
16.4006782544
 20
5.3227080612
 40
0.0275833333
100
AcDbArc
 50
270.0
 51
347.0
  0
ARC
  5
2CF
100
AcDbEntity
  8
0
100
AcDbCircle
 62
7
  6
CONTINUOUS
 10
16.2200322595
 20
5.3227080612
 40
0.0275833333
100
AcDbArc
 50
193.0
 51
270.0
  0
ARC
  5
2D0
100
AcDbEntity
  8
0
100
AcDbCircle
 62
7
  6
CONTINUOUS
 10
15.9006782544
 20
5.3227080612
 40
0.0275833333
100
AcDbArc
 50
270.0
 51
347.0
  0
ARC
  5
2D1
100
AcDbEntity
  8
0
100
AcDbCircle
 62
7
  6
CONTINUOUS
 10
15.7200322595
 20
5.3227080612
 40
0.0275833333
100
AcDbArc
 50
193.0
 51
270.0
  0
ARC
  5
2D2
100
AcDbEntity
  8
0
100
AcDbCircle
 62
7
  6
CONTINUOUS
 10
17.4700322595
 20
5.3778747279
 40
0.0275833333
100
AcDbArc
 50
90.0
 51
167.0
  0
ARC
  5
2D3
100
AcDbEntity
  8
0
100
AcDbCircle
 62
7
  6
CONTINUOUS
 10
17.1506782544
 20
5.3778747279
 40
0.0275833333
100
AcDbArc
 50
13.0
 51
90.0
  0
ARC
  5
2D4
100
AcDbEntity
  8
0
100
AcDbCircle
 62
7
  6
CONTINUOUS
 10
16.9700322595
 20
5.3778747279
 40
0.0275833333
100
AcDbArc
 50
90.0
 51
167.0
  0
ARC
  5
2D5
100
AcDbEntity
  8
0
100
AcDbCircle
 62
7
  6
CONTINUOUS
 10
16.6506782544
 20
5.3778747279
 40
0.0275833333
100
AcDbArc
 50
13.0
 51
90.0
  0
ARC
  5
2D6
100
AcDbEntity
  8
0
100
AcDbCircle
 62
7
  6
CONTINUOUS
 10
16.4700322595
 20
5.3778747279
 40
0.0275833333
100
AcDbArc
 50
90.0
 51
167.0
  0
ARC
  5
2D7
100
AcDbEntity
  8
0
100
AcDbCircle
 62
7
  6
CONTINUOUS
 10
16.1506782544
 20
5.3778747279
 40
0.0275833333
100
AcDbArc
 50
13.0
 51
90.0
  0
ARC
  5
2D8
100
AcDbEntity
  8
0
100
AcDbCircle
 62
7
  6
CONTINUOUS
 10
15.9700322595
 20
5.3778747279
 40
0.0275833333
100
AcDbArc
 50
90.0
 51
167.0
  0
ARC
  5
2D9
100
AcDbEntity
  8
0
100
AcDbCircle
 62
7
  6
CONTINUOUS
 10
15.6506782544
 20
5.3778747279
 40
0.0275833333
100
AcDbArc
 50
13.0
 51
90.0
  0
SPLINE
  5
2DA
100
AcDbEntity
  8
0
100
AcDbSpline
 62
7
  6
CONTINUOUS
 70
0
 71
3
 72
15
 73
11
 74
0
 42
0.0000001
 43
0.0000001
 44
0.0000000001
 40
0.0
 40
0.0
 40
0.0
 40
0.0
 40
0.1295681724
 40
0.2645751245
 40
0.4012659398
 40
0.5362717456
 40
0.6662158543
 40
0.788101588
 40
0.8998146965
 40
1.0
 40
1.0
 40
1.0
 40
1.0
 10
16.3695151101
 20
14.146043112
 30
0.0
 10
16.3710633645
 20
14.146043112
 30
0.0
 10
16.3742273103
 20
14.1458278898
 30
0.0
 10
16.3789498241
 20
14.1449439917
 30
0.0
 10
16.3836061368
 20
14.1435165415
 30
0.0
 10
16.3880180133
 20
14.1416012235
 30
0.0
 10
16.3920242061
 20
14.1392725306
 30
0.0
 10
16.3954762874
 20
14.1366111916
 30
0.0
 10
16.3982421459
 20
14.1337151524
 30
0.0
 10
16.3996402866
 20
14.1315775808
 30
0.0
 10
16.4001676817
 20
14.1305028628
 30
0.0
  0
SPLINE
  5
2DB
100
AcDbEntity
  8
0
100
AcDbSpline
 62
7
  6
CONTINUOUS
 70
0
 71
3
 72
15
 73
11
 74
0
 42
0.0000001
 43
0.0000001
 44
0.0000000001
 40
0.0
 40
0.0
 40
0.0
 40
0.0
 40
0.0996463299
 40
0.2028722733
 40
0.3125945718
 40
0.4308579081
 40
0.5588164954
 40
0.6968323017
 40
0.8443987385
 40
1.0
 40
1.0
 40
1.0
 40
1.0
 10
15.4782476799
 20
14.1378840544
 30
0.0
 10
15.478437795
 20
14.1384992975
 30
0.0
 10
15.4789764318
 20
14.1397102435
 30
0.0
 10
15.4802074198
 20
14.1413311916
 30
0.0
 10
15.4818308121
 20
14.1427463576
 30
0.0
 10
15.4838149855
 20
14.1439304135
 30
0.0
 10
15.4861225326
 20
14.1448690432
 30
0.0
 10
15.4887141431
 20
14.1455477744
 30
0.0
 10
15.4915410122
 20
14.1459554321
 30
0.0
 10
15.4935016198
 20
14.146043112
 30
0.0
 10
15.4945071658
 20
14.146043112
 30
0.0
  0
SPLINE
  5
2DC
100
AcDbEntity
  8
0
100
AcDbSpline
 62
7
  6
CONTINUOUS
 70
0
 71
3
 72
11
 73
7
 74
0
 42
0.0000001
 43
0.0000001
 44
0.0000000001
 40
0.0
 40
0.0
 40
0.0
 40
0.0
 40
0.2336953937
 40
0.4747286896
 40
0.7289545117
 40
1.0
 40
1.0
 40
1.0
 40
1.0
 10
14.5099823862
 20
11.0045764159
 30
0.0
 10
14.5098075314
 20
11.0040105576
 30
0.0
 10
14.5095772186
 20
11.0028184089
 30
0.0
 10
14.5096195017
 20
11.0009591299
 30
0.0
 10
14.5100373128
 20
10.9990519572
 30
0.0
 10
14.5105387785
 20
10.9978118898
 30
0.0
 10
14.510841394
 20
10.9971952243
 30
0.0
  0
SPLINE
  5
2DD
100
AcDbEntity
  8
0
100
AcDbSpline
 62
7
  6
CONTINUOUS
 70
0
 71
3
 72
9
 73
5
 74
0
 42
0.0000001
 43
0.0000001
 44
0.0000000001
 40
0.0
 40
0.0
 40
0.0
 40
0.0
 40
0.5134075836
 40
1.0
 40
1.0
 40
1.0
 40
1.0
 10
16.4148466304
 20
14.1005903103
 30
0.0
 10
16.4157954121
 20
14.0986568965
 30
0.0
 10
16.4174360021
 20
14.094784102
 30
0.0
 10
16.4185693378
 20
14.090729926
 30
0.0
 10
16.4189748551
 20
14.088729433
 30
0.0
  0
SPLINE
  5
2DE
100
AcDbEntity
  8
0
100
AcDbSpline
 62
7
  6
CONTINUOUS
 70
0
 71
3
 72
14
 73
10
 74
0
 42
0.0000001
 43
0.0000001
 44
0.0000000001
 40
0.0
 40
0.0
 40
0.0
 40
0.0
 40
0.1555865784
 40
0.3032330957
 40
0.568864102
 40
0.6871850182
 40
0.7969112346
 40
0.9001856881
 40
1.0
 40
1.0
 40
1.0
 40
1.0
 10
15.447915246
 20
10.8755668738
 30
0.0
 10
15.4489201171
 20
10.8755668738
 30
0.0
 10
15.450880889
 20
10.8756548499
 30
0.0
 10
15.4545189575
 20
10.8761796215
 30
0.0
 10
15.4578402484
 20
10.8772236886
 30
0.0
 10
15.4605908192
 20
10.8788626401
 30
0.0
 10
15.4622145915
 20
10.8802770434
 30
0.0
 10
15.4634449348
 20
10.88189862
 30
0.0
 10
15.4639845656
 20
10.8831099614
 30
0.0
 10
15.4641741681
 20
10.8837261091
 30
0.0
  0
SPLINE
  5
2DF
100
AcDbEntity
  8
0
100
AcDbSpline
 62
7
  6
CONTINUOUS
 70
0
 71
3
 72
15
 73
11
 74
0
 42
0.0000001
 43
0.0000001
 44
0.0000000001
 40
0.0
 40
0.0
 40
0.0
 40
0.0
 40
0.1075853387
 40
0.2244576334
 40
0.3487077285
 40
0.4782296224
 40
0.6107080481
 40
0.743638437
 40
0.8743956639
 40
1.0
 40
1.0
 40
1.0
 40
1.0
 10
14.5854271954
 20
10.8881419037
 30
0.0
 10
14.5861398542
 20
10.8872267705
 30
0.0
 10
14.5877930371
 20
10.8854446965
 30
0.0
 10
14.5907040899
 20
10.8830514728
 30
0.0
 10
14.5940795825
 20
10.8808965179
 30
0.0
 10
14.5978140847
 20
10.8790378088
 30
0.0
 10
14.601803806
 20
10.8775312553
 30
0.0
 10
14.605934101
 20
10.8764160907
 30
0.0
 10
14.6100819083
 20
10.8757327301
 30
0.0
 10
14.6128474284
 20
10.8755668738
 30
0.0
 10
14.6142015865
 20
10.8755668738
 30
0.0
  0
SPLINE
  5
2E0
100
AcDbEntity
  8
0
100
AcDbSpline
 62
7
  6
CONTINUOUS
 70
0
 71
3
 72
9
 73
5
 74
0
 42
0.0000001
 43
0.0000001
 44
0.0000000001
 40
0.0
 40
0.0
 40
0.0
 40
0.0
 40
0.2397652039
 40
1.0
 40
1.0
 40
1.0
 40
1.0
 10
14.5255203427
 20
10.9672826718
 30
0.0
 10
14.5260151768
 20
10.9662743059
 30
0.0
 10
14.5282011723
 20
10.9621289073
 30
0.0
 10
14.530844814
 20
10.9582317513
 30
0.0
 10
14.5330330644
 20
10.9554217945
 30
0.0
  0
SPLINE
  5
2E1
100
AcDbEntity
  8
0
100
AcDbSpline
 62
7
  6
CONTINUOUS
 70
0
 71
3
 72
9
 73
5
 74
0
 42
0.0000001
 43
0.0000001
 44
0.0000000001
 40
0.0
 40
0.0
 40
0.0
 40
0.0
 40
0.4865924164
 40
1.0
 40
1.0
 40
1.0
 40
1.0
 10
15.4507095615
 20
10.9554217945
 30
0.0
 10
15.4503040442
 20
10.9574222875
 30
0.0
 10
15.4491707085
 20
10.9614764635
 30
0.0
 10
15.4475301184
 20
10.965349258
 30
0.0
 10
15.4465813367
 20
10.9672826718
 30
0.0
  0
SPLINE
  5
2E2
100
AcDbEntity
  8
0
100
AcDbSpline
 62
7
  6
CONTINUOUS
 70
0
 71
3
 72
15
 73
11
 74
0
 42
0.0000001
 43
0.0000001
 44
0.0000000001
 40
0.0
 40
0.0
 40
0.0
 40
0.0
 40
0.1001853035
 40
0.211898412
 40
0.3337841457
 40
0.4637282544
 40
0.5987340602
 40
0.7354248755
 40
0.8704318276
 40
1.0
 40
1.0
 40
1.0
 40
1.0
 10
15.431902388
 20
10.9971952243
 30
0.0
 10
15.431374993
 20
10.9982699423
 30
0.0
 10
15.4299768523
 20
11.0004075139
 30
0.0
 10
15.4272109938
 20
11.0033035531
 30
0.0
 10
15.4237589125
 20
11.0059648921
 30
0.0
 10
15.4197527197
 20
11.008293585
 30
0.0
 10
15.4153408431
 20
11.010208903
 30
0.0
 10
15.4106845305
 20
11.0116363532
 30
0.0
 10
15.4059620167
 20
11.0125202513
 30
0.0
 10
15.4027980709
 20
11.0127354735
 30
0.0
 10
15.4012498165
 20
11.0127354735
 30
0.0
  0
SPLINE
  5
2E3
100
AcDbEntity
  8
0
100
AcDbSpline
 62
7
  6
CONTINUOUS
 70
0
 71
3
 72
15
 73
11
 74
0
 42
0.0000001
 43
0.0000001
 44
0.0000000001
 40
0.0
 40
0.0
 40
0.0
 40
0.0
 40
0.1556012615
 40
0.3031676983
 40
0.4411835046
 40
0.5691420919
 40
0.6874054282
 40
0.7971277267
 40
0.9003536701
 40
1.0
 40
1.0
 40
1.0
 40
1.0
 10
14.5262418722
 20
11.0127354735
 30
0.0
 10
14.5252363261
 20
11.0127354735
 30
0.0
 10
14.5232757186
 20
11.0126477936
 30
0.0
 10
14.5204488495
 20
11.0122401359
 30
0.0
 10
14.517857239
 20
11.0115614047
 30
0.0
 10
14.5155496918
 20
11.0106227749
 30
0.0
 10
14.5135655185
 20
11.0094387191
 30
0.0
 10
14.5119421262
 20
11.0080235531
 30
0.0
 10
14.5107111381
 20
11.006402605
 30
0.0
 10
14.5101725014
 20
11.005191659
 30
0.0
 10
14.5099823862
 20
11.0045764159
 30
0.0
  0
ENDSEC
  0
SECTION
  2
OBJECTS
  0
DICTIONARY
  5
C
100
AcDbDictionary
280
0
281
1
  3
ACAD_GROUP
350
D
  3
ACAD_MLINESTYLE
350
17
  3
ACAD_LAYOUT
350
1A
  3
ACAD_PLOTSETTINGS
350
19
  3
ACAD_PLOTSTYLENAME
350
E
  0
DICTIONARY
  5
D
102
{ACAD_REACTORS
330
C
102
}
100
AcDbDictionary
280
0
281
1
  0
ACDBDICTIONARYWDFLT
  5
E
102
{ACAD_REACTORS
330
C
102
}
100
AcDbDictionary
281
1
  3
Normal
350
F
100
AcDbDictionaryWithDefault
340
F
  0
DICTIONARY
  5
17
102
{ACAD_REACTORS
330
C
102
}
100
AcDbDictionary
280
0
281
1
  3
Standard
350
18
  0
DICTIONARY
  5
19
102
{ACAD_REACTORS
330
C
102
}
100
AcDbDictionary
281
1
  0
DICTIONARY
  5
1A
102
{ACAD_REACTORS
330
C
102
}
100
AcDbDictionary
281
1
  3
Model
350
2E4
  3
Layout1
350
2E5
  0
ACDBPLACEHOLDER
  5
F
102
{ACAD_REACTORS
330
E
102
}
  0
MLINESTYLE
  5
18
102
{ACAD_REACTORS
330
17
102
}
100
AcDbMlineStyle
  2
STANDARD
 70
0
  3

 62
256
 51
90.0
 52
90.0
 71
2
 49
0.5
 62
256
  6
BYLAYER
 49
-0.5
 62
256
  6
BYLAYER
  0
LAYOUT
  5
2E4
102
{ACAD_REACTORS
330
1A
102
}
100
AcDbPlotSettings
  1

  2
none_device
  4
ANSI_C_(22.00_x_17.00_Inches)
  6

 40
0.0
 41
0.0
 42
0.0
 43
0.0
 44
558.8
 45
431.8
 46
0.0
 47
0.0
 48
0.0
 49
0.0
140
0.0
141
0.0
142
1.0
143
1.0
 70
1024
 72
0
 73
0
 74
0
  7

 75
0
147
1.0
148
0.0
149
0.0
100
AcDbLayout
  1
Model
 70
0
 71
0
 10
0.0
 20
0.0
 11
22.0
 21
17.0
 12
0.0
 22
0.0
 32
0.0
 14
0.0
 24
0.0
 34
0.0
 15
0.0
 25
0.0
 35
0.0
146
0.0
 13
0.0
 23
0.0
 33
0.0
 16
1.0
 26
0.0
 36
0.0
 17
0.0
 27
1.0
 37
0.0
 76
0
330
216
345
0
346
0
  0
LAYOUT
  5
2E5
102
{ACAD_REACTORS
330
1A
102
}
100
AcDbPlotSettings
  1

  2
none_device
  4
ANSI_C_(22.00_x_17.00_Inches)
  6

 40
0.0
 41
0.0
 42
0.0
 43
0.0
 44
558.8
 45
431.8
 46
0.0
 47
0.0
 48
0.0
 49
0.0
140
0.0
141
0.0
142
1.0
143
1.0
 70
0
 72
0
 73
0
 74
0
  7

 75
0
147
1.0
148
0.0
149
0.0
100
AcDbLayout
  1
Layout1
 70
0
 71
1
 10
0.0
 20
0.0
 11
22.0
 21
17.0
 12
0.0
 22
0.0
 32
0.0
 14
0.0
 24
0.0
 34
0.0
 15
0.0
 25
0.0
 35
0.0
146
0.0
 13
0.0
 23
0.0
 33
0.0
 16
1.0
 26
0.0
 36
0.0
 17
0.0
 27
1.0
 37
0.0
 76
0
330
217
345
0
346
0
  0
ENDSEC
  0
EOF