999
DXF file: _cgs_temp_output.dxf
999
Pro/ENGINEER 2016360 by Parametric Technology Corporation
  0
SECTION
  2
HEADER
  9
$ACADVER
  1
AC1021
  9
$DWGCODEPAGE
  3
ANSI_1252
  9
$EXTMAX
 10
22.0
 20
17.0
 30
0.0
  9
$EXTMIN
 10
0.0
 20
0.0
 30
0.0
  9
$LIMMIN
 10
0.0
 20
0.0
  9
$LIMMAX
 10
22.0
 20
17.0
  9
$VIEWCTR
 10
11.0
 20
8.5
  9
$VIEWSIZE
 40
17.0
  9
$CLAYER
  8
0
  9
$LTSCALE
 40
1.21
  9
$CELTYPE
  6
BYLAYER
  9
$DIMSCALE
 40
1.0
  9
$DIMASZ
 40
0.1875
  9
$DIMEXO
 40
0.0625
  9
$DIMDLI
 40
0.836
  9
$DIMEXE
 40
0.125
  9
$DIMCEN
 40
0.198
  9
$DIMLFAC
 40
1.0
  9
$DIMBLK
  1
_CLOSED
  9
$DIMALT
 70
0
  9
$DIMALTF
 40
25.4
  9
$DIMTXT
 40
0.15625
  9
$DIMTOL
 70
0
  9
$DIMLIM
 70
0
  9
$DIMTFAC
 40
1.0
  9
$DIMGAP
 40
0.09
  9
$DIMDSEP
 70
46
  9
$AUNITS
 70
0
  9
$PDMODE
 70
3
  9
$PDSIZE
 40
0.3125
  9
$HANDSEED
  5
2E6
  9
$TILEMODE
 70
1
  9
$MEASUREMENT
 70
0
  9
$INSUNITS
 70
1
  0
ENDSEC
  0
SECTION
  2
CLASSES
  0
CLASS
  1
ACDBDICTIONARYWDFLT
  2
AcDbDictionaryWithDefault
  3
AutoCAD 2000
 90
0
 91
1
280
0
281
0
  0
CLASS
  1
ACDBPLACEHOLDER
  2
AcDbPlaceHolder
  3
AutoCAD 2000
 90
0
 91
1
280
0
281
0
  0
CLASS
  1
LAYOUT
  2
AcDbLayout
  3
AutoCAD 2000
 90
0
 91
0
280
0
281
0
  0
ENDSEC
  0
SECTION
  2
TABLES
  0
TABLE
  2
VPORT
  5
8
100
AcDbSymbolTable
 70
2
  0
VPORT
  5
1F4
100
AcDbSymbolTableRecord
100
AcDbViewportTableRecord
  2
*ACTIVE
 70
0
 10
0.0
 20
0.0
 11
1.0
 21
1.0
 12
11.0
 22
8.5
 13
0.0
 23
0.0
 14
1.0
 24
1.0
 15
0.0
 25
0.0
 16
0.0
 26
0.0
 36
1.0
 17
0.0
 27
0.0
 37
0.0
 40
17.0
 41
1.2941176471
 42
50.0
 43
0.0
 44
0.0
 50
0.0
 51
0.0
 71
0
 72
100
 73
1
 74
1
 75
0
 76
0
 77
0
 78
0
  0
ENDTAB
  0
TABLE
  2
LTYPE
  5
5
100
AcDbSymbolTable
 70
6
  0
LTYPE
  5
14
100
AcDbSymbolTableRecord
100
AcDbLinetypeTableRecord
  2
BYBLOCK
 70
0
  3

 72
65
 73
0
 40
0.0
  0
LTYPE
  5
15
100
AcDbSymbolTableRecord
100
AcDbLinetypeTableRecord
  2
BYLAYER
 70
0
  3

 72
65
 73
0
 40
0.0
  0
LTYPE
  5
16
100
AcDbSymbolTableRecord
100
AcDbLinetypeTableRecord
  2
CONTINUOUS
 70
64
  3
Solid line
 72
65
 73
0
 40
0.0
  0
LTYPE
  5
1F5
100
AcDbSymbolTableRecord
100
AcDbLinetypeTableRecord
  2
CENTER
 70
64
  3
____ _ ____ _ ____ _ ____ _ ____ _ ____ _ ____
 72
65
 73
4
 40
0.6
 49
0.375
 74
0
 49
-0.075
 74
0
 49
0.075
 74
0
 49
-0.075
 74
0
  0
LTYPE
  5
1F6
100
AcDbSymbolTableRecord
100
AcDbLinetypeTableRecord
  2
HIDDEN
 70
64
  3
- - - - - - - - - - - - - - - - - - - -
 72
65
 73
2
 40
0.2
 49
0.1
 74
0
 49
-0.1
 74
0
  0
LTYPE
  5
1F7
100
AcDbSymbolTableRecord
100
AcDbLinetypeTableRecord
  2
PHANTOM
 70
64
  3
_____ _ _ _____ _ _ _____ _ _ _____
 72
65
 73
6
 40
0.8
 49
0.45
 74
0
 49
-0.05
 74
0
 49
0.1
 74
0
 49
-0.05
 74
0
 49
0.1
 74
0
 49
-0.05
 74
0
  0
LTYPE
  5
1F8
100
AcDbSymbolTableRecord
100
AcDbLinetypeTableRecord
  2
DOT
 70
64
  3
. . . . . . . . . . . . . . . . . . . .
 72
65
 73
2
 40
0.2
 49
0.1
 74
0
 49
-0.1
 74
0
  0
LTYPE
  5
1F9
100
AcDbSymbolTableRecord
100
AcDbLinetypeTableRecord
  2
DASHED
 70
64
  3
- - - - - - - - - - - - - - - - - - - -
 72
65
 73
2
 40
0.2
 49
0.1
 74
0
 49
-0.1
 74
0
  0
ENDTAB
  0
TABLE
  2
LAYER
  5
2
100
AcDbSymbolTable
 70
36
  0
LAYER
  5
10
100
AcDbSymbolTableRecord
100
AcDbLayerTableRecord
  2
0
 70
0
 62
7
  6
CONTINUOUS
370
-3
390
F
  0
LAYER
  5
1FA
100
AcDbSymbolTableRecord
100
AcDbLayerTableRecord
  2
DEFAULT_1
 70
0
 62
7
  6
CENTER
370
-3
390
F
  0
LAYER
  5
1FB
100
AcDbSymbolTableRecord
100
AcDbLayerTableRecord
  2
DEFAULT_2
 70
0
 62
8
  6
HIDDEN
370
-3
390
F
  0
LAYER
  5
1FC
100
AcDbSymbolTableRecord
100
AcDbLayerTableRecord
  2
DEFAULT_3
 70
0
 62
7
  6
PHANTOM
370
-3
390
F
  0
LAYER
  5
1FD
100
AcDbSymbolTableRecord
100
AcDbLayerTableRecord
  2
01_ALL_DTM_PLN
 70
0
 62
7
  6
CONTINUOUS
370
-3
390
F
  0
LAYER
  5
1FE
100
AcDbSymbolTableRecord
100
AcDbLayerTableRecord
  2
01__ASM_ALL_DTM_PLN
 70
0
 62
7
  6
CONTINUOUS
370
-3
390
F
  0
LAYER
  5
1FF
100
AcDbSymbolTableRecord
100
AcDbLayerTableRecord
  2
01__ASM_DEF_DTM_PLN
 70
0
 62
7
  6
CONTINUOUS
370
-3
390
F
  0
LAYER
  5
200
100
AcDbSymbolTableRecord
100
AcDbLayerTableRecord
  2
01___PRT_ALL_DTM_PLN
 70
0
 62
7
  6
CONTINUOUS
370
-3
390
F
  0
LAYER
  5
201
100
AcDbSymbolTableRecord
100
AcDbLayerTableRecord
  2
01___PRT_DEF_DTM_PLN
 70
0
 62
7
  6
CONTINUOUS
370
-3
390
F
  0
LAYER
  5
202
100
AcDbSymbolTableRecord
100
AcDbLayerTableRecord
  2
02_ALL_AXES
 70
0
 62
7
  6
CONTINUOUS
370
-3
390
F
  0
LAYER
  5
203
100
AcDbSymbolTableRecord
100
AcDbLayerTableRecord
  2
02__ASM_ALL_AXES
 70
0
 62
7
  6
CONTINUOUS
370
-3
390
F
  0
LAYER
  5
204
100
AcDbSymbolTableRecord
100
AcDbLayerTableRecord
  2
02___PRT_ALL_AXES
 70
0
 62
7
  6
CONTINUOUS
370
-3
390
F
  0
LAYER
  5
205
100
AcDbSymbolTableRecord
100
AcDbLayerTableRecord
  2
03_ALL_CURVES
 70
0
 62
7
  6
CONTINUOUS
370
-3
390
F
  0
LAYER
  5
206
100
AcDbSymbolTableRecord
100
AcDbLayerTableRecord
  2
03__ASM_ALL_CURVES
 70
0
 62
7
  6
CONTINUOUS
370
-3
390
F
  0
LAYER
  5
207
100
AcDbSymbolTableRecord
100
AcDbLayerTableRecord
  2
03___PRT_ALL_CURVES
 70
0
 62
7
  6
CONTINUOUS
370
-3
390
F
  0
LAYER
  5
208
100
AcDbSymbolTableRecord
100
AcDbLayerTableRecord
  2
04_ALL_DTM_PNT
 70
0
 62
7
  6
CONTINUOUS
370
-3
390
F
  0
LAYER
  5
209
100
AcDbSymbolTableRecord
100
AcDbLayerTableRecord
  2
04__ASM_ALL_DTM_PNT
 70
0
 62
7
  6
CONTINUOUS
370
-3
390
F
  0
LAYER
  5
20A
100
AcDbSymbolTableRecord
100
AcDbLayerTableRecord
  2
04___PRT_ALL_DTM_PNT
 70
0
 62
7
  6
CONTINUOUS
370
-3
390
F
  0
LAYER
  5
20B
100
AcDbSymbolTableRecord
100
AcDbLayerTableRecord
  2
05_ALL_DTM_CSYS
 70
0
 62
7
  6
CONTINUOUS
370
-3
390
F
  0
LAYER
  5
20C
100
AcDbSymbolTableRecord
100
AcDbLayerTableRecord
  2
05__ASM_ALL_DTM_CSYS
 70
0
 62
7
  6
CONTINUOUS
370
-3
390
F
  0
LAYER
  5
20D
100
AcDbSymbolTableRecord
100
AcDbLayerTableRecord
  2
05__ASM_DEF_DTM_CSYS
 70
0
 62
7
  6
CONTINUOUS
370
-3
390
F
  0
LAYER
  5
20E
100
AcDbSymbolTableRecord
100
AcDbLayerTableRecord
  2
05___PRT_ALL_DTM_CSYS
 70
0
 62
7
  6
CONTINUOUS
370
-3
390
F
  0
LAYER
  5
20F
100
AcDbSymbolTableRecord
100
AcDbLayerTableRecord
  2
05___PRT_DEF_DTM_CSYS
 70
0
 62
7
  6
CONTINUOUS
370
-3
390
F
  0
LAYER
  5
210
100
AcDbSymbolTableRecord
100
AcDbLayerTableRecord
  2
06_ALL_SURFS
 70
0
 62
7
  6
CONTINUOUS
370
-3
390
F
  0
LAYER
  5
211
100
AcDbSymbolTableRecord
100
AcDbLayerTableRecord
  2
06__ASM_ALL_SURFS
 70
0
 62
7
  6
CONTINUOUS
370
-3
390
F
  0
LAYER
  5
212
100
AcDbSymbolTableRecord
100
AcDbLayerTableRecord
  2
06___PRT_ALL_SURFS
 70
0
 62
7
  6
CONTINUOUS
370
-3
390
F
  0
LAYER
  5
213
100
AcDbSymbolTableRecord
100
AcDbLayerTableRecord
  2
07__ASM_ALL_SKELETONS
 70
0
 62
7
  6
CONTINUOUS
370
-3
390
F
  0
ENDTAB
  0
TABLE
  2
STYLE
  5
3
100
AcDbSymbolTable
 70
1
  0
STYLE
  5
11
100
AcDbSymbolTableRecord
100
AcDbTextStyleTableRecord
  2
STANDARD
 70
0
 40
0.0
 41
0.8
 50
0.0
 71
0
 42
0.2
  3
txt
  4

  0
STYLE
  5
214
100
AcDbSymbolTableRecord
100
AcDbTextStyleTableRecord
  2
TEXTSTYLE_1
 70
0
 40
0.0
 41
0.8
 50
0.0
 71
0
 42
0.2
  3
gdt
  4

  0
ENDTAB
  0
TABLE
  2
VIEW
  5
6
100
AcDbSymbolTable
 70
0
  0
ENDTAB
  0
TABLE
  2
UCS
  5
7
100
AcDbSymbolTable
 70
0
  0
ENDTAB
  0
TABLE
  2
APPID
  5
9
100
AcDbSymbolTable
 70
1
  0
APPID
  5
215
100
AcDbSymbolTableRecord
100
AcDbRegAppTableRecord
  2
ACAD
 70
0
  0
ENDTAB
  0
TABLE
  2
BLOCK_RECORD
  5
1
100
AcDbSymbolTable
 70
0
  0
BLOCK_RECORD
  5
216
100
AcDbSymbolTableRecord
100
AcDbBlockTableRecord
  2
*Model_Space
  0
BLOCK_RECORD
  5
217
100
AcDbSymbolTableRecord
100
AcDbBlockTableRecord
  2
*Paper_Space
  0
ENDTAB
  0
TABLE
  2
DIMSTYLE
  5
A
100
AcDbSymbolTable
 70
1
100
AcDbDimStyleTable
 71
0
  0
DIMSTYLE
105
218
100
AcDbSymbolTableRecord
100
AcDbDimStyleTableRecord
  2
STANDARD
 70
0
  3

  4

 40
1.0
 41
0.1875
 42
0.0625
 43
0.38
 44
0.125
 45
0.0
 46
0.0
 47
0.0001
 48
0.0001
140
0.15625
141
0.09
142
0.0
143
25.4
144
1.0
145
0.0
146
1.0
147
0.09
 71
0.0
 72
0.0
 73
1
 74
1
 75
0
 76
0
 77
0
 78
4
 79
1
170
0
171
3
172
0
173
0
174
0
175
0
176
0
177
0
178
0
270
2
179
4
271
4
272
4
273
2
274
2
275
0
280
0
281
0
282
0
283
1
284
4
285
0
286
0
287
3
288
0
340
11
278
46
  0
ENDTAB
  0
ENDSEC
  0
SECTION
  2
BLOCKS
  0
BLOCK
  5
20
100
AcDbEntity
  8
0
100
AcDbBlockBegin
  2
*Model_Space
 70
0
 10
0.0
 20
0.0
 30
0.0
  3
*Model_Space
  1

  0
ENDBLK
  5
21
100
AcDbEntity
  8
0
100
AcDbBlockEnd
  0
BLOCK
  5
1C
100
AcDbEntity
  8
0
100
AcDbBlockBegin
  2
*Paper_Space
 70
0
 10
0.0
 20
0.0
 30
0.0
  3
*Paper_Space
  1

  0
ENDBLK
  5
1D
100
AcDbEntity
  8
0
100
AcDbBlockEnd
  0
ENDSEC
  0
SECTION
  2
ENTITIES
  0
MTEXT
  5
219
100
AcDbEntity
  8
0
100
AcDbMText
 62
7
  6
CONTINUOUS
  7
STANDARD
 71
1
 72
1
 10
15.9560215477
 20
0.9479130325
 30
0.0
 11
1.0
 21
0.0
 31
0.0
 44
0.9
  1
SCALE: 1:1.000
 40
0.3
 41
3.36
  0
LINE
  5
21A
100
AcDbEntity
  8
0
100
AcDbLine
 62
7
  6
CONTINUOUS
 10
0.0
 20
0.0
 11
0.0
 21
17.0
  0
LINE
  5
21B
100
AcDbEntity
  8
0
100
AcDbLine
 62
7
  6
CONTINUOUS
 10
0.0
 20
0.0
 11
22.0
 21
0.0
  0
LINE
  5
21C
100
AcDbEntity
  8
0
100
AcDbLine
 62
7
  6
CONTINUOUS
 10
0.0
 20
17.0
 11
22.0
 21
17.0
  0
LINE
  5
21D
100
AcDbEntity
  8
0
100
AcDbLine
 62
7
  6
CONTINUOUS
 10
22.0
 20
0.0
 11
22.0
 21
17.0
  0
LINE
  5
21E
100
AcDbEntity
  8
0
100
AcDbLine
 62
7
  6
CONTINUOUS
 10
5.6303672762
 20
5.655119926
 11
5.6303672762
 21
5.6097488308
  0
LINE
  5
21F
100
AcDbEntity
  8
0
100
AcDbLine
 62
7
  6
CONTINUOUS
 10
5.6730862804
 20
5.3803497011
 11
5.6322045578
 21
5.5906679313
  0
LINE
  5
220
100
AcDbEntity
  8
0
100
AcDbLine
 62
7
  6
CONTINUOUS
 10
5.69762696
 20
5.360119926
 11
6.5631075923
 21
5.360119926
  0
LINE
  5
221
100
AcDbEntity
  8
0
100
AcDbLine
 62
7
  6
CONTINUOUS
 10
5.6768930604
 20
5.4667865927
 11
6.583841492
 21
5.4667865927
  0
LINE
  5
222
100
AcDbEntity
  8
0
100
AcDbLine
 62
7
  6
CONTINUOUS
 10
6.6053672762
 20
5.680119926
 11
5.6553672762
 21
5.680119926
  0
LINE
  5
223
100
AcDbEntity
  8
0
100
AcDbLine
 62
7
  6
CONTINUOUS
 10
6.6303672762
 20
5.6097488308
 11
6.6303672762
 21
5.655119926
  0
LINE
  5
224
100
AcDbEntity
  8
0
100
AcDbLine
 62
7
  6
CONTINUOUS
 10
6.5876482719
 20
5.3803497011
 11
6.6285299945
 21
5.5906679313
  0
LINE
  5
225
100
AcDbEntity
  8
0
100
AcDbLine
 62
7
  6
CONTINUOUS
 10
6.5708720839
 20
10.6000477814
 11
5.5708720839
 21
10.6000477814
  0
LINE
  5
226
100
AcDbEntity
  8
0
100
AcDbLine
 62
7
  6
CONTINUOUS
 10
5.5708720839
 20
10.6000477814
 11
5.5708720839
 21
14.6000477814
  0
LINE
  5
227
100
AcDbEntity
  8
0
100
AcDbLine
 62
7
  6
CONTINUOUS
 10
6.5708720839
 20
10.6000477814
 11
6.5708720839
 21
14.6000477814
  0
LINE
  5
228
100
AcDbEntity
  8
0
100
AcDbLine
 62
7
  6
CONTINUOUS
 10
5.5708720839
 20
14.6000477814
 11
6.5708720839
 21
14.6000477814
  0
LINE
  5
229
100
AcDbEntity
  8
0
100
AcDbLine
 62
7
  6
CONTINUOUS
 10
13.5603552569
 20
5.4072914004
 11
13.5603552569
 21
5.6206247337
  0
LINE
  5
22A
100
AcDbEntity
  8
0
100
AcDbLine
 62
7
  6
CONTINUOUS
 10
13.677813864
 20
5.3866234285
 11
13.6928966498
 21
5.3212927056
  0
LINE
  5
22B
100
AcDbEntity
  8
0
100
AcDbLine
 62
7
  6
CONTINUOUS
 10
13.927813864
 20
5.3212927056
 11
13.9428966498
 21
5.3866234285
  0
LINE
  5
22C
100
AcDbEntity
  8
0
100
AcDbLine
 62
7
  6
CONTINUOUS
 10
14.177813864
 20
5.3866234285
 11
14.1928966498
 21
5.3212927056
  0
LINE
  5
22D
100
AcDbEntity
  8
0
100
AcDbLine
 62
7
  6
CONTINUOUS
 10
14.427813864
 20
5.3212927056
 11
14.4428966498
 21
5.3866234285
  0
LINE
  5
22E
100
AcDbEntity
  8
0
100
AcDbLine
 62
7
  6
CONTINUOUS
 10
14.677813864
 20
5.3866234285
 11
14.6928966498
 21
5.3212927056
  0
LINE
  5
22F
100
AcDbEntity
  8
0
100
AcDbLine
 62
7
  6
CONTINUOUS
 10
14.927813864
 20
5.3212927056
 11
14.9428966498
 21
5.3866234285
  0
LINE
  5
230
100
AcDbEntity
  8
0
100
AcDbLine
 62
7
  6
CONTINUOUS
 10
15.177813864
 20
5.3866234285
 11
15.1928966498
 21
5.3212927056
  0
LINE
  5
231
100
AcDbEntity
  8
0
100
AcDbLine
 62
7
  6
CONTINUOUS
 10
13.7188798516
 20
5.3006247337
 11
13.9018306623
 21
5.3006247337
  0
LINE
  5
232
100
AcDbEntity
  8
0
100
AcDbLine
 62
7
  6
CONTINUOUS
 10
14.2188798516
 20
5.3006247337
 11
14.4018306623
 21
5.3006247337
  0
LINE
  5
233
100
AcDbEntity
  8
0
100
AcDbLine
 62
7
  6
CONTINUOUS
 10
14.7188798516
 20
5.3006247337
 11
14.9018306623
 21
5.3006247337
  0
LINE
  5
234
100
AcDbEntity
  8
0
100
AcDbLine
 62
7
  6
CONTINUOUS
 10
15.2188798516
 20
5.3006247337
 11
15.4018306623
 21
5.3006247337
  0
LINE
  5
235
100
AcDbEntity
  8
0
100
AcDbLine
 62
7
  6
CONTINUOUS
 10
15.7188798516
 20
5.3006247337
 11
15.9018306623
 21
5.3006247337
  0
LINE
  5
236
100
AcDbEntity
  8
0
100
AcDbLine
 62
7
  6
CONTINUOUS
 10
16.2188798516
 20
5.3006247337
 11
16.4018306623
 21
5.3006247337
  0
LINE
  5
237
100
AcDbEntity
  8
0
100
AcDbLine
 62
7
  6
CONTINUOUS
 10
16.7188798516
 20
5.3006247337
 11
16.9018306623
 21
5.3006247337
  0
LINE
  5
238
100
AcDbEntity
  8
0
100
AcDbLine
 62
7
  6
CONTINUOUS
 10
17.2188798516
 20
5.3006247337
 11
17.4018306623
 21
5.3006247337
  0
LINE
  5
239
100
AcDbEntity
  8
0
100
AcDbLine
 62
7
  6
CONTINUOUS
 10
15.427813864
 20
5.3212927056
 11
15.4428966498
 21
5.3866234285
  0
LINE
  5
23A
100
AcDbEntity
  8
0
100
AcDbLine
 62
7
  6
CONTINUOUS
 10
13.5603552569
 20
5.4072914004
 11
13.6518306623
 21
5.4072914004
  0
LINE
  5
23B
100
AcDbEntity
  8
0
100
AcDbLine
 62
7
  6
CONTINUOUS
 10
13.9688798516
 20
5.4072914004
 11
14.1518306623
 21
5.4072914004
  0
LINE
  5
23C
100
AcDbEntity
  8
0
100
AcDbLine
 62
7
  6
CONTINUOUS
 10
14.4688798516
 20
5.4072914004
 11
14.6518306623
 21
5.4072914004
  0
LINE
  5
23D
100
AcDbEntity
  8
0
100
AcDbLine
 62
7
  6
CONTINUOUS
 10
14.9688798516
 20
5.4072914004
 11
15.1518306623
 21
5.4072914004
  0
LINE
  5
23E
100
AcDbEntity
  8
0
100
AcDbLine
 62
7
  6
CONTINUOUS
 10
15.4688798516
 20
5.4072914004
 11
15.6518306623
 21
5.4072914004
  0
LINE
  5
23F
100
AcDbEntity
  8
0
100
AcDbLine
 62
7
  6
CONTINUOUS
 10
15.9688798516
 20
5.4072914004
 11
16.1518306623
 21
5.4072914004
  0
LINE
  5
240
100
AcDbEntity
  8
0
100
AcDbLine
 62
7
  6
CONTINUOUS
 10
16.4688798516
 20
5.4072914004
 11
16.6518306623
 21
5.4072914004
  0
LINE
  5
241
100
AcDbEntity
  8
0
100
AcDbLine
 62
7
  6
CONTINUOUS
 10
16.9688798516
 20
5.4072914004
 11
17.1518306623
 21
5.4072914004
  0
LINE
  5
242
100
AcDbEntity
  8
0
100
AcDbLine
 62
7
  6
CONTINUOUS
 10
17.4688798516
 20
5.4072914004
 11
17.5603552569
 21
5.4072914004
  0
LINE
  5
243
100
AcDbEntity
  8
0
100
AcDbLine
 62
7
  6
CONTINUOUS
 10
15.677813864
 20
5.3866234285
 11
15.6928966498
 21
5.3212927056
  0
LINE
  5
244
100
AcDbEntity
  8
0
100
AcDbLine
 62
7
  6
CONTINUOUS
 10
13.5603552569
 20
5.6206247337
 11
17.5603552569
 21
5.6206247337
  0
LINE
  5
245
100
AcDbEntity
  8
0
100
AcDbLine
 62
7
  6
CONTINUOUS
 10
15.927813864
 20
5.3212927056
 11
15.9428966498
 21
5.3866234285
  0
LINE
  5
246
100
AcDbEntity
  8
0
100
AcDbLine
 62
7
  6
CONTINUOUS
 10
16.177813864
 20
5.3866234285
 11
16.1928966498
 21
5.3212927056
  0
LINE
  5
247
100
AcDbEntity
  8
0
100
AcDbLine
 62
7
  6
CONTINUOUS
 10
16.427813864
 20
5.3212927056
 11
16.4428966498
 21
5.3866234285
  0
LINE
  5
248
100
AcDbEntity
  8
0
100
AcDbLine
 62
7
  6
CONTINUOUS
 10
16.677813864
 20
5.3866234285
 11
16.6928966498
 21
5.3212927056
  0
LINE
  5
249
100
AcDbEntity
  8
0
100
AcDbLine
 62
7
  6
CONTINUOUS
 10
16.927813864
 20
5.3212927056
 11
16.9428966498
 21
5.3866234285
  0
LINE
  5
24A
100
AcDbEntity
  8
0
100
AcDbLine
 62
7
  6
CONTINUOUS
 10
17.177813864
 20
5.3866234285
 11
17.1928966498
 21
5.3212927056
  0
LINE
  5
24B
100
AcDbEntity
  8
0
100
AcDbLine
 62
7
  6
CONTINUOUS
 10
17.5603552569
 20
5.4072914004
 11
17.5603552569
 21
5.6206247337
  0
LINE
  5
24C
100
AcDbEntity
  8
0
100
AcDbLine
 62
7
  6
CONTINUOUS
 10
17.427813864
 20
5.3212927056
 11
17.4428966498
 21
5.3866234285
  0
LINE
  5
24D
100
AcDbEntity
  8
0
100
AcDbLine
 62
7
  6
CONTINUOUS
 10
14.6118522263
 20
10.8778461104
 11
15.4472070502
 21
10.8778461104
  0
LINE
  5
24E
100
AcDbEntity
  8
0
100
AcDbLine
 62
7
  6
CONTINUOUS
 10
14.532902395
 20
10.9548519853
 11
14.5830778352
 21
10.8904211402
  0
LWPOLYLINE
  5
24F
100
AcDbEntity
  8
0
100
AcDbPolyline
 62
7
  6
CONTINUOUS
 90
6
 70
0
 10
15.4909949624
 20
10.9256275195
 10
15.497647699
 20
10.9265240674
 10
15.5037875178
 20
10.9291265778
 10
15.5086993532
 20
10.9329150522
 10
15.5123421604
 20
10.9374537028
 10
15.5146991493
 20
10.9421866028
  0
LINE
  5
250
100
AcDbEntity
  8
0
100
AcDbLine
 62
7
  6
CONTINUOUS
 10
15.4757106647
 20
10.9256272271
 11
15.4910007517
 21
10.9256272271
  0
LINE
  5
251
100
AcDbEntity
  8
0
100
AcDbLine
 62
7
  6
CONTINUOUS
 10
15.4019580122
 20
11.0104562369
 11
14.5269500679
 21
11.0104562369
  0
LINE
  5
252
100
AcDbEntity
  8
0
100
AcDbLine
 62
7
  6
CONTINUOUS
 10
14.5115495897
 20
10.9949159877
 11
14.5253896733
 21
10.9667128627
  0
LWPOLYLINE
  5
253
100
AcDbEntity
  8
0
100
AcDbPolyline
 62
7
  6
CONTINUOUS
 90
6
 70
0
 10
15.6120281241
 20
11.3172909743
 10
15.6186808607
 20
11.3181875222
 10
15.6248206795
 20
11.3207900326
 10
15.6297325149
 20
11.324578507
 10
15.6333753221
 20
11.3291171576
 10
15.635732311
 20
11.3338500576
  0
LINE
  5
254
100
AcDbEntity
  8
0
100
AcDbLine
 62
7
  6
CONTINUOUS
 10
15.5967438264
 20
11.3172906819
 11
15.6120339134
 21
11.3172906819
  0
LWPOLYLINE
  5
255
100
AcDbEntity
  8
0
100
AcDbPolyline
 62
7
  6
CONTINUOUS
 90
6
 70
0
 10
15.7330612858
 20
11.7089544291
 10
15.7397140224
 20
11.709850977
 10
15.7458538412
 20
11.7124534874
 10
15.7507656766
 20
11.7162419618
 10
15.7544084838
 20
11.7207806124
 10
15.7567654727
 20
11.7255135124
  0
LINE
  5
256
100
AcDbEntity
  8
0
100
AcDbLine
 62
7
  6
CONTINUOUS
 10
15.7177769881
 20
11.7089541367
 11
15.7330670752
 21
11.7089541367
  0
LINE
  5
257
100
AcDbEntity
  8
0
100
AcDbLine
 62
7
  6
CONTINUOUS
 10
15.4464506673
 20
10.9667128627
 11
15.4326105837
 21
10.9949159877
  0
LINE
  5
258
100
AcDbEntity
  8
0
100
AcDbLine
 62
7
  6
CONTINUOUS
 10
14.5106905935
 20
11.002297172
 11
15.4789558871
 21
14.1356048105
  0
LWPOLYLINE
  5
259
100
AcDbEntity
  8
0
100
AcDbPolyline
 62
7
  6
CONTINUOUS
 90
6
 70
0
 10
15.8540944475
 20
12.1006178839
 10
15.8607471841
 20
12.1015144318
 10
15.866887003
 20
12.1041169422
 10
15.8717988383
 20
12.1079054166
 10
15.8754416456
 20
12.1124440673
 10
15.8777986344
 20
12.1171769672
  0
LINE
  5
25A
100
AcDbEntity
  8
0
100
AcDbLine
 62
7
  6
CONTINUOUS
 10
15.8388101498
 20
12.1006175915
 11
15.8541002369
 21
12.1006175915
  0
LINE
  5
25B
100
AcDbEntity
  8
0
100
AcDbLine
 62
7
  6
CONTINUOUS
 10
15.4636395846
 20
10.8904211402
 11
15.450578892
 21
10.9548519853
  0
LINE
  5
25C
100
AcDbEntity
  8
0
100
AcDbLine
 62
7
  6
CONTINUOUS
 10
15.5608167457
 20
11.0988194808
 11
15.5562357337
 21
11.1512444619
  0
LWPOLYLINE
  5
25D
100
AcDbEntity
  8
0
100
AcDbPolyline
 62
7
  6
CONTINUOUS
 90
8
 70
0
 10
15.5562352867
 20
11.1512510435
 10
15.5561360121
 20
11.1525041218
 10
15.5558856976
 20
11.1613004912
 10
15.556358537
 20
11.1721688019
 10
15.5576276319
 20
11.183862045
 10
15.5595566553
 20
11.1949793974
 10
15.5618197865
 20
11.2042122929
 10
15.5623542337
 20
11.2060070537
  0
LWPOLYLINE
  5
25E
100
AcDbEntity
  8
0
100
AcDbPolyline
 62
7
  6
CONTINUOUS
 90
6
 70
0
 10
15.9751276092
 20
12.4922813388
 10
15.9817803458
 20
12.4931778866
 10
15.9879201647
 20
12.495780397
 10
15.992832
 20
12.4995688715
 10
15.9964748073
 20
12.5041075221
 10
15.9988317961
 20
12.5088404221
  0
LINE
  5
25F
100
AcDbEntity
  8
0
100
AcDbLine
 62
7
  6
CONTINUOUS
 10
15.9598433115
 20
12.4922810463
 11
15.9751333986
 21
12.4922810463
  0
LINE
  5
260
100
AcDbEntity
  8
0
100
AcDbLine
 62
7
  6
CONTINUOUS
 10
15.6818499075
 20
11.4904829356
 11
15.6772688954
 21
11.5429079168
  0
LWPOLYLINE
  5
261
100
AcDbEntity
  8
0
100
AcDbPolyline
 62
7
  6
CONTINUOUS
 90
8
 70
0
 10
15.6772684484
 20
11.5429144983
 10
15.6771691738
 20
11.5441675766
 10
15.6769188593
 20
11.552963946
 10
15.6773916987
 20
11.5638322567
 10
15.6786607936
 20
11.5755254999
 10
15.680589817
 20
11.5866428523
 10
15.6828529482
 20
11.5958757478
 10
15.6833873954
 20
11.5976705085
  0
LINE
  5
262
100
AcDbEntity
  8
0
100
AcDbLine
 62
7
  6
CONTINUOUS
 10
15.5608874821
 20
11.0947510252
 11
15.5608165235
 21
11.0988221295
  0
LINE
  5
263
100
AcDbEntity
  8
0
100
AcDbLine
 62
7
  6
CONTINUOUS
 10
15.4634661053
 20
10.8860053046
 11
15.4636395846
 21
10.8904211402
  0
LINE
  5
264
100
AcDbEntity
  8
0
100
AcDbLine
 62
7
  6
CONTINUOUS
 10
15.6819206438
 20
11.48641448
 11
15.6818496852
 21
11.4904855843
  0
LINE
  5
265
100
AcDbEntity
  8
0
100
AcDbLine
 62
7
  6
CONTINUOUS
 10
16.3359696698
 20
13.7073674197
 11
16.3362346254
 21
13.7078268027
  0
LINE
  5
266
100
AcDbEntity
  8
0
100
AcDbLine
 62
7
  6
CONTINUOUS
 10
16.2149365081
 20
13.3157039649
 11
16.2152014637
 21
13.3161633479
  0
LINE
  5
267
100
AcDbEntity
  8
0
100
AcDbLine
 62
7
  6
CONTINUOUS
 10
15.8028830692
 20
11.8821463904
 11
15.7983020571
 21
11.9345713716
  0
LWPOLYLINE
  5
268
100
AcDbEntity
  8
0
100
AcDbPolyline
 62
7
  6
CONTINUOUS
 90
8
 70
0
 10
15.7983016101
 20
11.9345779531
 10
15.7982023355
 20
11.9358310314
 10
15.797952021
 20
11.9446274008
 10
15.7984248604
 20
11.9554957115
 10
15.7996939553
 20
11.9671889547
 10
15.8016229787
 20
11.9783063071
 10
15.8038861099
 20
11.9875392026
 10
15.8044205571
 20
11.9893339633
  0
LINE
  5
269
100
AcDbEntity
  8
0
100
AcDbLine
 62
7
  6
CONTINUOUS
 10
15.8029538055
 20
11.8780779348
 11
15.8028828469
 21
11.8821490391
  0
LINE
  5
26A
100
AcDbEntity
  8
0
100
AcDbLine
 62
7
  6
CONTINUOUS
 10
16.0939033464
 20
12.9240405101
 11
16.094168302
 21
12.9244998931
  0
LWPOLYLINE
  5
26B
100
AcDbEntity
  8
0
100
AcDbPolyline
 62
7
  6
CONTINUOUS
 90
6
 70
0
 10
16.0961607709
 20
12.8839447936
 10
16.1028135075
 20
12.8848413414
 10
16.1089533264
 20
12.8874438518
 10
16.1138651617
 20
12.8912323263
 10
16.117507969
 20
12.8957709769
 10
16.1198649578
 20
12.9005038769
  0
LINE
  5
26C
100
AcDbEntity
  8
0
100
AcDbLine
 62
7
  6
CONTINUOUS
 10
16.0808764732
 20
12.8839445011
 11
16.0961665603
 21
12.8839445011
  0
LINE
  5
26D
100
AcDbEntity
  8
0
100
AcDbLine
 62
7
  6
CONTINUOUS
 10
15.9239162309
 20
12.2738098452
 11
15.9193352188
 21
12.3262348264
  0
LWPOLYLINE
  5
26E
100
AcDbEntity
  8
0
100
AcDbPolyline
 62
7
  6
CONTINUOUS
 90
8
 70
0
 10
15.9193347718
 20
12.3262414079
 10
15.9192354972
 20
12.3274944862
 10
15.9189851827
 20
12.3362908556
 10
15.9194580221
 20
12.3471591663
 10
15.920727117
 20
12.3588524095
 10
15.9226561404
 20
12.3699697619
 10
15.9249192716
 20
12.3792026574
 10
15.9254537188
 20
12.3809974181
  0
LINE
  5
26F
100
AcDbEntity
  8
0
100
AcDbLine
 62
7
  6
CONTINUOUS
 10
15.9239869672
 20
12.2697413896
 11
15.9239160086
 21
12.2738124939
  0
LWPOLYLINE
  5
270
100
AcDbEntity
  8
0
100
AcDbPolyline
 62
7
  6
CONTINUOUS
 90
3
 70
0
 10
15.5595651394
 20
11.0871818949
 10
15.5604004142
 20
11.090586989
 10
15.5608874821
 20
11.0947510252
  0
LWPOLYLINE
  5
271
100
AcDbEntity
  8
0
100
AcDbPolyline
 62
7
  6
CONTINUOUS
 90
3
 70
0
 10
15.6805983011
 20
11.4788453497
 10
15.6814335759
 20
11.4822504438
 10
15.6819206438
 20
11.48641448
  0
LWPOLYLINE
  5
272
100
AcDbEntity
  8
0
100
AcDbPolyline
 62
7
  6
CONTINUOUS
 90
3
 70
0
 10
15.8016314628
 20
11.8705088045
 10
15.8024667376
 20
11.8739138986
 10
15.8029538055
 20
11.8780779348
  0
LWPOLYLINE
  5
273
100
AcDbEntity
  8
0
100
AcDbPolyline
 62
7
  6
CONTINUOUS
 90
3
 70
0
 10
15.9226646245
 20
12.2621722593
 10
15.9234998993
 20
12.2655773534
 10
15.9239869672
 20
12.2697413896
  0
LWPOLYLINE
  5
274
100
AcDbEntity
  8
0
100
AcDbPolyline
 62
7
  6
CONTINUOUS
 90
3
 70
0
 10
16.0436977862
 20
12.6538357142
 10
16.044533061
 20
12.6572408082
 10
16.0450201289
 20
12.6614048444
  0
LINE
  5
275
100
AcDbEntity
  8
0
100
AcDbLine
 62
7
  6
CONTINUOUS
 10
15.4634665247
 20
10.8860051753
 11
15.4856096393
 21
10.9576603206
  0
LINE
  5
276
100
AcDbEntity
  8
0
100
AcDbLine
 62
7
  6
CONTINUOUS
 10
15.5623565713
 20
11.2060134835
 11
15.606642801
 21
11.3493237755
  0
LINE
  5
277
100
AcDbEntity
  8
0
100
AcDbLine
 62
7
  6
CONTINUOUS
 10
15.683389733
 20
11.5976769383
 11
15.7276759627
 21
11.7409872303
  0
LINE
  5
278
100
AcDbEntity
  8
0
100
AcDbLine
 62
7
  6
CONTINUOUS
 10
15.8044228947
 20
11.9893403931
 11
15.8487091245
 21
12.1326506851
  0
LINE
  5
279
100
AcDbEntity
  8
0
100
AcDbLine
 62
7
  6
CONTINUOUS
 10
15.9254560564
 20
12.3810038479
 11
15.9697422862
 21
12.5243141399
  0
LINE
  5
27A
100
AcDbEntity
  8
0
100
AcDbLine
 62
7
  6
CONTINUOUS
 10
16.0464892181
 20
12.7726673027
 11
16.0907754479
 21
12.9159775947
  0
LINE
  5
27B
100
AcDbEntity
  8
0
100
AcDbLine
 62
7
  6
CONTINUOUS
 10
16.1675223798
 20
13.1643307576
 11
16.2118086096
 21
13.3076410495
  0
LINE
  5
27C
100
AcDbEntity
  8
0
100
AcDbLine
 62
7
  6
CONTINUOUS
 10
16.2885555415
 20
13.5559942124
 11
16.3328417713
 21
13.6993045043
  0
LINE
  5
27D
100
AcDbEntity
  8
0
100
AcDbLine
 62
7
  6
CONTINUOUS
 10
16.4095887032
 20
13.9476576672
 11
16.4317318183
 21
14.0193128138
  0
LINE
  5
27E
100
AcDbEntity
  8
0
100
AcDbLine
 62
7
  6
CONTINUOUS
 10
15.5152806034
 20
10.9438766928
 11
15.5595668385
 21
11.0871870024
  0
LINE
  5
27F
100
AcDbEntity
  8
0
100
AcDbLine
 62
7
  6
CONTINUOUS
 10
15.6363137651
 20
11.3355401476
 11
15.6806000002
 21
11.4788504572
  0
LINE
  5
280
100
AcDbEntity
  8
0
100
AcDbLine
 62
7
  6
CONTINUOUS
 10
15.7573469268
 20
11.7272036025
 11
15.8016331619
 21
11.870513912
  0
LINE
  5
281
100
AcDbEntity
  8
0
100
AcDbLine
 62
7
  6
CONTINUOUS
 10
15.8783800885
 20
12.1188670573
 11
15.9226663237
 21
12.2621773668
  0
LINE
  5
282
100
AcDbEntity
  8
0
100
AcDbLine
 62
7
  6
CONTINUOUS
 10
15.9994132502
 20
12.5105305121
 11
16.0436994854
 21
12.6538408217
  0
LINE
  5
283
100
AcDbEntity
  8
0
100
AcDbLine
 62
7
  6
CONTINUOUS
 10
16.1204464119
 20
12.9021939669
 11
16.1647326471
 21
13.0455042765
  0
LINE
  5
284
100
AcDbEntity
  8
0
100
AcDbLine
 62
7
  6
CONTINUOUS
 10
16.2414795736
 20
13.2938574217
 11
16.2857658088
 21
13.4371677313
  0
LINE
  5
285
100
AcDbEntity
  8
0
100
AcDbLine
 62
7
  6
CONTINUOUS
 10
16.3625127353
 20
13.6855208765
 11
16.4067989705
 21
13.8288311861
  0
LINE
  5
286
100
AcDbEntity
  8
0
100
AcDbLine
 62
7
  6
CONTINUOUS
 10
16.3619312812
 20
13.6838307865
 11
16.3625086759
 21
13.6855077562
  0
LINE
  5
287
100
AcDbEntity
  8
0
100
AcDbLine
 62
7
  6
CONTINUOUS
 10
16.2408981195
 20
13.2921673317
 11
16.2414755142
 21
13.2938443013
  0
LINE
  5
288
100
AcDbEntity
  8
0
100
AcDbLine
 62
7
  6
CONTINUOUS
 10
16.1198649578
 20
12.9005038769
 11
16.1204423525
 21
12.9021808465
  0
LINE
  5
289
100
AcDbEntity
  8
0
100
AcDbLine
 62
7
  6
CONTINUOUS
 10
15.9988317961
 20
12.5088404221
 11
15.9994091908
 21
12.5105173917
  0
LINE
  5
28A
100
AcDbEntity
  8
0
100
AcDbLine
 62
7
  6
CONTINUOUS
 10
15.8777986344
 20
12.1171769672
 11
15.8783760291
 21
12.1188539369
  0
LWPOLYLINE
  5
28B
100
AcDbEntity
  8
0
100
AcDbPolyline
 62
7
  6
CONTINUOUS
 90
3
 70
0
 10
16.3328423195
 20
13.6993065419
 10
16.3346865947
 20
13.7045637583
 10
16.3359696698
 20
13.7073674197
  0
LWPOLYLINE
  5
28C
100
AcDbEntity
  8
0
100
AcDbPolyline
 62
7
  6
CONTINUOUS
 90
3
 70
0
 10
16.2118091578
 20
13.3076430871
 10
16.213653433
 20
13.3129003035
 10
16.2149365081
 20
13.3157039649
  0
LWPOLYLINE
  5
28D
100
AcDbEntity
  8
0
100
AcDbPolyline
 62
7
  6
CONTINUOUS
 90
3
 70
0
 10
16.0907759961
 20
12.9159796323
 10
16.0926202713
 20
12.9212368487
 10
16.0939033464
 20
12.9240405101
  0
LWPOLYLINE
  5
28E
100
AcDbEntity
  8
0
100
AcDbPolyline
 62
7
  6
CONTINUOUS
 90
3
 70
0
 10
15.9697428344
 20
12.5243161775
 10
15.9715871096
 20
12.5295733939
 10
15.9728701847
 20
12.5323770553
  0
LWPOLYLINE
  5
28F
100
AcDbEntity
  8
0
100
AcDbPolyline
 62
7
  6
CONTINUOUS
 90
3
 70
0
 10
15.8487096727
 20
12.1326527227
 10
15.8505539479
 20
12.1379099391
 10
15.851837023
 20
12.1407136005
  0
LWPOLYLINE
  5
290
100
AcDbEntity
  8
0
100
AcDbPolyline
 62
7
  6
CONTINUOUS
 90
3
 70
0
 10
15.727676511
 20
11.7409892679
 10
15.7295207862
 20
11.7462464843
 10
15.7308038613
 20
11.7490501457
  0
LWPOLYLINE
  5
291
100
AcDbEntity
  8
0
100
AcDbPolyline
 62
7
  6
CONTINUOUS
 90
3
 70
0
 10
15.6066433492
 20
11.3493258131
 10
15.6084876245
 20
11.3545830294
 10
15.6097706996
 20
11.3573866908
  0
LINE
  5
292
100
AcDbEntity
  8
0
100
AcDbLine
 62
7
  6
CONTINUOUS
 10
15.9728701847
 20
12.5323770553
 11
15.9731351403
 21
12.5328364383
  0
LINE
  5
293
100
AcDbEntity
  8
0
100
AcDbLine
 62
7
  6
CONTINUOUS
 10
15.851837023
 20
12.1407136005
 11
15.8521019786
 21
12.1411729835
  0
LINE
  5
294
100
AcDbEntity
  8
0
100
AcDbLine
 62
7
  6
CONTINUOUS
 10
16.0449493926
 20
12.6654733
 11
16.0403683806
 21
12.7178982812
  0
LWPOLYLINE
  5
295
100
AcDbEntity
  8
0
100
AcDbPolyline
 62
7
  6
CONTINUOUS
 90
8
 70
0
 10
16.0403679336
 20
12.7179048628
 10
16.0402686589
 20
12.7191579411
 10
16.0400183444
 20
12.7279543104
 10
16.0404911838
 20
12.7388226211
 10
16.0417602787
 20
12.7505158643
 10
16.0436893021
 20
12.7616332167
 10
16.0459524333
 20
12.7708661122
 10
16.0464868805
 20
12.7726608729
  0
LINE
  5
296
100
AcDbEntity
  8
0
100
AcDbLine
 62
7
  6
CONTINUOUS
 10
16.0450201289
 20
12.6614048444
 11
16.0449491703
 21
12.6654759487
  0
LWPOLYLINE
  5
297
100
AcDbEntity
  8
0
100
AcDbPolyline
 62
7
  6
CONTINUOUS
 90
3
 70
0
 10
16.1647309479
 20
13.045499169
 10
16.1655662227
 20
13.048904263
 10
16.1660532906
 20
13.0530682992
  0
LWPOLYLINE
  5
298
100
AcDbEntity
  8
0
100
AcDbPolyline
 62
7
  6
CONTINUOUS
 90
3
 70
0
 10
16.2857641096
 20
13.4371626238
 10
16.2865993844
 20
13.4405677178
 10
16.2870864523
 20
13.444731754
  0
LWPOLYLINE
  5
299
100
AcDbEntity
  8
0
100
AcDbPolyline
 62
7
  6
CONTINUOUS
 90
3
 70
0
 10
16.4067972713
 20
13.8288260786
 10
16.4076325461
 20
13.8322311727
 10
16.408119614
 20
13.8363952089
  0
LINE
  5
29A
100
AcDbEntity
  8
0
100
AcDbLine
 62
7
  6
CONTINUOUS
 10
15.7567654727
 20
11.7255135124
 11
15.7573428674
 21
11.7271904821
  0
LINE
  5
29B
100
AcDbEntity
  8
0
100
AcDbLine
 62
7
  6
CONTINUOUS
 10
15.635732311
 20
11.3338500576
 11
15.6363097057
 21
11.3355270273
  0
LINE
  5
29C
100
AcDbEntity
  8
0
100
AcDbLine
 62
7
  6
CONTINUOUS
 10
15.5146991493
 20
10.9421866028
 11
15.515276544
 21
10.9438635725
  0
LWPOLYLINE
  5
29D
100
AcDbEntity
  8
0
100
AcDbPolyline
 62
7
  6
CONTINUOUS
 90
3
 70
0
 10
15.4856101875
 20
10.9576623583
 10
15.4874544628
 20
10.9629195746
 10
15.4887375379
 20
10.965723236
  0
LINE
  5
29E
100
AcDbEntity
  8
0
100
AcDbLine
 62
7
  6
CONTINUOUS
 10
15.7308038613
 20
11.7490501457
 11
15.7310688169
 21
11.7495095287
  0
LINE
  5
29F
100
AcDbEntity
  8
0
100
AcDbLine
 62
7
  6
CONTINUOUS
 10
16.1659825543
 20
13.0571367548
 11
16.1614015423
 21
13.109561736
  0
LWPOLYLINE
  5
2A0
100
AcDbEntity
  8
0
100
AcDbPolyline
 62
7
  6
CONTINUOUS
 90
8
 70
0
 10
16.1614010953
 20
13.1095683176
 10
16.1613018206
 20
13.1108213959
 10
16.1610515061
 20
13.1196177652
 10
16.1615243455
 20
13.130486076
 10
16.1627934404
 20
13.1421793191
 10
16.1647224638
 20
13.1532966715
 10
16.166985595
 20
13.162529567
 10
16.1675200422
 20
13.1643243278
  0
LINE
  5
2A1
100
AcDbEntity
  8
0
100
AcDbLine
 62
7
  6
CONTINUOUS
 10
16.1660532906
 20
13.0530682992
 11
16.165982332
 21
13.0571394036
  0
LINE
  5
2A2
100
AcDbEntity
  8
0
100
AcDbLine
 62
7
  6
CONTINUOUS
 10
15.6097706996
 20
11.3573866908
 11
15.6100356552
 21
11.3578460739
  0
LWPOLYLINE
  5
2A3
100
AcDbEntity
  8
0
100
AcDbPolyline
 62
7
  6
CONTINUOUS
 90
6
 70
0
 10
16.2171939326
 20
13.2756082484
 10
16.2238466692
 20
13.2765047962
 10
16.2299864881
 20
13.2791073067
 10
16.2348983234
 20
13.2828957811
 10
16.2385411307
 20
13.2874344317
 10
16.2408981195
 20
13.2921673317
  0
LINE
  5
2A4
100
AcDbEntity
  8
0
100
AcDbLine
 62
7
  6
CONTINUOUS
 10
16.201909635
 20
13.2756079559
 11
16.217199722
 21
13.2756079559
  0
LINE
  5
2A5
100
AcDbEntity
  8
0
100
AcDbLine
 62
7
  6
CONTINUOUS
 10
16.287015716
 20
13.4488002096
 11
16.282434704
 21
13.5012251908
  0
LWPOLYLINE
  5
2A6
100
AcDbEntity
  8
0
100
AcDbPolyline
 62
7
  6
CONTINUOUS
 90
8
 70
0
 10
16.282434257
 20
13.5012317724
 10
16.2823349823
 20
13.5024848507
 10
16.2820846678
 20
13.5112812201
 10
16.2825575072
 20
13.5221495308
 10
16.2838266021
 20
13.5338427739
 10
16.2857556255
 20
13.5449601263
 10
16.2880187567
 20
13.5541930218
 10
16.2885532039
 20
13.5559877826
  0
LINE
  5
2A7
100
AcDbEntity
  8
0
100
AcDbLine
 62
7
  6
CONTINUOUS
 10
16.2870864523
 20
13.444731754
 11
16.2870154937
 21
13.4488028584
  0
LINE
  5
2A8
100
AcDbEntity
  8
0
100
AcDbLine
 62
7
  6
CONTINUOUS
 10
16.4319048782
 20
14.0237287787
 11
16.431731399
 21
14.0193129431
  0
LINE
  5
2A9
100
AcDbEntity
  8
0
100
AcDbLine
 62
7
  6
CONTINUOUS
 10
15.4887375379
 20
10.965723236
 11
15.4890024935
 21
10.966182619
  0
LINE
  5
2AA
100
AcDbEntity
  8
0
100
AcDbLine
 62
7
  6
CONTINUOUS
 10
16.408119614
 20
13.8363952089
 11
16.4080486554
 21
13.8404663132
  0
LINE
  5
2AB
100
AcDbEntity
  8
0
100
AcDbLine
 62
7
  6
CONTINUOUS
 10
16.4080488777
 20
13.8404636645
 11
16.4034678657
 21
13.8928886456
  0
LWPOLYLINE
  5
2AC
100
AcDbEntity
  8
0
100
AcDbPolyline
 62
7
  6
CONTINUOUS
 90
8
 70
0
 10
16.4034674187
 20
13.8928952272
 10
16.403368144
 20
13.8941483055
 10
16.4031178295
 20
13.9029446749
 10
16.4035906689
 20
13.9138129856
 10
16.4048597638
 20
13.9255062287
 10
16.4067887872
 20
13.9366235811
 10
16.4090519184
 20
13.9458564766
 10
16.4095863656
 20
13.9476512374
  0
LWPOLYLINE
  5
2AD
100
AcDbEntity
  8
0
100
AcDbPolyline
 62
7
  6
CONTINUOUS
 90
6
 70
0
 10
16.3382270943
 20
13.6672717032
 10
16.3448798309
 20
13.6681682511
 10
16.3510196498
 20
13.6707707615
 10
16.3559314851
 20
13.6745592359
 10
16.3595742924
 20
13.6790978865
 10
16.3619312812
 20
13.6838307865
  0
LINE
  5
2AE
100
AcDbEntity
  8
0
100
AcDbLine
 62
7
  6
CONTINUOUS
 10
16.3229427967
 20
13.6672714108
 11
16.3382328837
 21
13.6672714108
  0
LINE
  5
2AF
100
AcDbEntity
  8
0
100
AcDbLine
 62
7
  6
CONTINUOUS
 10
16.4319048782
 20
14.0237287787
 11
16.4188441857
 21
14.0881596238
  0
LINE
  5
2B0
100
AcDbEntity
  8
0
100
AcDbLine
 62
7
  6
CONTINUOUS
 10
16.3702233058
 20
14.1437638754
 11
15.4952153615
 21
14.1437638754
  0
LINE
  5
2B1
100
AcDbEntity
  8
0
100
AcDbLine
 62
7
  6
CONTINUOUS
 10
16.4147159609
 20
14.1000205012
 11
16.4008758773
 21
14.1282236262
  0
ARC
  5
2B2
100
AcDbEntity
  8
0
100
AcDbCircle
 62
7
  6
CONTINUOUS
 10
5.6768930604
 20
5.4917865927
 40
0.025
100
AcDbArc
 50
191.0
 51
270.0
  0
ARC
  5
2B3
100
AcDbEntity
  8
0
100
AcDbCircle
 62
7
  6
CONTINUOUS
 10
5.6976269613
 20
5.3851199192
 40
0.025
100
AcDbArc
 50
190.9999839848
 51
269.999996944
  0
ARC
  5
2B4
100
AcDbEntity
  8
0
100
AcDbCircle
 62
7
  6
CONTINUOUS
 10
5.7303672762
 20
5.6097488308
 40
0.1
100
AcDbArc
 50
180.0
 51
191.0
  0
ARC
  5
2B5
100
AcDbEntity
  8
0
100
AcDbCircle
 62
7
  6
CONTINUOUS
 10
5.6553672762
 20
5.655119926
 40
0.025
100
AcDbArc
 50
90.0
 51
180.0
  0
ARC
  5
2B6
100
AcDbEntity
  8
0
100
AcDbCircle
 62
7
  6
CONTINUOUS
 10
6.583841492
 20
5.4917865927
 40
0.025
100
AcDbArc
 50
270.0
 51
349.0
  0
ARC
  5
2B7
100
AcDbEntity
  8
0
100
AcDbCircle
 62
7
  6
CONTINUOUS
 10
6.5631075923
 20
5.385119926
 40
0.025
100
AcDbArc
 50
270.0
 51
349.0
  0
ARC
  5
2B8
100
AcDbEntity
  8
0
100
AcDbCircle
 62
7
  6
CONTINUOUS
 10
6.5303672762
 20
5.6097488308
 40
0.1
100
AcDbArc
 50
349.0
 51
360.0
  0
ARC
  5
2B9
100
AcDbEntity
  8
0
100
AcDbCircle
 62
7
  6
CONTINUOUS
 10
6.6053672762
 20
5.655119926
 40
0.025
100
AcDbArc
 50
0.0
 51
90.0
  0
ARC
  5
2BA
100
AcDbEntity
  8
0
100
AcDbCircle
 62
7
  6
CONTINUOUS
 10
13.7188798516
 20
5.3272914004
 40
0.0266666667
100
AcDbArc
 50
193.0
 51
270.0
  0
ARC
  5
2BB
100
AcDbEntity
  8
0
100
AcDbCircle
 62
7
  6
CONTINUOUS
 10
13.9018306623
 20
5.3272914004
 40
0.0266666667
100
AcDbArc
 50
270.0
 51
347.0
  0
ARC
  5
2BC
100
AcDbEntity
  8
0
100
AcDbCircle
 62
7
  6
CONTINUOUS
 10
14.2188798516
 20
5.3272914004
 40
0.0266666667
100
AcDbArc
 50
193.0
 51
270.0
  0
ARC
  5
2BD
100
AcDbEntity
  8
0
100
AcDbCircle
 62
7
  6
CONTINUOUS
 10
14.4018306623
 20
5.3272914004
 40
0.0266666667
100
AcDbArc
 50
270.0
 51
347.0
  0
ARC
  5
2BE
100
AcDbEntity
  8
0
100
AcDbCircle
 62
7
  6
CONTINUOUS
 10
14.7188798516
 20
5.3272914004
 40
0.0266666667
100
AcDbArc
 50
193.0
 51
270.0
  0
ARC
  5
2BF
100
AcDbEntity
  8
0
100
AcDbCircle
 62
7
  6
CONTINUOUS
 10
14.9018306623
 20
5.3272914004
 40
0.0266666667
100
AcDbArc
 50
270.0
 51
347.0
  0
ARC
  5
2C0
100
AcDbEntity
  8
0
100
AcDbCircle
 62
7
  6
CONTINUOUS
 10
15.2188798516
 20
5.3272914004
 40
0.0266666667
100
AcDbArc
 50
193.0
 51
270.0
  0
ARC
  5
2C1
100
AcDbEntity
  8
0
100
AcDbCircle
 62
7
  6
CONTINUOUS
 10
15.4018306623
 20
5.3272914004
 40
0.0266666667
100
AcDbArc
 50
270.0
 51
347.0
  0
ARC
  5
2C2
100
AcDbEntity
  8
0
100
AcDbCircle
 62
7
  6
CONTINUOUS
 10
13.6518306623
 20
5.3806247337
 40
0.0266666667
100
AcDbArc
 50
13.0
 51
90.0
  0
ARC
  5
2C3
100
AcDbEntity
  8
0
100
AcDbCircle
 62
7
  6
CONTINUOUS
 10
13.9688798516
 20
5.3806247337
 40
0.0266666667
100
AcDbArc
 50
90.0
 51
167.0
  0
ARC
  5
2C4
100
AcDbEntity
  8
0
100
AcDbCircle
 62
7
  6
CONTINUOUS
 10
14.1518306623
 20
5.3806247337
 40
0.0266666667
100
AcDbArc
 50
13.0
 51
90.0
  0
ARC
  5
2C5
100
AcDbEntity
  8
0
100
AcDbCircle
 62
7
  6
CONTINUOUS
 10
14.4688798516
 20
5.3806247337
 40
0.0266666667
100
AcDbArc
 50
90.0
 51
167.0
  0
ARC
  5
2C6
100
AcDbEntity
  8
0
100
AcDbCircle
 62
7
  6
CONTINUOUS
 10
14.6518306623
 20
5.3806247337
 40
0.0266666667
100
AcDbArc
 50
13.0
 51
90.0
  0
ARC
  5
2C7
100
AcDbEntity
  8
0
100
AcDbCircle
 62
7
  6
CONTINUOUS
 10
14.9688798516
 20
5.3806247337
 40
0.0266666667
100
AcDbArc
 50
90.0
 51
167.0
  0
ARC
  5
2C8
100
AcDbEntity
  8
0
100
AcDbCircle
 62
7
  6
CONTINUOUS
 10
15.1518306623
 20
5.3806247337
 40
0.0266666667
100
AcDbArc
 50
13.0
 51
90.0
  0
ARC
  5
2C9
100
AcDbEntity
  8
0
100
AcDbCircle
 62
7
  6
CONTINUOUS
 10
15.4688798516
 20
5.3806247337
 40
0.0266666667
100
AcDbArc
 50
90.0
 51
167.0
  0
ARC
  5
2CA
100
AcDbEntity
  8
0
100
AcDbCircle
 62
7
  6
CONTINUOUS
 10
17.4018306623
 20
5.3272914004
 40
0.0266666667
100
AcDbArc
 50
270.0
 51
347.0
  0
ARC
  5
2CB
100
AcDbEntity
  8
0
100
AcDbCircle
 62
7
  6
CONTINUOUS
 10
17.2188798516
 20
5.3272914004
 40
0.0266666667
100
AcDbArc
 50
193.0
 51
270.0
  0
ARC
  5
2CC
100
AcDbEntity
  8
0
100
AcDbCircle
 62
7
  6
CONTINUOUS
 10
16.9018306623
 20
5.3272914004
 40
0.0266666667
100
AcDbArc
 50
270.0
 51
347.0
  0
ARC
  5
2CD
100
AcDbEntity
  8
0
100
AcDbCircle
 62
7
  6
CONTINUOUS
 10
16.7188798516
 20
5.3272914004
 40
0.0266666667
100
AcDbArc
 50
193.0
 51
270.0
  0
ARC
  5
2CE
100
AcDbEntity
  8
0
100
AcDbCircle
 62
7
  6
CONTINUOUS
 10
16.4018306623
 20
5.3272914004
 40
0.0266666667
100
AcDbArc
 50
270.0
 51
347.0
  0
ARC
  5
2CF
100
AcDbEntity
  8
0
100
AcDbCircle
 62
7
  6
CONTINUOUS
 10
16.2188798516
 20
5.3272914004
 40
0.0266666667
100
AcDbArc
 50
193.0
 51
270.0
  0
ARC
  5
2D0
100
AcDbEntity
  8
0
100
AcDbCircle
 62
7
  6
CONTINUOUS
 10
15.9018306623
 20
5.3272914004
 40
0.0266666667
100
AcDbArc
 50
270.0
 51
347.0
  0
ARC
  5
2D1
100
AcDbEntity
  8
0
100
AcDbCircle
 62
7
  6
CONTINUOUS
 10
15.7188798516
 20
5.3272914004
 40
0.0266666667
100
AcDbArc
 50
193.0
 51
270.0
  0
ARC
  5
2D2
100
AcDbEntity
  8
0
100
AcDbCircle
 62
7
  6
CONTINUOUS
 10
17.4688798516
 20
5.3806247337
 40
0.0266666667
100
AcDbArc
 50
90.0
 51
167.0
  0
ARC
  5
2D3
100
AcDbEntity
  8
0
100
AcDbCircle
 62
7
  6
CONTINUOUS
 10
17.1518306623
 20
5.3806247337
 40
0.0266666667
100
AcDbArc
 50
13.0
 51
90.0
  0
ARC
  5
2D4
100
AcDbEntity
  8
0
100
AcDbCircle
 62
7
  6
CONTINUOUS
 10
16.9688798516
 20
5.3806247337
 40
0.0266666667
100
AcDbArc
 50
90.0
 51
167.0
  0
ARC
  5
2D5
100
AcDbEntity
  8
0
100
AcDbCircle
 62
7
  6
CONTINUOUS
 10
16.6518306623
 20
5.3806247337
 40
0.0266666667
100
AcDbArc
 50
13.0
 51
90.0
  0
ARC
  5
2D6
100
AcDbEntity
  8
0
100
AcDbCircle
 62
7
  6
CONTINUOUS
 10
16.4688798516
 20
5.3806247337
 40
0.0266666667
100
AcDbArc
 50
90.0
 51
167.0
  0
ARC
  5
2D7
100
AcDbEntity
  8
0
100
AcDbCircle
 62
7
  6
CONTINUOUS
 10
16.1518306623
 20
5.3806247337
 40
0.0266666667
100
AcDbArc
 50
13.0
 51
90.0
  0
ARC
  5
2D8
100
AcDbEntity
  8
0
100
AcDbCircle
 62
7
  6
CONTINUOUS
 10
15.9688798516
 20
5.3806247337
 40
0.0266666667
100
AcDbArc
 50
90.0
 51
167.0
  0
ARC
  5
2D9
100
AcDbEntity
  8
0
100
AcDbCircle
 62
7
  6
CONTINUOUS
 10
15.6518306623
 20
5.3806247337
 40
0.0266666667
100
AcDbArc
 50
13.0
 51
90.0
  0
SPLINE
  5
2DA
100
AcDbEntity
  8
0
100
AcDbSpline
 62
7
  6
CONTINUOUS
 70
0
 71
3
 72
15
 73
11
 74
0
 42
0.0000001
 43
0.0000001
 44
0.0000000001
 40
0.0
 40
0.0
 40
0.0
 40
0.0
 40
0.1295681703
 40
0.2645751211
 40
0.4012659394
 40
0.5362717459
 40
0.6662158549
 40
0.788101591
 40
0.8998146985
 40
1.0
 40
1.0
 40
1.0
 40
1.0
 10
16.3702233058
 20
14.1437638754
 30
0.0
 10
16.3717715602
 20
14.1437638754
 30
0.0
 10
16.3749355059
 20
14.1435486533
 30
0.0
 10
16.3796580197
 20
14.1426647551
 30
0.0
 10
16.3843143324
 20
14.141237305
 30
0.0
 10
16.388726209
 20
14.1393219869
 30
0.0
 10
16.3927324018
 20
14.136993294
 30
0.0
 10
16.3961844831
 20
14.1343319549
 30
0.0
 10
16.3989503417
 20
14.1314359159
 30
0.0
 10
16.4003484823
 20
14.1292983443
 30
0.0
 10
16.4008758773
 20
14.1282236262
 30
0.0
  0
SPLINE
  5
2DB
100
AcDbEntity
  8
0
100
AcDbSpline
 62
7
  6
CONTINUOUS
 70
0
 71
3
 72
15
 73
11
 74
0
 42
0.0000001
 43
0.0000001
 44
0.0000000001
 40
0.0
 40
0.0
 40
0.0
 40
0.0
 40
0.0996463316
 40
0.2028722748
 40
0.3125945733
 40
0.430857912
 40
0.5588165021
 40
0.696832307
 40
0.8443987404
 40
1.0
 40
1.0
 40
1.0
 40
1.0
 10
15.4789558756
 20
14.1356048179
 30
0.0
 10
15.4791459907
 20
14.136220061
 30
0.0
 10
15.4796846275
 20
14.137431007
 30
0.0
 10
15.4809156155
 20
14.1390519551
 30
0.0
 10
15.4825390078
 20
14.1404671211
 30
0.0
 10
15.4845231812
 20
14.1416511769
 30
0.0
 10
15.4868307284
 20
14.1425898067
 30
0.0
 10
15.4894223389
 20
14.1432685379
 30
0.0
 10
15.492249208
 20
14.1436761956
 30
0.0
 10
15.4942098155
 20
14.1437638754
 30
0.0
 10
15.4952153615
 20
14.1437638754
 30
0.0
  0
SPLINE
  5
2DC
100
AcDbEntity
  8
0
100
AcDbSpline
 62
7
  6
CONTINUOUS
 70
0
 71
3
 72
11
 73
7
 74
0
 42
0.0000001
 43
0.0000001
 44
0.0000000001
 40
0.0
 40
0.0
 40
0.0
 40
0.0
 40
0.2336953991
 40
0.4747286936
 40
0.7289545122
 40
1.0
 40
1.0
 40
1.0
 40
1.0
 10
14.510690582
 20
11.0022971794
 30
0.0
 10
14.5105157271
 20
11.001731321
 30
0.0
 10
14.5102854143
 20
11.0005391723
 30
0.0
 10
14.5103276974
 20
10.9986798933
 30
0.0
 10
14.5107455085
 20
10.9967727207
 30
0.0
 10
14.5112469742
 20
10.9955326533
 30
0.0
 10
14.5115495897
 20
10.9949159877
 30
0.0
  0
SPLINE
  5
2DD
100
AcDbEntity
  8
0
100
AcDbSpline
 62
7
  6
CONTINUOUS
 70
0
 71
3
 72
9
 73
5
 74
0
 42
0.0000001
 43
0.0000001
 44
0.0000000001
 40
0.0
 40
0.0
 40
0.0
 40
0.0
 40
0.5134075836
 40
1.0
 40
1.0
 40
1.0
 40
1.0
 10
16.4147159609
 20
14.1000205012
 30
0.0
 10
16.4156647426
 20
14.0980870874
 30
0.0
 10
16.4173053327
 20
14.0942142929
 30
0.0
 10
16.4184386683
 20
14.0901601168
 30
0.0
 10
16.4188441857
 20
14.0881596238
 30
0.0
  0
SPLINE
  5
2DE
100
AcDbEntity
  8
0
100
AcDbSpline
 62
7
  6
CONTINUOUS
 70
0
 71
3
 72
14
 73
10
 74
0
 42
0.0000001
 43
0.0000001
 44
0.0000000001
 40
0.0
 40
0.0
 40
0.0
 40
0.0
 40
0.1555865764
 40
0.3032330903
 40
0.5688640957
 40
0.6871850151
 40
0.796911234
 40
0.9001856891
 40
1.0
 40
1.0
 40
1.0
 40
1.0
 10
15.4472070502
 20
10.8778461104
 30
0.0
 10
15.4482119213
 20
10.8778461104
 30
0.0
 10
15.4501726932
 20
10.8779340864
 30
0.0
 10
15.4538107617
 20
10.878458858
 30
0.0
 10
15.4571320525
 20
10.8795029251
 30
0.0
 10
15.4598826234
 20
10.8811418766
 30
0.0
 10
15.4615063957
 20
10.88255628
 30
0.0
 10
15.462736739
 20
10.8841778565
 30
0.0
 10
15.4632763698
 20
10.8853891979
 30
0.0
 10
15.4634659723
 20
10.8860053456
 30
0.0
  0
SPLINE
  5
2DF
100
AcDbEntity
  8
0
100
AcDbSpline
 62
7
  6
CONTINUOUS
 70
0
 71
3
 72
15
 73
11
 74
0
 42
0.0000001
 43
0.0000001
 44
0.0000000001
 40
0.0
 40
0.0
 40
0.0
 40
0.0
 40
0.1075853367
 40
0.2244576286
 40
0.3487077248
 40
0.4782296222
 40
0.6107080514
 40
0.7436384412
 40
0.8743956657
 40
1.0
 40
1.0
 40
1.0
 40
1.0
 10
14.5830778352
 20
10.8904211402
 30
0.0
 10
14.583790494
 20
10.8895060071
 30
0.0
 10
14.5854436768
 20
10.8877239331
 30
0.0
 10
14.5883547296
 20
10.8853307094
 30
0.0
 10
14.5917302222
 20
10.8831757545
 30
0.0
 10
14.5954647245
 20
10.8813170453
 30
0.0
 10
14.5994544459
 20
10.8798104919
 30
0.0
 10
14.6035847409
 20
10.8786953272
 30
0.0
 10
14.6077325481
 20
10.8780119666
 30
0.0
 10
14.6104980682
 20
10.8778461104
 30
0.0
 10
14.6118522263
 20
10.8778461104
 30
0.0
  0
SPLINE
  5
2E0
100
AcDbEntity
  8
0
100
AcDbSpline
 62
7
  6
CONTINUOUS
 70
0
 71
3
 72
9
 73
5
 74
0
 42
0.0000001
 43
0.0000001
 44
0.0000000001
 40
0.0
 40
0.0
 40
0.0
 40
0.0
 40
0.2397652039
 40
1.0
 40
1.0
 40
1.0
 40
1.0
 10
14.5253896733
 20
10.9667128627
 30
0.0
 10
14.5258845074
 20
10.9657044968
 30
0.0
 10
14.5280705028
 20
10.9615590981
 30
0.0
 10
14.5307141446
 20
10.9576619422
 30
0.0
 10
14.532902395
 20
10.9548519853
 30
0.0
  0
SPLINE
  5
2E1
100
AcDbEntity
  8
0
100
AcDbSpline
 62
7
  6
CONTINUOUS
 70
0
 71
3
 72
9
 73
5
 74
0
 42
0.0000001
 43
0.0000001
 44
0.0000000001
 40
0.0
 40
0.0
 40
0.0
 40
0.0
 40
0.4865924164
 40
1.0
 40
1.0
 40
1.0
 40
1.0
 10
15.450578892
 20
10.9548519853
 30
0.0
 10
15.4501733747
 20
10.9568524783
 30
0.0
 10
15.4490400391
 20
10.9609066543
 30
0.0
 10
15.447399449
 20
10.9647794488
 30
0.0
 10
15.4464506673
 20
10.9667128627
 30
0.0
  0
SPLINE
  5
2E2
100
AcDbEntity
  8
0
100
AcDbSpline
 62
7
  6
CONTINUOUS
 70
0
 71
3
 72
15
 73
11
 74
0
 42
0.0000001
 43
0.0000001
 44
0.0000000001
 40
0.0
 40
0.0
 40
0.0
 40
0.0
 40
0.1001853015
 40
0.211898409
 40
0.3337841451
 40
0.4637282541
 40
0.5987340606
 40
0.7354248789
 40
0.8704318297
 40
1.0
 40
1.0
 40
1.0
 40
1.0
 10
15.4326105837
 20
10.9949159877
 30
0.0
 10
15.4320831887
 20
10.9959907058
 30
0.0
 10
15.430685048
 20
10.9981282774
 30
0.0
 10
15.4279191895
 20
11.0010243164
 30
0.0
 10
15.4244671082
 20
11.0036856555
 30
0.0
 10
15.4204609154
 20
11.0060143484
 30
0.0
 10
15.4160490388
 20
11.0079296665
 30
0.0
 10
15.4113927261
 20
11.0093571166
 30
0.0
 10
15.4066702123
 20
11.0102410148
 30
0.0
 10
15.4035062666
 20
11.0104562369
 30
0.0
 10
15.4019580122
 20
11.0104562369
 30
0.0
  0
SPLINE
  5
2E3
100
AcDbEntity
  8
0
100
AcDbSpline
 62
7
  6
CONTINUOUS
 70
0
 71
3
 72
15
 73
11
 74
0
 42
0.0000001
 43
0.0000001
 44
0.0000000001
 40
0.0
 40
0.0
 40
0.0
 40
0.0
 40
0.1556012596
 40
0.303167693
 40
0.4411834979
 40
0.569142088
 40
0.6874054267
 40
0.7971277252
 40
0.9003536684
 40
1.0
 40
1.0
 40
1.0
 40
1.0
 10
14.5269500679
 20
11.0104562369
 30
0.0
 10
14.5259445218
 20
11.0104562369
 30
0.0
 10
14.5239839143
 20
11.0103685571
 30
0.0
 10
14.5211570453
 20
11.0099608994
 30
0.0
 10
14.5185654347
 20
11.0092821682
 30
0.0
 10
14.5162578876
 20
11.0083435384
 30
0.0
 10
14.5142737142
 20
11.0071594826
 30
0.0
 10
14.5126503219
 20
11.0057443166
 30
0.0
 10
14.5114193338
 20
11.0041233684
 30
0.0
 10
14.5108806971
 20
11.0029124224
 30
0.0
 10
14.510690582
 20
11.0022971794
 30
0.0
  0
ENDSEC
  0
SECTION
  2
OBJECTS
  0
DICTIONARY
  5
C
100
AcDbDictionary
280
0
281
1
  3
ACAD_GROUP
350
D
  3
ACAD_MLINESTYLE
350
17
  3
ACAD_LAYOUT
350
1A
  3
ACAD_PLOTSETTINGS
350
19
  3
ACAD_PLOTSTYLENAME
350
E
  0
DICTIONARY
  5
D
102
{ACAD_REACTORS
330
C
102
}
100
AcDbDictionary
280
0
281
1
  0
ACDBDICTIONARYWDFLT
  5
E
102
{ACAD_REACTORS
330
C
102
}
100
AcDbDictionary
281
1
  3
Normal
350
F
100
AcDbDictionaryWithDefault
340
F
  0
DICTIONARY
  5
17
102
{ACAD_REACTORS
330
C
102
}
100
AcDbDictionary
280
0
281
1
  3
Standard
350
18
  0
DICTIONARY
  5
19
102
{ACAD_REACTORS
330
C
102
}
100
AcDbDictionary
281
1
  0
DICTIONARY
  5
1A
102
{ACAD_REACTORS
330
C
102
}
100
AcDbDictionary
281
1
  3
Model
350
2E4
  3
Layout1
350
2E5
  0
ACDBPLACEHOLDER
  5
F
102
{ACAD_REACTORS
330
E
102
}
  0
MLINESTYLE
  5
18
102
{ACAD_REACTORS
330
17
102
}
100
AcDbMlineStyle
  2
STANDARD
 70
0
  3

 62
256
 51
90.0
 52
90.0
 71
2
 49
0.5
 62
256
  6
BYLAYER
 49
-0.5
 62
256
  6
BYLAYER
  0
LAYOUT
  5
2E4
102
{ACAD_REACTORS
330
1A
102
}
100
AcDbPlotSettings
  1

  2
none_device
  4
ANSI_C_(22.00_x_17.00_Inches)
  6

 40
0.0
 41
0.0
 42
0.0
 43
0.0
 44
558.8
 45
431.8
 46
0.0
 47
0.0
 48
0.0
 49
0.0
140
0.0
141
0.0
142
1.0
143
1.0
 70
1024
 72
0
 73
0
 74
0
  7

 75
0
147
1.0
148
0.0
149
0.0
100
AcDbLayout
  1
Model
 70
0
 71
0
 10
0.0
 20
0.0
 11
22.0
 21
17.0
 12
0.0
 22
0.0
 32
0.0
 14
0.0
 24
0.0
 34
0.0
 15
0.0
 25
0.0
 35
0.0
146
0.0
 13
0.0
 23
0.0
 33
0.0
 16
1.0
 26
0.0
 36
0.0
 17
0.0
 27
1.0
 37
0.0
 76
0
330
216
345
0
346
0
  0
LAYOUT
  5
2E5
102
{ACAD_REACTORS
330
1A
102
}
100
AcDbPlotSettings
  1

  2
none_device
  4
ANSI_C_(22.00_x_17.00_Inches)
  6

 40
0.0
 41
0.0
 42
0.0
 43
0.0
 44
558.8
 45
431.8
 46
0.0
 47
0.0
 48
0.0
 49
0.0
140
0.0
141
0.0
142
1.0
143
1.0
 70
0
 72
0
 73
0
 74
0
  7

 75
0
147
1.0
148
0.0
149
0.0
100
AcDbLayout
  1
Layout1
 70
0
 71
1
 10
0.0
 20
0.0
 11
22.0
 21
17.0
 12
0.0
 22
0.0
 32
0.0
 14
0.0
 24
0.0
 34
0.0
 15
0.0
 25
0.0
 35
0.0
146
0.0
 13
0.0
 23
0.0
 33
0.0
 16
1.0
 26
0.0
 36
0.0
 17
0.0
 27
1.0
 37
0.0
 76
0
330
217
345
0
346
0
  0
ENDSEC
  0
EOF