999
DXF file: _cgs_temp_output.dxf
999
Pro/ENGINEER 2016360 by Parametric Technology Corporation
  0
SECTION
  2
HEADER
  9
$ACADVER
  1
AC1021
  9
$DWGCODEPAGE
  3
ANSI_1252
  9
$EXTMAX
 10
22.0
 20
17.0
 30
0.0
  9
$EXTMIN
 10
0.0
 20
0.0
 30
0.0
  9
$LIMMIN
 10
0.0
 20
0.0
  9
$LIMMAX
 10
22.0
 20
17.0
  9
$VIEWCTR
 10
11.0
 20
8.5
  9
$VIEWSIZE
 40
17.0
  9
$CLAYER
  8
0
  9
$LTSCALE
 40
1.21
  9
$CELTYPE
  6
BYLAYER
  9
$DIMSCALE
 40
1.0
  9
$DIMASZ
 40
0.1875
  9
$DIMEXO
 40
0.0625
  9
$DIMDLI
 40
0.836
  9
$DIMEXE
 40
0.125
  9
$DIMCEN
 40
0.198
  9
$DIMLFAC
 40
1.0
  9
$DIMBLK
  1
_CLOSED
  9
$DIMALT
 70
0
  9
$DIMALTF
 40
25.4
  9
$DIMTXT
 40
0.15625
  9
$DIMTOL
 70
0
  9
$DIMLIM
 70
0
  9
$DIMTFAC
 40
1.0
  9
$DIMGAP
 40
0.09
  9
$DIMDSEP
 70
46
  9
$AUNITS
 70
0
  9
$PDMODE
 70
3
  9
$PDSIZE
 40
0.3125
  9
$HANDSEED
  5
2FE
  9
$TILEMODE
 70
1
  9
$MEASUREMENT
 70
0
  9
$INSUNITS
 70
1
  0
ENDSEC
  0
SECTION
  2
CLASSES
  0
CLASS
  1
ACDBDICTIONARYWDFLT
  2
AcDbDictionaryWithDefault
  3
AutoCAD 2000
 90
0
 91
1
280
0
281
0
  0
CLASS
  1
ACDBPLACEHOLDER
  2
AcDbPlaceHolder
  3
AutoCAD 2000
 90
0
 91
1
280
0
281
0
  0
CLASS
  1
LAYOUT
  2
AcDbLayout
  3
AutoCAD 2000
 90
0
 91
0
280
0
281
0
  0
ENDSEC
  0
SECTION
  2
TABLES
  0
TABLE
  2
VPORT
  5
8
100
AcDbSymbolTable
 70
2
  0
VPORT
  5
1F4
100
AcDbSymbolTableRecord
100
AcDbViewportTableRecord
  2
*ACTIVE
 70
0
 10
0.0
 20
0.0
 11
1.0
 21
1.0
 12
11.0
 22
8.5
 13
0.0
 23
0.0
 14
1.0
 24
1.0
 15
0.0
 25
0.0
 16
0.0
 26
0.0
 36
1.0
 17
0.0
 27
0.0
 37
0.0
 40
17.0
 41
1.2941176471
 42
50.0
 43
0.0
 44
0.0
 50
0.0
 51
0.0
 71
0
 72
100
 73
1
 74
1
 75
0
 76
0
 77
0
 78
0
  0
ENDTAB
  0
TABLE
  2
LTYPE
  5
5
100
AcDbSymbolTable
 70
6
  0
LTYPE
  5
14
100
AcDbSymbolTableRecord
100
AcDbLinetypeTableRecord
  2
BYBLOCK
 70
0
  3

 72
65
 73
0
 40
0.0
  0
LTYPE
  5
15
100
AcDbSymbolTableRecord
100
AcDbLinetypeTableRecord
  2
BYLAYER
 70
0
  3

 72
65
 73
0
 40
0.0
  0
LTYPE
  5
16
100
AcDbSymbolTableRecord
100
AcDbLinetypeTableRecord
  2
CONTINUOUS
 70
64
  3
Solid line
 72
65
 73
0
 40
0.0
  0
LTYPE
  5
1F5
100
AcDbSymbolTableRecord
100
AcDbLinetypeTableRecord
  2
CENTER
 70
64
  3
____ _ ____ _ ____ _ ____ _ ____ _ ____ _ ____
 72
65
 73
4
 40
0.6
 49
0.375
 74
0
 49
-0.075
 74
0
 49
0.075
 74
0
 49
-0.075
 74
0
  0
LTYPE
  5
1F6
100
AcDbSymbolTableRecord
100
AcDbLinetypeTableRecord
  2
HIDDEN
 70
64
  3
- - - - - - - - - - - - - - - - - - - -
 72
65
 73
2
 40
0.2
 49
0.1
 74
0
 49
-0.1
 74
0
  0
LTYPE
  5
1F7
100
AcDbSymbolTableRecord
100
AcDbLinetypeTableRecord
  2
PHANTOM
 70
64
  3
_____ _ _ _____ _ _ _____ _ _ _____
 72
65
 73
6
 40
0.8
 49
0.45
 74
0
 49
-0.05
 74
0
 49
0.1
 74
0
 49
-0.05
 74
0
 49
0.1
 74
0
 49
-0.05
 74
0
  0
LTYPE
  5
1F8
100
AcDbSymbolTableRecord
100
AcDbLinetypeTableRecord
  2
DOT
 70
64
  3
. . . . . . . . . . . . . . . . . . . .
 72
65
 73
2
 40
0.2
 49
0.1
 74
0
 49
-0.1
 74
0
  0
LTYPE
  5
1F9
100
AcDbSymbolTableRecord
100
AcDbLinetypeTableRecord
  2
DASHED
 70
64
  3
- - - - - - - - - - - - - - - - - - - -
 72
65
 73
2
 40
0.2
 49
0.1
 74
0
 49
-0.1
 74
0
  0
ENDTAB
  0
TABLE
  2
LAYER
  5
2
100
AcDbSymbolTable
 70
36
  0
LAYER
  5
10
100
AcDbSymbolTableRecord
100
AcDbLayerTableRecord
  2
0
 70
0
 62
7
  6
CONTINUOUS
370
-3
390
F
  0
LAYER
  5
1FA
100
AcDbSymbolTableRecord
100
AcDbLayerTableRecord
  2
DEFAULT_1
 70
0
 62
7
  6
CENTER
370
-3
390
F
  0
LAYER
  5
1FB
100
AcDbSymbolTableRecord
100
AcDbLayerTableRecord
  2
DEFAULT_2
 70
0
 62
8
  6
HIDDEN
370
-3
390
F
  0
LAYER
  5
1FC
100
AcDbSymbolTableRecord
100
AcDbLayerTableRecord
  2
DEFAULT_3
 70
0
 62
7
  6
PHANTOM
370
-3
390
F
  0
LAYER
  5
1FD
100
AcDbSymbolTableRecord
100
AcDbLayerTableRecord
  2
01_ALL_DTM_PLN
 70
0
 62
7
  6
CONTINUOUS
370
-3
390
F
  0
LAYER
  5
1FE
100
AcDbSymbolTableRecord
100
AcDbLayerTableRecord
  2
01__ASM_ALL_DTM_PLN
 70
0
 62
7
  6
CONTINUOUS
370
-3
390
F
  0
LAYER
  5
1FF
100
AcDbSymbolTableRecord
100
AcDbLayerTableRecord
  2
01__ASM_DEF_DTM_PLN
 70
0
 62
7
  6
CONTINUOUS
370
-3
390
F
  0
LAYER
  5
200
100
AcDbSymbolTableRecord
100
AcDbLayerTableRecord
  2
01___PRT_ALL_DTM_PLN
 70
0
 62
7
  6
CONTINUOUS
370
-3
390
F
  0
LAYER
  5
201
100
AcDbSymbolTableRecord
100
AcDbLayerTableRecord
  2
01___PRT_DEF_DTM_PLN
 70
0
 62
7
  6
CONTINUOUS
370
-3
390
F
  0
LAYER
  5
202
100
AcDbSymbolTableRecord
100
AcDbLayerTableRecord
  2
02_ALL_AXES
 70
0
 62
7
  6
CONTINUOUS
370
-3
390
F
  0
LAYER
  5
203
100
AcDbSymbolTableRecord
100
AcDbLayerTableRecord
  2
02__ASM_ALL_AXES
 70
0
 62
7
  6
CONTINUOUS
370
-3
390
F
  0
LAYER
  5
204
100
AcDbSymbolTableRecord
100
AcDbLayerTableRecord
  2
02___PRT_ALL_AXES
 70
0
 62
7
  6
CONTINUOUS
370
-3
390
F
  0
LAYER
  5
205
100
AcDbSymbolTableRecord
100
AcDbLayerTableRecord
  2
03_ALL_CURVES
 70
0
 62
7
  6
CONTINUOUS
370
-3
390
F
  0
LAYER
  5
206
100
AcDbSymbolTableRecord
100
AcDbLayerTableRecord
  2
03__ASM_ALL_CURVES
 70
0
 62
7
  6
CONTINUOUS
370
-3
390
F
  0
LAYER
  5
207
100
AcDbSymbolTableRecord
100
AcDbLayerTableRecord
  2
03___PRT_ALL_CURVES
 70
0
 62
7
  6
CONTINUOUS
370
-3
390
F
  0
LAYER
  5
208
100
AcDbSymbolTableRecord
100
AcDbLayerTableRecord
  2
04_ALL_DTM_PNT
 70
0
 62
7
  6
CONTINUOUS
370
-3
390
F
  0
LAYER
  5
209
100
AcDbSymbolTableRecord
100
AcDbLayerTableRecord
  2
04__ASM_ALL_DTM_PNT
 70
0
 62
7
  6
CONTINUOUS
370
-3
390
F
  0
LAYER
  5
20A
100
AcDbSymbolTableRecord
100
AcDbLayerTableRecord
  2
04___PRT_ALL_DTM_PNT
 70
0
 62
7
  6
CONTINUOUS
370
-3
390
F
  0
LAYER
  5
20B
100
AcDbSymbolTableRecord
100
AcDbLayerTableRecord
  2
05_ALL_DTM_CSYS
 70
0
 62
7
  6
CONTINUOUS
370
-3
390
F
  0
LAYER
  5
20C
100
AcDbSymbolTableRecord
100
AcDbLayerTableRecord
  2
05__ASM_ALL_DTM_CSYS
 70
0
 62
7
  6
CONTINUOUS
370
-3
390
F
  0
LAYER
  5
20D
100
AcDbSymbolTableRecord
100
AcDbLayerTableRecord
  2
05__ASM_DEF_DTM_CSYS
 70
0
 62
7
  6
CONTINUOUS
370
-3
390
F
  0
LAYER
  5
20E
100
AcDbSymbolTableRecord
100
AcDbLayerTableRecord
  2
05___PRT_ALL_DTM_CSYS
 70
0
 62
7
  6
CONTINUOUS
370
-3
390
F
  0
LAYER
  5
20F
100
AcDbSymbolTableRecord
100
AcDbLayerTableRecord
  2
05___PRT_DEF_DTM_CSYS
 70
0
 62
7
  6
CONTINUOUS
370
-3
390
F
  0
LAYER
  5
210
100
AcDbSymbolTableRecord
100
AcDbLayerTableRecord
  2
06_ALL_SURFS
 70
0
 62
7
  6
CONTINUOUS
370
-3
390
F
  0
LAYER
  5
211
100
AcDbSymbolTableRecord
100
AcDbLayerTableRecord
  2
06__ASM_ALL_SURFS
 70
0
 62
7
  6
CONTINUOUS
370
-3
390
F
  0
LAYER
  5
212
100
AcDbSymbolTableRecord
100
AcDbLayerTableRecord
  2
06___PRT_ALL_SURFS
 70
0
 62
7
  6
CONTINUOUS
370
-3
390
F
  0
LAYER
  5
213
100
AcDbSymbolTableRecord
100
AcDbLayerTableRecord
  2
07__ASM_ALL_SKELETONS
 70
0
 62
7
  6
CONTINUOUS
370
-3
390
F
  0
ENDTAB
  0
TABLE
  2
STYLE
  5
3
100
AcDbSymbolTable
 70
1
  0
STYLE
  5
11
100
AcDbSymbolTableRecord
100
AcDbTextStyleTableRecord
  2
STANDARD
 70
0
 40
0.0
 41
0.8
 50
0.0
 71
0
 42
0.2
  3
txt
  4

  0
STYLE
  5
214
100
AcDbSymbolTableRecord
100
AcDbTextStyleTableRecord
  2
TEXTSTYLE_1
 70
0
 40
0.0
 41
0.8
 50
0.0
 71
0
 42
0.2
  3
gdt
  4

  0
ENDTAB
  0
TABLE
  2
VIEW
  5
6
100
AcDbSymbolTable
 70
0
  0
ENDTAB
  0
TABLE
  2
UCS
  5
7
100
AcDbSymbolTable
 70
0
  0
ENDTAB
  0
TABLE
  2
APPID
  5
9
100
AcDbSymbolTable
 70
1
  0
APPID
  5
215
100
AcDbSymbolTableRecord
100
AcDbRegAppTableRecord
  2
ACAD
 70
0
  0
ENDTAB
  0
TABLE
  2
BLOCK_RECORD
  5
1
100
AcDbSymbolTable
 70
0
  0
BLOCK_RECORD
  5
216
100
AcDbSymbolTableRecord
100
AcDbBlockTableRecord
  2
*Model_Space
  0
BLOCK_RECORD
  5
217
100
AcDbSymbolTableRecord
100
AcDbBlockTableRecord
  2
*Paper_Space
  0
ENDTAB
  0
TABLE
  2
DIMSTYLE
  5
A
100
AcDbSymbolTable
 70
1
100
AcDbDimStyleTable
 71
0
  0
DIMSTYLE
105
218
100
AcDbSymbolTableRecord
100
AcDbDimStyleTableRecord
  2
STANDARD
 70
0
  3

  4

 40
1.0
 41
0.1875
 42
0.0625
 43
0.38
 44
0.125
 45
0.0
 46
0.0
 47
0.0001
 48
0.0001
140
0.15625
141
0.09
142
0.0
143
25.4
144
1.0
145
0.0
146
1.0
147
0.09
 71
0.0
 72
0.0
 73
1
 74
1
 75
0
 76
0
 77
0
 78
4
 79
1
170
0
171
3
172
0
173
0
174
0
175
0
176
0
177
0
178
0
270
2
179
4
271
4
272
4
273
2
274
2
275
0
280
0
281
0
282
0
283
1
284
4
285
0
286
0
287
3
288
0
340
11
278
46
  0
ENDTAB
  0
ENDSEC
  0
SECTION
  2
BLOCKS
  0
BLOCK
  5
20
100
AcDbEntity
  8
0
100
AcDbBlockBegin
  2
*Model_Space
 70
0
 10
0.0
 20
0.0
 30
0.0
  3
*Model_Space
  1

  0
ENDBLK
  5
21
100
AcDbEntity
  8
0
100
AcDbBlockEnd
  0
BLOCK
  5
1C
100
AcDbEntity
  8
0
100
AcDbBlockBegin
  2
*Paper_Space
 70
0
 10
0.0
 20
0.0
 30
0.0
  3
*Paper_Space
  1

  0
ENDBLK
  5
1D
100
AcDbEntity
  8
0
100
AcDbBlockEnd
  0
ENDSEC
  0
SECTION
  2
ENTITIES
  0
MTEXT
  5
219
100
AcDbEntity
  8
0
100
AcDbMText
 62
7
  6
CONTINUOUS
  7
STANDARD
 71
1
 72
1
 10
15.9560215477
 20
0.9479130325
 30
0.0
 11
1.0
 21
0.0
 31
0.0
 44
0.9
  1
SCALE: 1:1.000
 40
0.3
 41
3.36
  0
LINE
  5
21A
100
AcDbEntity
  8
0
100
AcDbLine
 62
7
  6
CONTINUOUS
 10
0.0
 20
0.0
 11
0.0
 21
17.0
  0
LINE
  5
21B
100
AcDbEntity
  8
0
100
AcDbLine
 62
7
  6
CONTINUOUS
 10
0.0
 20
0.0
 11
22.0
 21
0.0
  0
LINE
  5
21C
100
AcDbEntity
  8
0
100
AcDbLine
 62
7
  6
CONTINUOUS
 10
0.0
 20
17.0
 11
22.0
 21
17.0
  0
LINE
  5
21D
100
AcDbEntity
  8
0
100
AcDbLine
 62
7
  6
CONTINUOUS
 10
22.0
 20
0.0
 11
22.0
 21
17.0
  0
LINE
  5
21E
100
AcDbEntity
  8
0
100
AcDbLine
 62
7
  6
CONTINUOUS
 10
5.6303672762
 20
5.6751198968
 11
5.6303672762
 21
5.6215134576
  0
LINE
  5
21F
100
AcDbEntity
  8
0
100
AcDbLine
 62
7
  6
CONTINUOUS
 10
5.6882283341
 20
5.3594961204
 11
5.6329302697
 21
5.5990183521
  0
LINE
  5
220
100
AcDbEntity
  8
0
100
AcDbLine
 62
7
  6
CONTINUOUS
 10
5.7125875857
 20
5.3401198968
 11
6.5481469666
 21
5.3401198968
  0
LINE
  5
221
100
AcDbEntity
  8
0
100
AcDbLine
 62
7
  6
CONTINUOUS
 10
5.6848834028
 20
5.4601198968
 11
6.5758511496
 21
5.4601198968
  0
LINE
  5
222
100
AcDbEntity
  8
0
100
AcDbLine
 62
7
  6
CONTINUOUS
 10
6.6053672762
 20
5.7001198968
 11
5.6553672762
 21
5.7001198968
  0
LINE
  5
223
100
AcDbEntity
  8
0
100
AcDbLine
 62
7
  6
CONTINUOUS
 10
6.6303672762
 20
5.6215134576
 11
6.6303672762
 21
5.6751198968
  0
LINE
  5
224
100
AcDbEntity
  8
0
100
AcDbLine
 62
7
  6
CONTINUOUS
 10
6.5725062183
 20
5.3594961204
 11
6.6278042826
 21
5.5990183521
  0
LINE
  5
225
100
AcDbEntity
  8
0
100
AcDbLine
 62
7
  6
CONTINUOUS
 10
6.5708720839
 20
10.6000477814
 11
5.5708720839
 21
10.6000477814
  0
LINE
  5
226
100
AcDbEntity
  8
0
100
AcDbLine
 62
7
  6
CONTINUOUS
 10
5.5708720839
 20
10.6000477814
 11
5.5708720839
 21
14.6000477814
  0
LINE
  5
227
100
AcDbEntity
  8
0
100
AcDbLine
 62
7
  6
CONTINUOUS
 10
6.5708720839
 20
10.6000477814
 11
6.5708720839
 21
14.6000477814
  0
LINE
  5
228
100
AcDbEntity
  8
0
100
AcDbLine
 62
7
  6
CONTINUOUS
 10
5.5708720839
 20
14.6000477814
 11
6.5708720839
 21
14.6000477814
  0
LINE
  5
229
100
AcDbEntity
  8
0
100
AcDbLine
 62
7
  6
CONTINUOUS
 10
13.5603552569
 20
5.4006247044
 11
13.5603552569
 21
5.6406247044
  0
LINE
  5
22A
100
AcDbEntity
  8
0
100
AcDbLine
 62
7
  6
CONTINUOUS
 10
13.6768711899
 20
5.3773732361
 11
13.693839324
 21
5.3038761728
  0
LINE
  5
22B
100
AcDbEntity
  8
0
100
AcDbLine
 62
7
  6
CONTINUOUS
 10
13.9268711899
 20
5.3038761728
 11
13.943839324
 21
5.3773732361
  0
LINE
  5
22C
100
AcDbEntity
  8
0
100
AcDbLine
 62
7
  6
CONTINUOUS
 10
14.1768711899
 20
5.3773732361
 11
14.193839324
 21
5.3038761728
  0
LINE
  5
22D
100
AcDbEntity
  8
0
100
AcDbLine
 62
7
  6
CONTINUOUS
 10
14.4268711899
 20
5.3038761728
 11
14.443839324
 21
5.3773732361
  0
LINE
  5
22E
100
AcDbEntity
  8
0
100
AcDbLine
 62
7
  6
CONTINUOUS
 10
14.6768711899
 20
5.3773732361
 11
14.693839324
 21
5.3038761728
  0
LINE
  5
22F
100
AcDbEntity
  8
0
100
AcDbLine
 62
7
  6
CONTINUOUS
 10
14.9268711899
 20
5.3038761728
 11
14.943839324
 21
5.3773732361
  0
LINE
  5
230
100
AcDbEntity
  8
0
100
AcDbLine
 62
7
  6
CONTINUOUS
 10
15.1768711899
 20
5.3773732361
 11
15.193839324
 21
5.3038761728
  0
LINE
  5
231
100
AcDbEntity
  8
0
100
AcDbLine
 62
7
  6
CONTINUOUS
 10
13.7230704259
 20
5.2806247044
 11
13.897640088
 21
5.2806247044
  0
LINE
  5
232
100
AcDbEntity
  8
0
100
AcDbLine
 62
7
  6
CONTINUOUS
 10
14.2230704259
 20
5.2806247044
 11
14.397640088
 21
5.2806247044
  0
LINE
  5
233
100
AcDbEntity
  8
0
100
AcDbLine
 62
7
  6
CONTINUOUS
 10
14.7230704259
 20
5.2806247044
 11
14.897640088
 21
5.2806247044
  0
LINE
  5
234
100
AcDbEntity
  8
0
100
AcDbLine
 62
7
  6
CONTINUOUS
 10
15.2230704259
 20
5.2806247044
 11
15.397640088
 21
5.2806247044
  0
LINE
  5
235
100
AcDbEntity
  8
0
100
AcDbLine
 62
7
  6
CONTINUOUS
 10
15.7230704259
 20
5.2806247044
 11
15.897640088
 21
5.2806247044
  0
LINE
  5
236
100
AcDbEntity
  8
0
100
AcDbLine
 62
7
  6
CONTINUOUS
 10
16.2230704259
 20
5.2806247044
 11
16.397640088
 21
5.2806247044
  0
LINE
  5
237
100
AcDbEntity
  8
0
100
AcDbLine
 62
7
  6
CONTINUOUS
 10
16.7230704259
 20
5.2806247044
 11
16.897640088
 21
5.2806247044
  0
LINE
  5
238
100
AcDbEntity
  8
0
100
AcDbLine
 62
7
  6
CONTINUOUS
 10
17.2230704259
 20
5.2806247044
 11
17.397640088
 21
5.2806247044
  0
LINE
  5
239
100
AcDbEntity
  8
0
100
AcDbLine
 62
7
  6
CONTINUOUS
 10
15.4268711899
 20
5.3038761728
 11
15.443839324
 21
5.3773732361
  0
LINE
  5
23A
100
AcDbEntity
  8
0
100
AcDbLine
 62
7
  6
CONTINUOUS
 10
13.5603552569
 20
5.4006247044
 11
13.647640088
 21
5.4006247044
  0
LINE
  5
23B
100
AcDbEntity
  8
0
100
AcDbLine
 62
7
  6
CONTINUOUS
 10
13.9730704259
 20
5.4006247044
 11
14.147640088
 21
5.4006247044
  0
LINE
  5
23C
100
AcDbEntity
  8
0
100
AcDbLine
 62
7
  6
CONTINUOUS
 10
14.4730704259
 20
5.4006247044
 11
14.647640088
 21
5.4006247044
  0
LINE
  5
23D
100
AcDbEntity
  8
0
100
AcDbLine
 62
7
  6
CONTINUOUS
 10
14.9730704259
 20
5.4006247044
 11
15.147640088
 21
5.4006247044
  0
LINE
  5
23E
100
AcDbEntity
  8
0
100
AcDbLine
 62
7
  6
CONTINUOUS
 10
15.4730704259
 20
5.4006247044
 11
15.647640088
 21
5.4006247044
  0
LINE
  5
23F
100
AcDbEntity
  8
0
100
AcDbLine
 62
7
  6
CONTINUOUS
 10
15.9730704259
 20
5.4006247044
 11
16.147640088
 21
5.4006247044
  0
LINE
  5
240
100
AcDbEntity
  8
0
100
AcDbLine
 62
7
  6
CONTINUOUS
 10
16.4730704259
 20
5.4006247044
 11
16.647640088
 21
5.4006247044
  0
LINE
  5
241
100
AcDbEntity
  8
0
100
AcDbLine
 62
7
  6
CONTINUOUS
 10
16.9730704259
 20
5.4006247044
 11
17.147640088
 21
5.4006247044
  0
LINE
  5
242
100
AcDbEntity
  8
0
100
AcDbLine
 62
7
  6
CONTINUOUS
 10
17.4730704259
 20
5.4006247044
 11
17.5603552569
 21
5.4006247044
  0
LINE
  5
243
100
AcDbEntity
  8
0
100
AcDbLine
 62
7
  6
CONTINUOUS
 10
15.6768711899
 20
5.3773732361
 11
15.693839324
 21
5.3038761728
  0
LINE
  5
244
100
AcDbEntity
  8
0
100
AcDbLine
 62
7
  6
CONTINUOUS
 10
13.5603552569
 20
5.6406247044
 11
17.5603552569
 21
5.6406247044
  0
LINE
  5
245
100
AcDbEntity
  8
0
100
AcDbLine
 62
7
  6
CONTINUOUS
 10
15.9268711899
 20
5.3038761728
 11
15.943839324
 21
5.3773732361
  0
LINE
  5
246
100
AcDbEntity
  8
0
100
AcDbLine
 62
7
  6
CONTINUOUS
 10
16.1768711899
 20
5.3773732361
 11
16.193839324
 21
5.3038761728
  0
LINE
  5
247
100
AcDbEntity
  8
0
100
AcDbLine
 62
7
  6
CONTINUOUS
 10
16.4268711899
 20
5.3038761728
 11
16.443839324
 21
5.3773732361
  0
LINE
  5
248
100
AcDbEntity
  8
0
100
AcDbLine
 62
7
  6
CONTINUOUS
 10
16.6768711899
 20
5.3773732361
 11
16.693839324
 21
5.3038761728
  0
LINE
  5
249
100
AcDbEntity
  8
0
100
AcDbLine
 62
7
  6
CONTINUOUS
 10
16.9268711899
 20
5.3038761728
 11
16.943839324
 21
5.3773732361
  0
LINE
  5
24A
100
AcDbEntity
  8
0
100
AcDbLine
 62
7
  6
CONTINUOUS
 10
17.1768711899
 20
5.3773732361
 11
17.193839324
 21
5.3038761728
  0
LINE
  5
24B
100
AcDbEntity
  8
0
100
AcDbLine
 62
7
  6
CONTINUOUS
 10
17.5603552569
 20
5.4006247044
 11
17.5603552569
 21
5.6406247044
  0
LINE
  5
24C
100
AcDbEntity
  8
0
100
AcDbLine
 62
7
  6
CONTINUOUS
 10
17.4268711899
 20
5.3038761728
 11
17.443839324
 21
5.3773732361
  0
LINE
  5
24D
100
AcDbEntity
  8
0
100
AcDbLine
 62
7
  6
CONTINUOUS
 10
14.6269122091
 20
10.8695579775
 11
15.4475478476
 21
10.8695579775
  0
LINE
  5
24E
100
AcDbEntity
  8
0
100
AcDbLine
 62
7
  6
CONTINUOUS
 10
14.5366903606
 20
10.9558986419
 11
14.5985652931
 21
10.8816024312
  0
LWPOLYLINE
  5
24F
100
AcDbEntity
  8
0
100
AcDbPolyline
 62
7
  6
CONTINUOUS
 90
5
 70
0
 10
15.4892653249
 20
10.9110724895
 10
15.4985918073
 20
10.9128532798
 10
15.5054060566
 20
10.916877429
 10
15.510388939
 20
10.9223433448
 10
15.5134441866
 20
10.9281772133
  0
LINE
  5
250
100
AcDbEntity
  8
0
100
AcDbLine
 62
7
  6
CONTINUOUS
 10
15.474114861
 20
10.9110722508
 11
15.4892757948
 21
10.9110722508
  0
LINE
  5
251
100
AcDbEntity
  8
0
100
AcDbLine
 62
7
  6
CONTINUOUS
 10
14.51111553
 20
11.0032041206
 11
14.5274677383
 21
10.9698818237
  0
LINE
  5
252
100
AcDbEntity
  8
0
100
AcDbLine
 62
7
  6
CONTINUOUS
 10
15.4015239525
 20
11.0187443698
 11
14.5265160082
 21
11.0187443698
  0
LWPOLYLINE
  5
253
100
AcDbEntity
  8
0
100
AcDbPolyline
 62
7
  6
CONTINUOUS
 90
5
 70
0
 10
15.6102984866
 20
11.3027359443
 10
15.619624969
 20
11.3045167346
 10
15.6264392183
 20
11.3085408838
 10
15.6314221007
 20
11.3140067996
 10
15.6344773483
 20
11.3198406681
  0
LINE
  5
254
100
AcDbEntity
  8
0
100
AcDbLine
 62
7
  6
CONTINUOUS
 10
15.5951480227
 20
11.3027357056
 11
15.6103089565
 21
11.3027357056
  0
LWPOLYLINE
  5
255
100
AcDbEntity
  8
0
100
AcDbPolyline
 62
7
  6
CONTINUOUS
 90
5
 70
0
 10
15.7313316483
 20
11.6943993992
 10
15.7406581307
 20
11.6961801894
 10
15.74747238
 20
11.7002043386
 10
15.7524552624
 20
11.7056702544
 10
15.75551051
 20
11.711504123
  0
LINE
  5
256
100
AcDbEntity
  8
0
100
AcDbLine
 62
7
  6
CONTINUOUS
 10
15.7161811844
 20
11.6943991604
 11
15.7313421182
 21
11.6943991604
  0
LINE
  5
257
100
AcDbEntity
  8
0
100
AcDbLine
 62
7
  6
CONTINUOUS
 10
15.4485287323
 20
10.9698818237
 11
15.432176524
 21
11.0032041206
  0
LINE
  5
258
100
AcDbEntity
  8
0
100
AcDbLine
 62
7
  6
CONTINUOUS
 10
14.5102565338
 20
11.0105853049
 11
15.4785218274
 21
14.1438929434
  0
LWPOLYLINE
  5
259
100
AcDbEntity
  8
0
100
AcDbPolyline
 62
7
  6
CONTINUOUS
 90
5
 70
0
 10
15.85236481
 20
12.086062854
 10
15.8616912924
 20
12.0878436442
 10
15.8685055417
 20
12.0918677934
 10
15.8734884241
 20
12.0973337092
 10
15.8765436717
 20
12.1031675778
  0
LINE
  5
25A
100
AcDbEntity
  8
0
100
AcDbLine
 62
7
  6
CONTINUOUS
 10
15.8372143461
 20
12.0860626152
 11
15.8523752799
 21
12.0860626152
  0
LINE
  5
25B
100
AcDbEntity
  8
0
100
AcDbLine
 62
7
  6
CONTINUOUS
 10
15.4640736447
 20
10.8816024312
 11
15.4530300079
 21
10.9558986419
  0
LWPOLYLINE
  5
25C
100
AcDbEntity
  8
0
100
AcDbPolyline
 62
7
  6
CONTINUOUS
 90
5
 70
0
 10
15.9733979717
 20
12.4777263088
 10
15.9827244541
 20
12.479507099
 10
15.9895387034
 20
12.4835312482
 10
15.9945215858
 20
12.488997164
 10
15.9975768334
 20
12.4948310326
  0
LINE
  5
25D
100
AcDbEntity
  8
0
100
AcDbLine
 62
7
  6
CONTINUOUS
 10
15.9582475078
 20
12.47772607
 11
15.9734084416
 21
12.47772607
  0
LINE
  5
25E
100
AcDbEntity
  8
0
100
AcDbLine
 62
7
  6
CONTINUOUS
 10
15.5584502875
 20
11.0820708141
 11
15.5557667063
 21
11.1410489176
  0
LINE
  5
25F
100
AcDbEntity
  8
0
100
AcDbLine
 62
7
  6
CONTINUOUS
 10
15.5584750334
 20
11.0813835983
 11
15.5584499183
 21
11.0820786786
  0
LWPOLYLINE
  5
260
100
AcDbEntity
  8
0
100
AcDbPolyline
 62
7
  6
CONTINUOUS
 90
6
 70
0
 10
15.5557658625
 20
11.1410689729
 10
15.5556670218
 20
11.1445963544
 10
15.5560113324
 20
11.1565444406
 10
15.5573914567
 20
11.1705886667
 10
15.5597032687
 20
11.1847575382
 10
15.5625517332
 20
11.197011753
  0
LINE
  5
261
100
AcDbEntity
  8
0
100
AcDbLine
 62
7
  6
CONTINUOUS
 10
15.5583220022
 20
11.0766430052
 11
15.5584750334
 21
11.0813835983
  0
LINE
  5
262
100
AcDbEntity
  8
0
100
AcDbLine
 62
7
  6
CONTINUOUS
 10
15.463805965
 20
10.8777174603
 11
15.4640736447
 21
10.8816024312
  0
LINE
  5
263
100
AcDbEntity
  8
0
100
AcDbLine
 62
7
  6
CONTINUOUS
 10
15.6794834492
 20
11.4737342689
 11
15.676799868
 21
11.5327123724
  0
LINE
  5
264
100
AcDbEntity
  8
0
100
AcDbLine
 62
7
  6
CONTINUOUS
 10
15.6795081951
 20
11.4730470531
 11
15.67948308
 21
11.4737421334
  0
LWPOLYLINE
  5
265
100
AcDbEntity
  8
0
100
AcDbPolyline
 62
7
  6
CONTINUOUS
 90
6
 70
0
 10
15.6767990242
 20
11.5327324277
 10
15.6767001835
 20
11.5362598092
 10
15.6770444941
 20
11.5482078954
 10
15.6784246184
 20
11.5622521215
 10
15.6807364304
 20
11.576420993
 10
15.6835848949
 20
11.5886752078
  0
LINE
  5
266
100
AcDbEntity
  8
0
100
AcDbLine
 62
7
  6
CONTINUOUS
 10
15.6793551639
 20
11.46830646
 11
15.6795081951
 21
11.4730470531
  0
LINE
  5
267
100
AcDbEntity
  8
0
100
AcDbLine
 62
7
  6
CONTINUOUS
 10
16.3357673524
 20
13.6971301621
 11
16.3361316172
 21
13.6977797335
  0
LINE
  5
268
100
AcDbEntity
  8
0
100
AcDbLine
 62
7
  6
CONTINUOUS
 10
16.2147341906
 20
13.3054667073
 11
16.2150984555
 21
13.3061162787
  0
LWPOLYLINE
  5
269
100
AcDbEntity
  8
0
100
AcDbPolyline
 62
7
  6
CONTINUOUS
 90
5
 70
0
 10
16.0944311334
 20
12.8693897636
 10
16.1037576158
 20
12.8711705539
 10
16.1105718651
 20
12.875194703
 10
16.1155547475
 20
12.8806606188
 10
16.1186099951
 20
12.8864944874
  0
LINE
  5
26A
100
AcDbEntity
  8
0
100
AcDbLine
 62
7
  6
CONTINUOUS
 10
15.8005166109
 20
11.8653977238
 11
15.7978330297
 21
11.9243758273
  0
LINE
  5
26B
100
AcDbEntity
  8
0
100
AcDbLine
 62
7
  6
CONTINUOUS
 10
15.8005413568
 20
11.8647105079
 11
15.8005162417
 21
11.8654055882
  0
LWPOLYLINE
  5
26C
100
AcDbEntity
  8
0
100
AcDbPolyline
 62
7
  6
CONTINUOUS
 90
6
 70
0
 10
15.7978321859
 20
11.9243958825
 10
15.7977333452
 20
11.9279232641
 10
15.7980776558
 20
11.9398713502
 10
15.7994577801
 20
11.9539155763
 10
15.8017695921
 20
11.9680844478
 10
15.8046180566
 20
11.9803386627
  0
LINE
  5
26D
100
AcDbEntity
  8
0
100
AcDbLine
 62
7
  6
CONTINUOUS
 10
15.8003883256
 20
11.8599699148
 11
15.8005413568
 21
11.8647105079
  0
LINE
  5
26E
100
AcDbEntity
  8
0
100
AcDbLine
 62
7
  6
CONTINUOUS
 10
15.5576754457
 20
11.0719447587
 11
15.5583220022
 21
11.0766430052
  0
LINE
  5
26F
100
AcDbEntity
  8
0
100
AcDbLine
 62
7
  6
CONTINUOUS
 10
15.6787086074
 20
11.4636082135
 11
15.6793551639
 21
11.46830646
  0
LINE
  5
270
100
AcDbEntity
  8
0
100
AcDbLine
 62
7
  6
CONTINUOUS
 10
16.334321126
 20
13.6939095001
 11
16.3357673524
 21
13.6971301621
  0
LINE
  5
271
100
AcDbEntity
  8
0
100
AcDbLine
 62
7
  6
CONTINUOUS
 10
16.2132879643
 20
13.3022460453
 11
16.2147341906
 21
13.3054667073
  0
LINE
  5
272
100
AcDbEntity
  8
0
100
AcDbLine
 62
7
  6
CONTINUOUS
 10
16.0937010289
 20
12.9138032525
 11
16.0940652937
 21
12.9144528239
  0
LINE
  5
273
100
AcDbEntity
  8
0
100
AcDbLine
 62
7
  6
CONTINUOUS
 10
16.0792806695
 20
12.8693895248
 11
16.0944416033
 21
12.8693895248
  0
LINE
  5
274
100
AcDbEntity
  8
0
100
AcDbLine
 62
7
  6
CONTINUOUS
 10
15.9215497726
 20
12.2570611786
 11
15.9188661914
 21
12.3160392821
  0
LINE
  5
275
100
AcDbEntity
  8
0
100
AcDbLine
 62
7
  6
CONTINUOUS
 10
15.9215745185
 20
12.2563739627
 11
15.9215494034
 21
12.257069043
  0
LWPOLYLINE
  5
276
100
AcDbEntity
  8
0
100
AcDbPolyline
 62
7
  6
CONTINUOUS
 90
6
 70
0
 10
15.9188653476
 20
12.3160593374
 10
15.9187665069
 20
12.3195867189
 10
15.9191108175
 20
12.331534805
 10
15.9204909418
 20
12.3455790311
 10
15.9228027538
 20
12.3597479026
 10
15.9256512183
 20
12.3720021175
  0
LINE
  5
277
100
AcDbEntity
  8
0
100
AcDbLine
 62
7
  6
CONTINUOUS
 10
15.9214214873
 20
12.2516333696
 11
15.9215745185
 21
12.2563739627
  0
LINE
  5
278
100
AcDbEntity
  8
0
100
AcDbLine
 62
7
  6
CONTINUOUS
 10
15.7997417691
 20
11.8552716683
 11
15.8003883256
 21
11.8599699148
  0
LINE
  5
279
100
AcDbEntity
  8
0
100
AcDbLine
 62
7
  6
CONTINUOUS
 10
15.9207749308
 20
12.2469351232
 11
15.9214214873
 21
12.2516333696
  0
LINE
  5
27A
100
AcDbEntity
  8
0
100
AcDbLine
 62
7
  6
CONTINUOUS
 10
15.556539759
 20
11.0673264921
 11
15.5576754457
 21
11.0719447587
  0
LINE
  5
27B
100
AcDbEntity
  8
0
100
AcDbLine
 62
7
  6
CONTINUOUS
 10
15.6775729207
 20
11.4589899469
 11
15.6787086074
 21
11.4636082135
  0
LINE
  5
27C
100
AcDbEntity
  8
0
100
AcDbLine
 62
7
  6
CONTINUOUS
 10
15.7986060824
 20
11.8506534018
 11
15.7997417691
 21
11.8552716683
  0
LINE
  5
27D
100
AcDbEntity
  8
0
100
AcDbLine
 62
7
  6
CONTINUOUS
 10
15.9196392441
 20
12.2423168566
 11
15.9207749308
 21
12.2469351232
  0
LINE
  5
27E
100
AcDbEntity
  8
0
100
AcDbLine
 62
7
  6
CONTINUOUS
 10
16.0406724058
 20
12.6339803114
 11
16.0418080925
 21
12.638598578
  0
LINE
  5
27F
100
AcDbEntity
  8
0
100
AcDbLine
 62
7
  6
CONTINUOUS
 10
15.5625517332
 20
11.197011753
 11
15.5637068752
 21
11.2009938735
  0
LINE
  5
280
100
AcDbEntity
  8
0
100
AcDbLine
 62
7
  6
CONTINUOUS
 10
15.6835848949
 20
11.5886752078
 11
15.6847400369
 21
11.5926573283
  0
LINE
  5
281
100
AcDbEntity
  8
0
100
AcDbLine
 62
7
  6
CONTINUOUS
 10
15.8046180566
 20
11.9803386627
 11
15.8057731986
 21
11.9843207831
  0
LINE
  5
282
100
AcDbEntity
  8
0
100
AcDbLine
 62
7
  6
CONTINUOUS
 10
15.9256512183
 20
12.3720021175
 11
15.9268063603
 21
12.375984238
  0
LINE
  5
283
100
AcDbEntity
  8
0
100
AcDbLine
 62
7
  6
CONTINUOUS
 10
16.04668438
 20
12.7636655723
 11
16.047839522
 21
12.7676476928
  0
LINE
  5
284
100
AcDbEntity
  8
0
100
AcDbLine
 62
7
  6
CONTINUOUS
 10
16.1677175417
 20
13.1553290271
 11
16.1688726837
 21
13.1593111476
  0
LINE
  5
285
100
AcDbEntity
  8
0
100
AcDbLine
 62
7
  6
CONTINUOUS
 10
16.2887507034
 20
13.5469924819
 11
16.2899058455
 21
13.5509746024
  0
LINE
  5
286
100
AcDbEntity
  8
0
100
AcDbLine
 62
7
  6
CONTINUOUS
 10
16.4097838651
 20
13.9386559367
 11
16.4109390072
 21
13.9426380572
  0
LINE
  5
287
100
AcDbEntity
  8
0
100
AcDbLine
 62
7
  6
CONTINUOUS
 10
16.4109438975
 20
13.9426521239
 11
16.4320726157
 21
14.0110246809
  0
LINE
  5
288
100
AcDbEntity
  8
0
100
AcDbLine
 62
7
  6
CONTINUOUS
 10
15.5142829665
 20
10.9305830166
 11
15.5565404081
 21
11.067328148
  0
LINE
  5
289
100
AcDbEntity
  8
0
100
AcDbLine
 62
7
  6
CONTINUOUS
 10
15.6353161282
 20
11.3222464715
 11
15.6775735699
 21
11.4589916028
  0
LINE
  5
28A
100
AcDbEntity
  8
0
100
AcDbLine
 62
7
  6
CONTINUOUS
 10
15.7563492899
 20
11.7139099263
 11
15.7986067316
 21
11.8506550576
  0
LINE
  5
28B
100
AcDbEntity
  8
0
100
AcDbLine
 62
7
  6
CONTINUOUS
 10
15.8773824516
 20
12.1055733811
 11
15.9196398933
 21
12.2423185124
  0
LINE
  5
28C
100
AcDbEntity
  8
0
100
AcDbLine
 62
7
  6
CONTINUOUS
 10
15.9984156133
 20
12.4972368359
 11
16.040673055
 21
12.6339819673
  0
LINE
  5
28D
100
AcDbEntity
  8
0
100
AcDbLine
 62
7
  6
CONTINUOUS
 10
16.119448775
 20
12.8889002907
 11
16.1617062167
 21
13.0256454221
  0
LINE
  5
28E
100
AcDbEntity
  8
0
100
AcDbLine
 62
7
  6
CONTINUOUS
 10
16.2404819367
 20
13.2805637455
 11
16.2827393784
 21
13.4173088769
  0
LINE
  5
28F
100
AcDbEntity
  8
0
100
AcDbLine
 62
7
  6
CONTINUOUS
 10
16.3615150984
 20
13.6722272003
 11
16.4037725401
 21
13.8089723317
  0
LWPOLYLINE
  5
290
100
AcDbEntity
  8
0
100
AcDbPolyline
 62
7
  6
CONTINUOUS
 90
3
 70
0
 10
16.2899107358
 20
13.5509886691
 10
16.3323993581
 20
13.6884728835
 10
16.334321126
 20
13.6939095001
  0
LWPOLYLINE
  5
291
100
AcDbEntity
  8
0
100
AcDbPolyline
 62
7
  6
CONTINUOUS
 90
3
 70
0
 10
16.1688775741
 20
13.1593252143
 10
16.2113661964
 20
13.2968094287
 10
16.2132879643
 20
13.3022460453
  0
LWPOLYLINE
  5
292
100
AcDbEntity
  8
0
100
AcDbPolyline
 62
7
  6
CONTINUOUS
 90
3
 70
0
 10
16.0478444124
 20
12.7676617595
 10
16.0903330347
 20
12.9051459739
 10
16.0922548026
 20
12.9105825904
  0
LWPOLYLINE
  5
293
100
AcDbEntity
  8
0
100
AcDbPolyline
 62
7
  6
CONTINUOUS
 90
3
 70
0
 10
15.9268112507
 20
12.3759983047
 10
15.969299873
 20
12.513482519
 10
15.9712216409
 20
12.5189191356
  0
LWPOLYLINE
  5
294
100
AcDbEntity
  8
0
100
AcDbPolyline
 62
7
  6
CONTINUOUS
 90
3
 70
0
 10
15.805778089
 20
11.9843348498
 10
15.8482667113
 20
12.1218190642
 10
15.8501884792
 20
12.1272556808
  0
LWPOLYLINE
  5
295
100
AcDbEntity
  8
0
100
AcDbPolyline
 62
7
  6
CONTINUOUS
 90
3
 70
0
 10
15.6847449273
 20
11.592671395
 10
15.7272335496
 20
11.7301556094
 10
15.7291553175
 20
11.735592226
  0
LWPOLYLINE
  5
296
100
AcDbEntity
  8
0
100
AcDbPolyline
 62
7
  6
CONTINUOUS
 90
3
 70
0
 10
15.5637117656
 20
11.2010079402
 10
15.6062003879
 20
11.3384921546
 10
15.6081221558
 20
11.3439287712
  0
LWPOLYLINE
  5
297
100
AcDbEntity
  8
0
100
AcDbPolyline
 62
7
  6
CONTINUOUS
 90
3
 70
0
 10
15.4649265495
 20
10.8813388637
 10
15.4851672262
 20
10.9468286998
 10
15.4870889941
 20
10.9522653164
  0
LINE
  5
298
100
AcDbEntity
  8
0
100
AcDbLine
 62
7
  6
CONTINUOUS
 10
16.3606763185
 20
13.669821397
 11
16.3615250181
 21
13.6722595428
  0
LINE
  5
299
100
AcDbEntity
  8
0
100
AcDbLine
 62
7
  6
CONTINUOUS
 10
16.2396431568
 20
13.2781579422
 11
16.2404918564
 21
13.280596088
  0
LINE
  5
29A
100
AcDbEntity
  8
0
100
AcDbLine
 62
7
  6
CONTINUOUS
 10
16.1186099951
 20
12.8864944874
 11
16.1194586947
 21
12.8889326332
  0
LINE
  5
29B
100
AcDbEntity
  8
0
100
AcDbLine
 62
7
  6
CONTINUOUS
 10
15.9975768334
 20
12.4948310326
 11
15.998425533
 21
12.4972691783
  0
LINE
  5
29C
100
AcDbEntity
  8
0
100
AcDbLine
 62
7
  6
CONTINUOUS
 10
15.8765436717
 20
12.1031675778
 11
15.8773923713
 21
12.1056057235
  0
LINE
  5
29D
100
AcDbEntity
  8
0
100
AcDbLine
 62
7
  6
CONTINUOUS
 10
16.0922548026
 20
12.9105825904
 11
16.0937010289
 21
12.9138032525
  0
LINE
  5
29E
100
AcDbEntity
  8
0
100
AcDbLine
 62
7
  6
CONTINUOUS
 10
15.9712216409
 20
12.5189191356
 11
15.9726678672
 21
12.5221397977
  0
LINE
  5
29F
100
AcDbEntity
  8
0
100
AcDbLine
 62
7
  6
CONTINUOUS
 10
15.8501884792
 20
12.1272556808
 11
15.8516347055
 21
12.1304763429
  0
LINE
  5
2A0
100
AcDbEntity
  8
0
100
AcDbLine
 62
7
  6
CONTINUOUS
 10
15.9726678672
 20
12.5221397977
 11
15.973032132
 21
12.5227893691
  0
LINE
  5
2A1
100
AcDbEntity
  8
0
100
AcDbLine
 62
7
  6
CONTINUOUS
 10
15.8516347055
 20
12.1304763429
 11
15.8519989703
 21
12.1311259143
  0
LINE
  5
2A2
100
AcDbEntity
  8
0
100
AcDbLine
 62
7
  6
CONTINUOUS
 10
16.0425829343
 20
12.6487246334
 11
16.0398993531
 21
12.7077027369
  0
LINE
  5
2A3
100
AcDbEntity
  8
0
100
AcDbLine
 62
7
  6
CONTINUOUS
 10
16.0426076802
 20
12.6480374175
 11
16.0425825651
 21
12.6487324978
  0
LWPOLYLINE
  5
2A4
100
AcDbEntity
  8
0
100
AcDbPolyline
 62
7
  6
CONTINUOUS
 90
6
 70
0
 10
16.0398985093
 20
12.7077227922
 10
16.0397996686
 20
12.7112501737
 10
16.0401439792
 20
12.7231982598
 10
16.0415241035
 20
12.7372424859
 10
16.0438359155
 20
12.7514113574
 10
16.04668438
 20
12.7636655723
  0
LINE
  5
2A5
100
AcDbEntity
  8
0
100
AcDbLine
 62
7
  6
CONTINUOUS
 10
16.042454649
 20
12.6432968244
 11
16.0426076802
 21
12.6480374175
  0
LINE
  5
2A6
100
AcDbEntity
  8
0
100
AcDbLine
 62
7
  6
CONTINUOUS
 10
16.0418080925
 20
12.638598578
 11
16.042454649
 21
12.6432968244
  0
LINE
  5
2A7
100
AcDbEntity
  8
0
100
AcDbLine
 62
7
  6
CONTINUOUS
 10
16.1628412542
 20
13.0302620328
 11
16.1634878107
 21
13.0349602792
  0
LINE
  5
2A8
100
AcDbEntity
  8
0
100
AcDbLine
 62
7
  6
CONTINUOUS
 10
16.1617055675
 20
13.0256437662
 11
16.1628412542
 21
13.0302620328
  0
LINE
  5
2A9
100
AcDbEntity
  8
0
100
AcDbLine
 62
7
  6
CONTINUOUS
 10
16.2827387292
 20
13.417307221
 11
16.2838744159
 21
13.4219254876
  0
LINE
  5
2AA
100
AcDbEntity
  8
0
100
AcDbLine
 62
7
  6
CONTINUOUS
 10
16.4037718909
 20
13.8089706758
 11
16.4049075776
 21
13.8135889424
  0
LINE
  5
2AB
100
AcDbEntity
  8
0
100
AcDbLine
 62
7
  6
CONTINUOUS
 10
15.75551051
 20
11.711504123
 11
15.7563592096
 21
11.7139422687
  0
LINE
  5
2AC
100
AcDbEntity
  8
0
100
AcDbLine
 62
7
  6
CONTINUOUS
 10
15.6344773483
 20
11.3198406681
 11
15.6353260479
 21
11.3222788139
  0
LINE
  5
2AD
100
AcDbEntity
  8
0
100
AcDbLine
 62
7
  6
CONTINUOUS
 10
15.5134441866
 20
10.9281772133
 11
15.5142928862
 21
10.9306153591
  0
LINE
  5
2AE
100
AcDbEntity
  8
0
100
AcDbLine
 62
7
  6
CONTINUOUS
 10
15.7291553175
 20
11.735592226
 11
15.7306015438
 21
11.738812888
  0
LINE
  5
2AF
100
AcDbEntity
  8
0
100
AcDbLine
 62
7
  6
CONTINUOUS
 10
15.6081221558
 20
11.3439287712
 11
15.6095683821
 21
11.3471494332
  0
LINE
  5
2B0
100
AcDbEntity
  8
0
100
AcDbLine
 62
7
  6
CONTINUOUS
 10
15.7306015438
 20
11.738812888
 11
15.7309658086
 21
11.7394624595
  0
LWPOLYLINE
  5
2B1
100
AcDbEntity
  8
0
100
AcDbPolyline
 62
7
  6
CONTINUOUS
 90
5
 70
0
 10
16.2154642951
 20
13.2610532184
 10
16.2247907775
 20
13.2628340087
 10
16.2316050268
 20
13.2668581578
 10
16.2365879092
 20
13.2723240736
 10
16.2396431568
 20
13.2781579422
  0
LINE
  5
2B2
100
AcDbEntity
  8
0
100
AcDbLine
 62
7
  6
CONTINUOUS
 10
16.163616096
 20
13.0403880882
 11
16.1609325148
 21
13.0993661917
  0
LINE
  5
2B3
100
AcDbEntity
  8
0
100
AcDbLine
 62
7
  6
CONTINUOUS
 10
16.1636408419
 20
13.0397008724
 11
16.1636157268
 21
13.0403959526
  0
LWPOLYLINE
  5
2B4
100
AcDbEntity
  8
0
100
AcDbPolyline
 62
7
  6
CONTINUOUS
 90
6
 70
0
 10
16.160931671
 20
13.099386247
 10
16.1608328303
 20
13.1029136285
 10
16.1611771409
 20
13.1148617146
 10
16.1625572653
 20
13.1289059408
 10
16.1648690772
 20
13.1430748122
 10
16.1677175417
 20
13.1553290271
  0
LINE
  5
2B5
100
AcDbEntity
  8
0
100
AcDbLine
 62
7
  6
CONTINUOUS
 10
16.1634878107
 20
13.0349602792
 11
16.1636408419
 21
13.0397008724
  0
LINE
  5
2B6
100
AcDbEntity
  8
0
100
AcDbLine
 62
7
  6
CONTINUOUS
 10
16.2838744159
 20
13.4219254876
 11
16.2845209724
 21
13.426623734
  0
LINE
  5
2B7
100
AcDbEntity
  8
0
100
AcDbLine
 62
7
  6
CONTINUOUS
 10
16.4049075776
 20
13.8135889424
 11
16.4055541341
 21
13.8182871889
  0
LINE
  5
2B8
100
AcDbEntity
  8
0
100
AcDbLine
 62
7
  6
CONTINUOUS
 10
15.4870889941
 20
10.9522653164
 11
15.4885352204
 21
10.9554859784
  0
LINE
  5
2B9
100
AcDbEntity
  8
0
100
AcDbLine
 62
7
  6
CONTINUOUS
 10
15.6095683821
 20
11.3471494332
 11
15.6099326469
 21
11.3477990047
  0
LINE
  5
2BA
100
AcDbEntity
  8
0
100
AcDbLine
 62
7
  6
CONTINUOUS
 10
15.4885352204
 20
10.9554859784
 11
15.4888994852
 21
10.9561355498
  0
LINE
  5
2BB
100
AcDbEntity
  8
0
100
AcDbLine
 62
7
  6
CONTINUOUS
 10
16.2003138313
 20
13.2610529797
 11
16.215474765
 21
13.2610529797
  0
LINE
  5
2BC
100
AcDbEntity
  8
0
100
AcDbLine
 62
7
  6
CONTINUOUS
 10
16.2846492577
 20
13.432051543
 11
16.2819656766
 21
13.4910296465
  0
LINE
  5
2BD
100
AcDbEntity
  8
0
100
AcDbLine
 62
7
  6
CONTINUOUS
 10
16.2846740036
 20
13.4313643272
 11
16.2846488885
 21
13.4320594074
  0
LWPOLYLINE
  5
2BE
100
AcDbEntity
  8
0
100
AcDbPolyline
 62
7
  6
CONTINUOUS
 90
6
 70
0
 10
16.2819648328
 20
13.4910497018
 10
16.281865992
 20
13.4945770833
 10
16.2822103026
 20
13.5065251695
 10
16.283590427
 20
13.5205693956
 10
16.2859022389
 20
13.5347382671
 10
16.2887507034
 20
13.5469924819
  0
LINE
  5
2BF
100
AcDbEntity
  8
0
100
AcDbLine
 62
7
  6
CONTINUOUS
 10
16.2845209724
 20
13.426623734
 11
16.2846740036
 21
13.4313643272
  0
LINE
  5
2C0
100
AcDbEntity
  8
0
100
AcDbLine
 62
7
  6
CONTINUOUS
 10
16.4055541341
 20
13.8182871889
 11
16.4057071653
 21
13.823027782
  0
LINE
  5
2C1
100
AcDbEntity
  8
0
100
AcDbLine
 62
7
  6
CONTINUOUS
 10
16.4323389383
 20
14.0149100697
 11
16.4320712586
 21
14.0110250988
  0
LINE
  5
2C2
100
AcDbEntity
  8
0
100
AcDbLine
 62
7
  6
CONTINUOUS
 10
16.4056824194
 20
13.8237149978
 11
16.4029988383
 21
13.8826931013
  0
LINE
  5
2C3
100
AcDbEntity
  8
0
100
AcDbLine
 62
7
  6
CONTINUOUS
 10
16.4057071653
 20
13.823027782
 11
16.4056820502
 21
13.8237228623
  0
LWPOLYLINE
  5
2C4
100
AcDbEntity
  8
0
100
AcDbPolyline
 62
7
  6
CONTINUOUS
 90
6
 70
0
 10
16.4029979945
 20
13.8827131566
 10
16.4028991537
 20
13.8862405381
 10
16.4032434643
 20
13.8981886243
 10
16.4046235887
 20
13.9122328504
 10
16.4069354006
 20
13.9264017219
 10
16.4097838651
 20
13.9386559367
  0
LWPOLYLINE
  5
2C5
100
AcDbEntity
  8
0
100
AcDbPolyline
 62
7
  6
CONTINUOUS
 90
5
 70
0
 10
16.3364974568
 20
13.6527166732
 10
16.3458239392
 20
13.6544974635
 10
16.3526381885
 20
13.6585216127
 10
16.3576210709
 20
13.6639875285
 10
16.3606763185
 20
13.669821397
  0
LINE
  5
2C6
100
AcDbEntity
  8
0
100
AcDbLine
 62
7
  6
CONTINUOUS
 10
16.321346993
 20
13.6527164345
 11
16.3365079267
 21
13.6527164345
  0
LINE
  5
2C7
100
AcDbEntity
  8
0
100
AcDbLine
 62
7
  6
CONTINUOUS
 10
16.4323389383
 20
14.0149100697
 11
16.4212953015
 21
14.0892062804
  0
LINE
  5
2C8
100
AcDbEntity
  8
0
100
AcDbLine
 62
7
  6
CONTINUOUS
 10
16.3697892461
 20
14.1520520084
 11
15.4947813018
 21
14.1520520084
  0
LINE
  5
2C9
100
AcDbEntity
  8
0
100
AcDbLine
 62
7
  6
CONTINUOUS
 10
16.4167940259
 20
14.1031894622
 11
16.4004418176
 21
14.1365117591
  0
ARC
  5
2CA
100
AcDbEntity
  8
0
100
AcDbCircle
 62
7
  6
CONTINUOUS
 10
5.6848834028
 20
5.4851198968
 40
0.025
100
AcDbArc
 50
193.0
 51
270.0
  0
ARC
  5
2CB
100
AcDbEntity
  8
0
100
AcDbCircle
 62
7
  6
CONTINUOUS
 10
5.7125875849
 20
5.3651199
 40
0.025
100
AcDbArc
 50
193.0000075484
 51
270.000001698
  0
ARC
  5
2CC
100
AcDbEntity
  8
0
100
AcDbCircle
 62
7
  6
CONTINUOUS
 10
5.7303672762
 20
5.6215134576
 40
0.1
100
AcDbArc
 50
180.0
 51
193.0
  0
ARC
  5
2CD
100
AcDbEntity
  8
0
100
AcDbCircle
 62
7
  6
CONTINUOUS
 10
5.6553672762
 20
5.6751198968
 40
0.025
100
AcDbArc
 50
90.0
 51
180.0
  0
ARC
  5
2CE
100
AcDbEntity
  8
0
100
AcDbCircle
 62
7
  6
CONTINUOUS
 10
6.5481469666
 20
5.3651198968
 40
0.025
100
AcDbArc
 50
270.0
 51
347.0
  0
ARC
  5
2CF
100
AcDbEntity
  8
0
100
AcDbCircle
 62
7
  6
CONTINUOUS
 10
6.5758511496
 20
5.4851198968
 40
0.025
100
AcDbArc
 50
270.0
 51
347.0
  0
ARC
  5
2D0
100
AcDbEntity
  8
0
100
AcDbCircle
 62
7
  6
CONTINUOUS
 10
6.5303672762
 20
5.6215134576
 40
0.1
100
AcDbArc
 50
347.0
 51
360.0
  0
ARC
  5
2D1
100
AcDbEntity
  8
0
100
AcDbCircle
 62
7
  6
CONTINUOUS
 10
6.6053672762
 20
5.6751198968
 40
0.025
100
AcDbArc
 50
0.0
 51
90.0
  0
ARC
  5
2D2
100
AcDbEntity
  8
0
100
AcDbCircle
 62
7
  6
CONTINUOUS
 10
13.7230704259
 20
5.3106247044
 40
0.03
100
AcDbArc
 50
193.0
 51
270.0
  0
ARC
  5
2D3
100
AcDbEntity
  8
0
100
AcDbCircle
 62
7
  6
CONTINUOUS
 10
13.897640088
 20
5.3106247044
 40
0.03
100
AcDbArc
 50
270.0
 51
347.0
  0
ARC
  5
2D4
100
AcDbEntity
  8
0
100
AcDbCircle
 62
7
  6
CONTINUOUS
 10
14.2230704259
 20
5.3106247044
 40
0.03
100
AcDbArc
 50
193.0
 51
270.0
  0
ARC
  5
2D5
100
AcDbEntity
  8
0
100
AcDbCircle
 62
7
  6
CONTINUOUS
 10
14.397640088
 20
5.3106247044
 40
0.03
100
AcDbArc
 50
270.0
 51
347.0
  0
ARC
  5
2D6
100
AcDbEntity
  8
0
100
AcDbCircle
 62
7
  6
CONTINUOUS
 10
14.7230704259
 20
5.3106247044
 40
0.03
100
AcDbArc
 50
193.0
 51
270.0
  0
ARC
  5
2D7
100
AcDbEntity
  8
0
100
AcDbCircle
 62
7
  6
CONTINUOUS
 10
14.897640088
 20
5.3106247044
 40
0.03
100
AcDbArc
 50
270.0
 51
347.0
  0
ARC
  5
2D8
100
AcDbEntity
  8
0
100
AcDbCircle
 62
7
  6
CONTINUOUS
 10
15.2230704259
 20
5.3106247044
 40
0.03
100
AcDbArc
 50
193.0
 51
270.0
  0
ARC
  5
2D9
100
AcDbEntity
  8
0
100
AcDbCircle
 62
7
  6
CONTINUOUS
 10
15.397640088
 20
5.3106247044
 40
0.03
100
AcDbArc
 50
270.0
 51
347.0
  0
ARC
  5
2DA
100
AcDbEntity
  8
0
100
AcDbCircle
 62
7
  6
CONTINUOUS
 10
13.647640088
 20
5.3706247044
 40
0.03
100
AcDbArc
 50
13.0
 51
90.0
  0
ARC
  5
2DB
100
AcDbEntity
  8
0
100
AcDbCircle
 62
7
  6
CONTINUOUS
 10
13.9730704259
 20
5.3706247044
 40
0.03
100
AcDbArc
 50
90.0
 51
167.0
  0
ARC
  5
2DC
100
AcDbEntity
  8
0
100
AcDbCircle
 62
7
  6
CONTINUOUS
 10
14.147640088
 20
5.3706247044
 40
0.03
100
AcDbArc
 50
13.0
 51
90.0
  0
ARC
  5
2DD
100
AcDbEntity
  8
0
100
AcDbCircle
 62
7
  6
CONTINUOUS
 10
14.4730704259
 20
5.3706247044
 40
0.03
100
AcDbArc
 50
90.0
 51
167.0
  0
ARC
  5
2DE
100
AcDbEntity
  8
0
100
AcDbCircle
 62
7
  6
CONTINUOUS
 10
14.647640088
 20
5.3706247044
 40
0.03
100
AcDbArc
 50
13.0
 51
90.0
  0
ARC
  5
2DF
100
AcDbEntity
  8
0
100
AcDbCircle
 62
7
  6
CONTINUOUS
 10
14.9730704259
 20
5.3706247044
 40
0.03
100
AcDbArc
 50
90.0
 51
167.0
  0
ARC
  5
2E0
100
AcDbEntity
  8
0
100
AcDbCircle
 62
7
  6
CONTINUOUS
 10
15.147640088
 20
5.3706247044
 40
0.03
100
AcDbArc
 50
13.0
 51
90.0
  0
ARC
  5
2E1
100
AcDbEntity
  8
0
100
AcDbCircle
 62
7
  6
CONTINUOUS
 10
15.4730704259
 20
5.3706247044
 40
0.03
100
AcDbArc
 50
90.0
 51
167.0
  0
ARC
  5
2E2
100
AcDbEntity
  8
0
100
AcDbCircle
 62
7
  6
CONTINUOUS
 10
17.397640088
 20
5.3106247044
 40
0.03
100
AcDbArc
 50
270.0
 51
347.0
  0
ARC
  5
2E3
100
AcDbEntity
  8
0
100
AcDbCircle
 62
7
  6
CONTINUOUS
 10
17.2230704259
 20
5.3106247044
 40
0.03
100
AcDbArc
 50
193.0
 51
270.0
  0
ARC
  5
2E4
100
AcDbEntity
  8
0
100
AcDbCircle
 62
7
  6
CONTINUOUS
 10
16.897640088
 20
5.3106247044
 40
0.03
100
AcDbArc
 50
270.0
 51
347.0
  0
ARC
  5
2E5
100
AcDbEntity
  8
0
100
AcDbCircle
 62
7
  6
CONTINUOUS
 10
16.7230704259
 20
5.3106247044
 40
0.03
100
AcDbArc
 50
193.0
 51
270.0
  0
ARC
  5
2E6
100
AcDbEntity
  8
0
100
AcDbCircle
 62
7
  6
CONTINUOUS
 10
16.397640088
 20
5.3106247044
 40
0.03
100
AcDbArc
 50
270.0
 51
347.0
  0
ARC
  5
2E7
100
AcDbEntity
  8
0
100
AcDbCircle
 62
7
  6
CONTINUOUS
 10
16.2230704259
 20
5.3106247044
 40
0.03
100
AcDbArc
 50
193.0
 51
270.0
  0
ARC
  5
2E8
100
AcDbEntity
  8
0
100
AcDbCircle
 62
7
  6
CONTINUOUS
 10
15.897640088
 20
5.3106247044
 40
0.03
100
AcDbArc
 50
270.0
 51
347.0
  0
ARC
  5
2E9
100
AcDbEntity
  8
0
100
AcDbCircle
 62
7
  6
CONTINUOUS
 10
15.7230704259
 20
5.3106247044
 40
0.03
100
AcDbArc
 50
193.0
 51
270.0
  0
ARC
  5
2EA
100
AcDbEntity
  8
0
100
AcDbCircle
 62
7
  6
CONTINUOUS
 10
17.4730704259
 20
5.3706247044
 40
0.03
100
AcDbArc
 50
90.0
 51
167.0
  0
ARC
  5
2EB
100
AcDbEntity
  8
0
100
AcDbCircle
 62
7
  6
CONTINUOUS
 10
17.147640088
 20
5.3706247044
 40
0.03
100
AcDbArc
 50
13.0
 51
90.0
  0
ARC
  5
2EC
100
AcDbEntity
  8
0
100
AcDbCircle
 62
7
  6
CONTINUOUS
 10
16.9730704259
 20
5.3706247044
 40
0.03
100
AcDbArc
 50
90.0
 51
167.0
  0
ARC
  5
2ED
100
AcDbEntity
  8
0
100
AcDbCircle
 62
7
  6
CONTINUOUS
 10
16.647640088
 20
5.3706247044
 40
0.03
100
AcDbArc
 50
13.0
 51
90.0
  0
ARC
  5
2EE
100
AcDbEntity
  8
0
100
AcDbCircle
 62
7
  6
CONTINUOUS
 10
16.4730704259
 20
5.3706247044
 40
0.03
100
AcDbArc
 50
90.0
 51
167.0
  0
ARC
  5
2EF
100
AcDbEntity
  8
0
100
AcDbCircle
 62
7
  6
CONTINUOUS
 10
16.147640088
 20
5.3706247044
 40
0.03
100
AcDbArc
 50
13.0
 51
90.0
  0
ARC
  5
2F0
100
AcDbEntity
  8
0
100
AcDbCircle
 62
7
  6
CONTINUOUS
 10
15.9730704259
 20
5.3706247044
 40
0.03
100
AcDbArc
 50
90.0
 51
167.0
  0
ARC
  5
2F1
100
AcDbEntity
  8
0
100
AcDbCircle
 62
7
  6
CONTINUOUS
 10
15.647640088
 20
5.3706247044
 40
0.03
100
AcDbArc
 50
13.0
 51
90.0
  0
SPLINE
  5
2F2
100
AcDbEntity
  8
0
100
AcDbSpline
 62
7
  6
CONTINUOUS
 70
0
 71
3
 72
15
 73
11
 74
0
 42
0.0000001
 43
0.0000001
 44
0.0000000001
 40
0.0
 40
0.0
 40
0.0
 40
0.0
 40
0.1295681784
 40
0.2645751337
 40
0.401265941
 40
0.5362717449
 40
0.6662158524
 40
0.7881015796
 40
0.8998146908
 40
1.0
 40
1.0
 40
1.0
 40
1.0
 10
16.3697892461
 20
14.1520520084
 30
0.0
 10
16.3713375006
 20
14.1520520084
 30
0.0
 10
16.3745014465
 20
14.1518367861
 30
0.0
 10
16.3792239603
 20
14.1509528881
 30
0.0
 10
16.3838802729
 20
14.1495254378
 30
0.0
 10
16.3882921493
 20
14.1476101198
 30
0.0
 10
16.392298342
 20
14.1452814271
 30
0.0
 10
16.3957504233
 20
14.1426200881
 30
0.0
 10
16.3985162817
 20
14.1397240489
 30
0.0
 10
16.3999144226
 20
14.1375864773
 30
0.0
 10
16.4004418176
 20
14.1365117591
 30
0.0
  0
SPLINE
  5
2F3
100
AcDbEntity
  8
0
100
AcDbSpline
 62
7
  6
CONTINUOUS
 70
0
 71
3
 72
15
 73
11
 74
0
 42
0.0000001
 43
0.0000001
 44
0.0000000001
 40
0.0
 40
0.0
 40
0.0
 40
0.0
 40
0.0996463252
 40
0.202872269
 40
0.3125945677
 40
0.4308578973
 40
0.5588164766
 40
0.6968322867
 40
0.8443987332
 40
1.0
 40
1.0
 40
1.0
 40
1.0
 10
15.4785218158
 20
14.1438929508
 30
0.0
 10
15.4787119309
 20
14.1445081938
 30
0.0
 10
15.4792505677
 20
14.1457191398
 30
0.0
 10
15.4804815558
 20
14.1473400879
 30
0.0
 10
15.482104948
 20
14.1487552538
 30
0.0
 10
15.4840891212
 20
14.1499393098
 30
0.0
 10
15.4863966683
 20
14.1508779396
 30
0.0
 10
15.4889882789
 20
14.1515566706
 30
0.0
 10
15.4918151481
 20
14.1519643284
 30
0.0
 10
15.4937757557
 20
14.1520520084
 30
0.0
 10
15.4947813018
 20
14.1520520084
 30
0.0
  0
SPLINE
  5
2F4
100
AcDbEntity
  8
0
100
AcDbSpline
 62
7
  6
CONTINUOUS
 70
0
 71
3
 72
11
 73
7
 74
0
 42
0.0000001
 43
0.0000001
 44
0.0000000001
 40
0.0
 40
0.0
 40
0.0
 40
0.0
 40
0.2336953784
 40
0.4747286785
 40
0.7289545103
 40
1.0
 40
1.0
 40
1.0
 40
1.0
 10
14.5102565222
 20
11.0105853123
 30
0.0
 10
14.5100816673
 20
11.010019454
 30
0.0
 10
14.5098513546
 20
11.0088273054
 30
0.0
 10
14.5098936378
 20
11.0069680264
 30
0.0
 10
14.5103114488
 20
11.0050608536
 30
0.0
 10
14.5108129145
 20
11.0038207862
 30
0.0
 10
14.51111553
 20
11.0032041206
 30
0.0
  0
SPLINE
  5
2F5
100
AcDbEntity
  8
0
100
AcDbSpline
 62
7
  6
CONTINUOUS
 70
0
 71
3
 72
9
 73
5
 74
0
 42
0.0000001
 43
0.0000001
 44
0.0000000001
 40
0.0
 40
0.0
 40
0.0
 40
0.0
 40
0.5155721148
 40
1.0
 40
1.0
 40
1.0
 40
1.0
 10
16.4167940259
 20
14.1031894622
 30
0.0
 10
16.4179095148
 20
14.1009163349
 30
0.0
 10
16.4197885408
 20
14.0963588598
 30
0.0
 10
16.4209455039
 20
14.0915595481
 30
0.0
 10
16.4212953015
 20
14.0892062804
 30
0.0
  0
SPLINE
  5
2F6
100
AcDbEntity
  8
0
100
AcDbSpline
 62
7
  6
CONTINUOUS
 70
0
 71
3
 72
14
 73
10
 74
0
 42
0.0000001
 43
0.0000001
 44
0.0000000001
 40
0.0
 40
0.0
 40
0.0
 40
0.0
 40
0.1556082014
 40
0.3032492196
 40
0.5688430493
 40
0.6871576986
 40
0.7968877407
 40
0.9001725999
 40
1.0
 40
1.0
 40
1.0
 40
1.0
 10
15.4475478476
 20
10.8695579775
 30
0.0
 10
15.4485528602
 20
10.8695579775
 30
0.0
 10
15.4505137407
 20
10.8696458731
 30
0.0
 10
15.454151703
 20
10.870170582
 30
0.0
 10
15.4574726119
 20
10.8712147112
 30
0.0
 10
15.4602230593
 20
10.8728534221
 30
0.0
 10
15.4618467981
 20
10.8742678664
 30
0.0
 10
15.4630777804
 20
10.8758892912
 30
0.0
 10
15.4636167251
 20
10.8771011109
 30
0.0
 10
15.4638064021
 20
10.8777173254
 30
0.0
  0
SPLINE
  5
2F7
100
AcDbEntity
  8
0
100
AcDbSpline
 62
7
  6
CONTINUOUS
 70
0
 71
3
 72
15
 73
11
 74
0
 42
0.0000001
 43
0.0000001
 44
0.0000000001
 40
0.0
 40
0.0
 40
0.0
 40
0.0
 40
0.1089080235
 40
0.2266164718
 40
0.3512068998
 40
0.4806317372
 40
0.6126743055
 40
0.7449592921
 40
0.8750053097
 40
1.0
 40
1.0
 40
1.0
 40
1.0
 10
14.5985652931
 20
10.8816024312
 30
0.0
 10
14.5993008988
 20
10.8807191541
 30
0.0
 10
14.600981528
 20
10.8790038616
 30
0.0
 10
14.6038988291
 20
10.8767037638
 30
0.0
 10
14.6072444083
 20
10.8746392407
 30
0.0
 10
14.6109191035
 20
10.8728632938
 30
0.0
 10
14.6148255856
 20
10.8714267502
 30
0.0
 10
14.6188571742
 20
10.8703652251
 30
0.0
 10
14.6228995538
 20
10.8697152914
 30
0.0
 10
14.625592946
 20
10.8695579775
 30
0.0
 10
14.6269122091
 20
10.8695579775
 30
0.0
  0
SPLINE
  5
2F8
100
AcDbEntity
  8
0
100
AcDbSpline
 62
7
  6
CONTINUOUS
 70
0
 71
3
 72
9
 73
5
 74
0
 42
0.0000001
 43
0.0000001
 44
0.0000000001
 40
0.0
 40
0.0
 40
0.0
 40
0.0
 40
0.2380066519
 40
1.0
 40
1.0
 40
1.0
 40
1.0
 10
14.5274677383
 20
10.9698818237
 30
0.0
 10
14.5280539873
 20
10.9686871739
 30
0.0
 10
14.5306899951
 20
10.9637529357
 30
0.0
 10
14.5339638859
 20
10.9591724513
 30
0.0
 10
14.5366903606
 20
10.9558986419
 30
0.0
  0
SPLINE
  5
2F9
100
AcDbEntity
  8
0
100
AcDbSpline
 62
7
  6
CONTINUOUS
 70
0
 71
3
 72
15
 73
11
 74
0
 42
0.0000001
 43
0.0000001
 44
0.0000000001
 40
0.0
 40
0.0
 40
0.0
 40
0.0
 40
0.1556012668
 40
0.3031677133
 40
0.4411835234
 40
0.5691421027
 40
0.6874054323
 40
0.797127731
 40
0.9003536748
 40
1.0
 40
1.0
 40
1.0
 40
1.0
 10
14.5265160082
 20
11.0187443698
 30
0.0
 10
14.5255104621
 20
11.0187443698
 30
0.0
 10
14.5235498545
 20
11.0186566899
 30
0.0
 10
14.5207229852
 20
11.0182490321
 30
0.0
 10
14.5181313746
 20
11.0175703011
 30
0.0
 10
14.5158238276
 20
11.0166316713
 30
0.0
 10
14.5138396544
 20
11.0154476153
 30
0.0
 10
14.5122162622
 20
11.0140324494
 30
0.0
 10
14.5109852741
 20
11.0124115013
 30
0.0
 10
14.5104466373
 20
11.0112005553
 30
0.0
 10
14.5102565222
 20
11.0105853123
 30
0.0
  0
SPLINE
  5
2FA
100
AcDbEntity
  8
0
100
AcDbSpline
 62
7
  6
CONTINUOUS
 70
0
 71
3
 72
9
 73
5
 74
0
 42
0.0000001
 43
0.0000001
 44
0.0000000001
 40
0.0
 40
0.0
 40
0.0
 40
0.0
 40
0.4844278852
 40
1.0
 40
1.0
 40
1.0
 40
1.0
 10
15.4530300079
 20
10.9558986419
 30
0.0
 10
15.4526802103
 20
10.9582519096
 30
0.0
 10
15.4515232472
 20
10.9630512213
 30
0.0
 10
15.4496442211
 20
10.9676086964
 30
0.0
 10
15.4485287323
 20
10.9698818237
 30
0.0
  0
SPLINE
  5
2FB
100
AcDbEntity
  8
0
100
AcDbSpline
 62
7
  6
CONTINUOUS
 70
0
 71
3
 72
15
 73
11
 74
0
 42
0.0000001
 43
0.0000001
 44
0.0000000001
 40
0.0
 40
0.0
 40
0.0
 40
0.0
 40
0.1001853092
 40
0.2118984204
 40
0.3337841476
 40
0.4637282551
 40
0.598734059
 40
0.7354248663
 40
0.8704318216
 40
1.0
 40
1.0
 40
1.0
 40
1.0
 10
15.432176524
 20
11.0032041206
 30
0.0
 10
15.431649129
 20
11.0042788388
 30
0.0
 10
15.4302509881
 20
11.0064164104
 30
0.0
 10
15.4274851297
 20
11.0093124496
 30
0.0
 10
15.4240330484
 20
11.0119737886
 30
0.0
 10
15.4200268556
 20
11.0143024813
 30
0.0
 10
15.4156149792
 20
11.0162177993
 30
0.0
 10
15.4109586667
 20
11.0176452496
 30
0.0
 10
15.4062361528
 20
11.0185291475
 30
0.0
 10
15.403072207
 20
11.0187443698
 30
0.0
 10
15.4015239525
 20
11.0187443698
 30
0.0
  0
ENDSEC
  0
SECTION
  2
OBJECTS
  0
DICTIONARY
  5
C
100
AcDbDictionary
280
0
281
1
  3
ACAD_GROUP
350
D
  3
ACAD_MLINESTYLE
350
17
  3
ACAD_LAYOUT
350
1A
  3
ACAD_PLOTSETTINGS
350
19
  3
ACAD_PLOTSTYLENAME
350
E
  0
DICTIONARY
  5
D
102
{ACAD_REACTORS
330
C
102
}
100
AcDbDictionary
280
0
281
1
  0
ACDBDICTIONARYWDFLT
  5
E
102
{ACAD_REACTORS
330
C
102
}
100
AcDbDictionary
281
1
  3
Normal
350
F
100
AcDbDictionaryWithDefault
340
F
  0
DICTIONARY
  5
17
102
{ACAD_REACTORS
330
C
102
}
100
AcDbDictionary
280
0
281
1
  3
Standard
350
18
  0
DICTIONARY
  5
19
102
{ACAD_REACTORS
330
C
102
}
100
AcDbDictionary
281
1
  0
DICTIONARY
  5
1A
102
{ACAD_REACTORS
330
C
102
}
100
AcDbDictionary
281
1
  3
Model
350
2FC
  3
Layout1
350
2FD
  0
ACDBPLACEHOLDER
  5
F
102
{ACAD_REACTORS
330
E
102
}
  0
MLINESTYLE
  5
18
102
{ACAD_REACTORS
330
17
102
}
100
AcDbMlineStyle
  2
STANDARD
 70
0
  3

 62
256
 51
90.0
 52
90.0
 71
2
 49
0.5
 62
256
  6
BYLAYER
 49
-0.5
 62
256
  6
BYLAYER
  0
LAYOUT
  5
2FC
102
{ACAD_REACTORS
330
1A
102
}
100
AcDbPlotSettings
  1

  2
none_device
  4
ANSI_C_(22.00_x_17.00_Inches)
  6

 40
0.0
 41
0.0
 42
0.0
 43
0.0
 44
558.8
 45
431.8
 46
0.0
 47
0.0
 48
0.0
 49
0.0
140
0.0
141
0.0
142
1.0
143
1.0
 70
1024
 72
0
 73
0
 74
0
  7

 75
0
147
1.0
148
0.0
149
0.0
100
AcDbLayout
  1
Model
 70
0
 71
0
 10
0.0
 20
0.0
 11
22.0
 21
17.0
 12
0.0
 22
0.0
 32
0.0
 14
0.0
 24
0.0
 34
0.0
 15
0.0
 25
0.0
 35
0.0
146
0.0
 13
0.0
 23
0.0
 33
0.0
 16
1.0
 26
0.0
 36
0.0
 17
0.0
 27
1.0
 37
0.0
 76
0
330
216
345
0
346
0
  0
LAYOUT
  5
2FD
102
{ACAD_REACTORS
330
1A
102
}
100
AcDbPlotSettings
  1

  2
none_device
  4
ANSI_C_(22.00_x_17.00_Inches)
  6

 40
0.0
 41
0.0
 42
0.0
 43
0.0
 44
558.8
 45
431.8
 46
0.0
 47
0.0
 48
0.0
 49
0.0
140
0.0
141
0.0
142
1.0
143
1.0
 70
0
 72
0
 73
0
 74
0
  7

 75
0
147
1.0
148
0.0
149
0.0
100
AcDbLayout
  1
Layout1
 70
0
 71
1
 10
0.0
 20
0.0
 11
22.0
 21
17.0
 12
0.0
 22
0.0
 32
0.0
 14
0.0
 24
0.0
 34
0.0
 15
0.0
 25
0.0
 35
0.0
146
0.0
 13
0.0
 23
0.0
 33
0.0
 16
1.0
 26
0.0
 36
0.0
 17
0.0
 27
1.0
 37
0.0
 76
0
330
217
345
0
346
0
  0
ENDSEC
  0
EOF