999
DXF file: _cgs_temp_output.dxf
999
Pro/ENGINEER 2016360 by Parametric Technology Corporation
  0
SECTION
  2
HEADER
  9
$ACADVER
  1
AC1021
  9
$DWGCODEPAGE
  3
ANSI_1252
  9
$EXTMAX
 10
22.0
 20
17.0
 30
0.0
  9
$EXTMIN
 10
0.0
 20
0.0
 30
0.0
  9
$LIMMIN
 10
0.0
 20
0.0
  9
$LIMMAX
 10
22.0
 20
17.0
  9
$VIEWCTR
 10
11.0
 20
8.5
  9
$VIEWSIZE
 40
17.0
  9
$CLAYER
  8
0
  9
$LTSCALE
 40
1.21
  9
$CELTYPE
  6
BYLAYER
  9
$DIMSCALE
 40
1.0
  9
$DIMASZ
 40
0.1875
  9
$DIMEXO
 40
0.0625
  9
$DIMDLI
 40
0.836
  9
$DIMEXE
 40
0.125
  9
$DIMCEN
 40
0.198
  9
$DIMLFAC
 40
1.0
  9
$DIMBLK
  1
_CLOSED
  9
$DIMALT
 70
0
  9
$DIMALTF
 40
25.4
  9
$DIMTXT
 40
0.15625
  9
$DIMTOL
 70
0
  9
$DIMLIM
 70
0
  9
$DIMTFAC
 40
1.0
  9
$DIMGAP
 40
0.09
  9
$DIMDSEP
 70
46
  9
$AUNITS
 70
0
  9
$PDMODE
 70
3
  9
$PDSIZE
 40
0.3125
  9
$HANDSEED
  5
2FE
  9
$TILEMODE
 70
1
  9
$MEASUREMENT
 70
0
  9
$INSUNITS
 70
1
  0
ENDSEC
  0
SECTION
  2
CLASSES
  0
CLASS
  1
ACDBDICTIONARYWDFLT
  2
AcDbDictionaryWithDefault
  3
AutoCAD 2000
 90
0
 91
1
280
0
281
0
  0
CLASS
  1
ACDBPLACEHOLDER
  2
AcDbPlaceHolder
  3
AutoCAD 2000
 90
0
 91
1
280
0
281
0
  0
CLASS
  1
LAYOUT
  2
AcDbLayout
  3
AutoCAD 2000
 90
0
 91
0
280
0
281
0
  0
ENDSEC
  0
SECTION
  2
TABLES
  0
TABLE
  2
VPORT
  5
8
100
AcDbSymbolTable
 70
2
  0
VPORT
  5
1F4
100
AcDbSymbolTableRecord
100
AcDbViewportTableRecord
  2
*ACTIVE
 70
0
 10
0.0
 20
0.0
 11
1.0
 21
1.0
 12
11.0
 22
8.5
 13
0.0
 23
0.0
 14
1.0
 24
1.0
 15
0.0
 25
0.0
 16
0.0
 26
0.0
 36
1.0
 17
0.0
 27
0.0
 37
0.0
 40
17.0
 41
1.2941176471
 42
50.0
 43
0.0
 44
0.0
 50
0.0
 51
0.0
 71
0
 72
100
 73
1
 74
1
 75
0
 76
0
 77
0
 78
0
  0
ENDTAB
  0
TABLE
  2
LTYPE
  5
5
100
AcDbSymbolTable
 70
6
  0
LTYPE
  5
14
100
AcDbSymbolTableRecord
100
AcDbLinetypeTableRecord
  2
BYBLOCK
 70
0
  3

 72
65
 73
0
 40
0.0
  0
LTYPE
  5
15
100
AcDbSymbolTableRecord
100
AcDbLinetypeTableRecord
  2
BYLAYER
 70
0
  3

 72
65
 73
0
 40
0.0
  0
LTYPE
  5
16
100
AcDbSymbolTableRecord
100
AcDbLinetypeTableRecord
  2
CONTINUOUS
 70
64
  3
Solid line
 72
65
 73
0
 40
0.0
  0
LTYPE
  5
1F5
100
AcDbSymbolTableRecord
100
AcDbLinetypeTableRecord
  2
CENTER
 70
64
  3
____ _ ____ _ ____ _ ____ _ ____ _ ____ _ ____
 72
65
 73
4
 40
0.6
 49
0.375
 74
0
 49
-0.075
 74
0
 49
0.075
 74
0
 49
-0.075
 74
0
  0
LTYPE
  5
1F6
100
AcDbSymbolTableRecord
100
AcDbLinetypeTableRecord
  2
HIDDEN
 70
64
  3
- - - - - - - - - - - - - - - - - - - -
 72
65
 73
2
 40
0.2
 49
0.1
 74
0
 49
-0.1
 74
0
  0
LTYPE
  5
1F7
100
AcDbSymbolTableRecord
100
AcDbLinetypeTableRecord
  2
PHANTOM
 70
64
  3
_____ _ _ _____ _ _ _____ _ _ _____
 72
65
 73
6
 40
0.8
 49
0.45
 74
0
 49
-0.05
 74
0
 49
0.1
 74
0
 49
-0.05
 74
0
 49
0.1
 74
0
 49
-0.05
 74
0
  0
LTYPE
  5
1F8
100
AcDbSymbolTableRecord
100
AcDbLinetypeTableRecord
  2
DOT
 70
64
  3
. . . . . . . . . . . . . . . . . . . .
 72
65
 73
2
 40
0.2
 49
0.1
 74
0
 49
-0.1
 74
0
  0
LTYPE
  5
1F9
100
AcDbSymbolTableRecord
100
AcDbLinetypeTableRecord
  2
DASHED
 70
64
  3
- - - - - - - - - - - - - - - - - - - -
 72
65
 73
2
 40
0.2
 49
0.1
 74
0
 49
-0.1
 74
0
  0
ENDTAB
  0
TABLE
  2
LAYER
  5
2
100
AcDbSymbolTable
 70
36
  0
LAYER
  5
10
100
AcDbSymbolTableRecord
100
AcDbLayerTableRecord
  2
0
 70
0
 62
7
  6
CONTINUOUS
370
-3
390
F
  0
LAYER
  5
1FA
100
AcDbSymbolTableRecord
100
AcDbLayerTableRecord
  2
DEFAULT_1
 70
0
 62
7
  6
CENTER
370
-3
390
F
  0
LAYER
  5
1FB
100
AcDbSymbolTableRecord
100
AcDbLayerTableRecord
  2
DEFAULT_2
 70
0
 62
8
  6
HIDDEN
370
-3
390
F
  0
LAYER
  5
1FC
100
AcDbSymbolTableRecord
100
AcDbLayerTableRecord
  2
DEFAULT_3
 70
0
 62
7
  6
PHANTOM
370
-3
390
F
  0
LAYER
  5
1FD
100
AcDbSymbolTableRecord
100
AcDbLayerTableRecord
  2
01_ALL_DTM_PLN
 70
0
 62
7
  6
CONTINUOUS
370
-3
390
F
  0
LAYER
  5
1FE
100
AcDbSymbolTableRecord
100
AcDbLayerTableRecord
  2
01__ASM_ALL_DTM_PLN
 70
0
 62
7
  6
CONTINUOUS
370
-3
390
F
  0
LAYER
  5
1FF
100
AcDbSymbolTableRecord
100
AcDbLayerTableRecord
  2
01__ASM_DEF_DTM_PLN
 70
0
 62
7
  6
CONTINUOUS
370
-3
390
F
  0
LAYER
  5
200
100
AcDbSymbolTableRecord
100
AcDbLayerTableRecord
  2
01___PRT_ALL_DTM_PLN
 70
0
 62
7
  6
CONTINUOUS
370
-3
390
F
  0
LAYER
  5
201
100
AcDbSymbolTableRecord
100
AcDbLayerTableRecord
  2
01___PRT_DEF_DTM_PLN
 70
0
 62
7
  6
CONTINUOUS
370
-3
390
F
  0
LAYER
  5
202
100
AcDbSymbolTableRecord
100
AcDbLayerTableRecord
  2
02_ALL_AXES
 70
0
 62
7
  6
CONTINUOUS
370
-3
390
F
  0
LAYER
  5
203
100
AcDbSymbolTableRecord
100
AcDbLayerTableRecord
  2
02__ASM_ALL_AXES
 70
0
 62
7
  6
CONTINUOUS
370
-3
390
F
  0
LAYER
  5
204
100
AcDbSymbolTableRecord
100
AcDbLayerTableRecord
  2
02___PRT_ALL_AXES
 70
0
 62
7
  6
CONTINUOUS
370
-3
390
F
  0
LAYER
  5
205
100
AcDbSymbolTableRecord
100
AcDbLayerTableRecord
  2
03_ALL_CURVES
 70
0
 62
7
  6
CONTINUOUS
370
-3
390
F
  0
LAYER
  5
206
100
AcDbSymbolTableRecord
100
AcDbLayerTableRecord
  2
03__ASM_ALL_CURVES
 70
0
 62
7
  6
CONTINUOUS
370
-3
390
F
  0
LAYER
  5
207
100
AcDbSymbolTableRecord
100
AcDbLayerTableRecord
  2
03___PRT_ALL_CURVES
 70
0
 62
7
  6
CONTINUOUS
370
-3
390
F
  0
LAYER
  5
208
100
AcDbSymbolTableRecord
100
AcDbLayerTableRecord
  2
04_ALL_DTM_PNT
 70
0
 62
7
  6
CONTINUOUS
370
-3
390
F
  0
LAYER
  5
209
100
AcDbSymbolTableRecord
100
AcDbLayerTableRecord
  2
04__ASM_ALL_DTM_PNT
 70
0
 62
7
  6
CONTINUOUS
370
-3
390
F
  0
LAYER
  5
20A
100
AcDbSymbolTableRecord
100
AcDbLayerTableRecord
  2
04___PRT_ALL_DTM_PNT
 70
0
 62
7
  6
CONTINUOUS
370
-3
390
F
  0
LAYER
  5
20B
100
AcDbSymbolTableRecord
100
AcDbLayerTableRecord
  2
05_ALL_DTM_CSYS
 70
0
 62
7
  6
CONTINUOUS
370
-3
390
F
  0
LAYER
  5
20C
100
AcDbSymbolTableRecord
100
AcDbLayerTableRecord
  2
05__ASM_ALL_DTM_CSYS
 70
0
 62
7
  6
CONTINUOUS
370
-3
390
F
  0
LAYER
  5
20D
100
AcDbSymbolTableRecord
100
AcDbLayerTableRecord
  2
05__ASM_DEF_DTM_CSYS
 70
0
 62
7
  6
CONTINUOUS
370
-3
390
F
  0
LAYER
  5
20E
100
AcDbSymbolTableRecord
100
AcDbLayerTableRecord
  2
05___PRT_ALL_DTM_CSYS
 70
0
 62
7
  6
CONTINUOUS
370
-3
390
F
  0
LAYER
  5
20F
100
AcDbSymbolTableRecord
100
AcDbLayerTableRecord
  2
05___PRT_DEF_DTM_CSYS
 70
0
 62
7
  6
CONTINUOUS
370
-3
390
F
  0
LAYER
  5
210
100
AcDbSymbolTableRecord
100
AcDbLayerTableRecord
  2
06_ALL_SURFS
 70
0
 62
7
  6
CONTINUOUS
370
-3
390
F
  0
LAYER
  5
211
100
AcDbSymbolTableRecord
100
AcDbLayerTableRecord
  2
06__ASM_ALL_SURFS
 70
0
 62
7
  6
CONTINUOUS
370
-3
390
F
  0
LAYER
  5
212
100
AcDbSymbolTableRecord
100
AcDbLayerTableRecord
  2
06___PRT_ALL_SURFS
 70
0
 62
7
  6
CONTINUOUS
370
-3
390
F
  0
LAYER
  5
213
100
AcDbSymbolTableRecord
100
AcDbLayerTableRecord
  2
07__ASM_ALL_SKELETONS
 70
0
 62
7
  6
CONTINUOUS
370
-3
390
F
  0
ENDTAB
  0
TABLE
  2
STYLE
  5
3
100
AcDbSymbolTable
 70
1
  0
STYLE
  5
11
100
AcDbSymbolTableRecord
100
AcDbTextStyleTableRecord
  2
STANDARD
 70
0
 40
0.0
 41
0.8
 50
0.0
 71
0
 42
0.2
  3
txt
  4

  0
STYLE
  5
214
100
AcDbSymbolTableRecord
100
AcDbTextStyleTableRecord
  2
TEXTSTYLE_1
 70
0
 40
0.0
 41
0.8
 50
0.0
 71
0
 42
0.2
  3
gdt
  4

  0
ENDTAB
  0
TABLE
  2
VIEW
  5
6
100
AcDbSymbolTable
 70
0
  0
ENDTAB
  0
TABLE
  2
UCS
  5
7
100
AcDbSymbolTable
 70
0
  0
ENDTAB
  0
TABLE
  2
APPID
  5
9
100
AcDbSymbolTable
 70
1
  0
APPID
  5
215
100
AcDbSymbolTableRecord
100
AcDbRegAppTableRecord
  2
ACAD
 70
0
  0
ENDTAB
  0
TABLE
  2
BLOCK_RECORD
  5
1
100
AcDbSymbolTable
 70
0
  0
BLOCK_RECORD
  5
216
100
AcDbSymbolTableRecord
100
AcDbBlockTableRecord
  2
*Model_Space
  0
BLOCK_RECORD
  5
217
100
AcDbSymbolTableRecord
100
AcDbBlockTableRecord
  2
*Paper_Space
  0
ENDTAB
  0
TABLE
  2
DIMSTYLE
  5
A
100
AcDbSymbolTable
 70
1
100
AcDbDimStyleTable
 71
0
  0
DIMSTYLE
105
218
100
AcDbSymbolTableRecord
100
AcDbDimStyleTableRecord
  2
STANDARD
 70
0
  3

  4

 40
1.0
 41
0.1875
 42
0.0625
 43
0.38
 44
0.125
 45
0.0
 46
0.0
 47
0.0001
 48
0.0001
140
0.15625
141
0.09
142
0.0
143
25.4
144
1.0
145
0.0
146
1.0
147
0.09
 71
0.0
 72
0.0
 73
1
 74
1
 75
0
 76
0
 77
0
 78
4
 79
1
170
0
171
3
172
0
173
0
174
0
175
0
176
0
177
0
178
0
270
2
179
4
271
4
272
4
273
2
274
2
275
0
280
0
281
0
282
0
283
1
284
4
285
0
286
0
287
3
288
0
340
11
278
46
  0
ENDTAB
  0
ENDSEC
  0
SECTION
  2
BLOCKS
  0
BLOCK
  5
20
100
AcDbEntity
  8
0
100
AcDbBlockBegin
  2
*Model_Space
 70
0
 10
0.0
 20
0.0
 30
0.0
  3
*Model_Space
  1

  0
ENDBLK
  5
21
100
AcDbEntity
  8
0
100
AcDbBlockEnd
  0
BLOCK
  5
1C
100
AcDbEntity
  8
0
100
AcDbBlockBegin
  2
*Paper_Space
 70
0
 10
0.0
 20
0.0
 30
0.0
  3
*Paper_Space
  1

  0
ENDBLK
  5
1D
100
AcDbEntity
  8
0
100
AcDbBlockEnd
  0
ENDSEC
  0
SECTION
  2
ENTITIES
  0
MTEXT
  5
219
100
AcDbEntity
  8
0
100
AcDbMText
 62
7
  6
CONTINUOUS
  7
STANDARD
 71
1
 72
1
 10
15.9560215477
 20
0.9479130325
 30
0.0
 11
1.0
 21
0.0
 31
0.0
 44
0.9
  1
SCALE: 1:1.000
 40
0.3
 41
3.36
  0
LINE
  5
21A
100
AcDbEntity
  8
0
100
AcDbLine
 62
7
  6
CONTINUOUS
 10
0.0
 20
0.0
 11
0.0
 21
17.0
  0
LINE
  5
21B
100
AcDbEntity
  8
0
100
AcDbLine
 62
7
  6
CONTINUOUS
 10
0.0
 20
0.0
 11
22.0
 21
0.0
  0
LINE
  5
21C
100
AcDbEntity
  8
0
100
AcDbLine
 62
7
  6
CONTINUOUS
 10
0.0
 20
17.0
 11
22.0
 21
17.0
  0
LINE
  5
21D
100
AcDbEntity
  8
0
100
AcDbLine
 62
7
  6
CONTINUOUS
 10
22.0
 20
0.0
 11
22.0
 21
17.0
  0
LINE
  5
21E
100
AcDbEntity
  8
0
100
AcDbLine
 62
7
  6
CONTINUOUS
 10
5.6303672762
 20
5.6201198968
 11
5.6303672762
 21
5.5948983528
  0
LINE
  5
21F
100
AcDbEntity
  8
0
100
AcDbLine
 62
7
  6
CONTINUOUS
 10
5.6723910242
 20
5.4140718494
 11
5.6333377035
 21
5.5707061633
  0
LINE
  5
220
100
AcDbEntity
  8
0
100
AcDbLine
 62
7
  6
CONTINUOUS
 10
5.6966484174
 20
5.3951198968
 11
6.564086135
 21
5.3951198968
  0
LINE
  5
221
100
AcDbEntity
  8
0
100
AcDbLine
 62
7
  6
CONTINUOUS
 10
5.6758710838
 20
5.4784532301
 11
6.5848634685
 21
5.4784532301
  0
LINE
  5
222
100
AcDbEntity
  8
0
100
AcDbLine
 62
7
  6
CONTINUOUS
 10
6.6053672762
 20
5.6451198968
 11
5.6553672762
 21
5.6451198968
  0
LINE
  5
223
100
AcDbEntity
  8
0
100
AcDbLine
 62
7
  6
CONTINUOUS
 10
6.6303672762
 20
5.5948983528
 11
6.6303672762
 21
5.6201198968
  0
LINE
  5
224
100
AcDbEntity
  8
0
100
AcDbLine
 62
7
  6
CONTINUOUS
 10
6.5883435281
 20
5.4140718494
 11
6.6273968488
 21
5.5707061633
  0
LINE
  5
225
100
AcDbEntity
  8
0
100
AcDbLine
 62
7
  6
CONTINUOUS
 10
6.5708720839
 20
10.6000477814
 11
5.5708720839
 21
10.6000477814
  0
LINE
  5
226
100
AcDbEntity
  8
0
100
AcDbLine
 62
7
  6
CONTINUOUS
 10
5.5708720839
 20
10.6000477814
 11
5.5708720839
 21
14.6000477814
  0
LINE
  5
227
100
AcDbEntity
  8
0
100
AcDbLine
 62
7
  6
CONTINUOUS
 10
6.5708720839
 20
10.6000477814
 11
6.5708720839
 21
14.6000477814
  0
LINE
  5
228
100
AcDbEntity
  8
0
100
AcDbLine
 62
7
  6
CONTINUOUS
 10
5.5708720839
 20
14.6000477814
 11
6.5708720839
 21
14.6000477814
  0
LINE
  5
229
100
AcDbEntity
  8
0
100
AcDbLine
 62
7
  6
CONTINUOUS
 10
13.5603552569
 20
5.4189580378
 11
13.5603552569
 21
5.5856247044
  0
LINE
  5
22A
100
AcDbEntity
  8
0
100
AcDbLine
 62
7
  6
CONTINUOUS
 10
13.6794635437
 20
5.4028111847
 11
13.6912469701
 21
5.3517715575
  0
LINE
  5
22B
100
AcDbEntity
  8
0
100
AcDbLine
 62
7
  6
CONTINUOUS
 10
13.9294635437
 20
5.3517715575
 11
13.9412469701
 21
5.4028111847
  0
LINE
  5
22C
100
AcDbEntity
  8
0
100
AcDbLine
 62
7
  6
CONTINUOUS
 10
14.1794635437
 20
5.4028111847
 11
14.1912469701
 21
5.3517715575
  0
LINE
  5
22D
100
AcDbEntity
  8
0
100
AcDbLine
 62
7
  6
CONTINUOUS
 10
14.4294635437
 20
5.3517715575
 11
14.4412469701
 21
5.4028111847
  0
LINE
  5
22E
100
AcDbEntity
  8
0
100
AcDbLine
 62
7
  6
CONTINUOUS
 10
14.6794635437
 20
5.4028111847
 11
14.6912469701
 21
5.3517715575
  0
LINE
  5
22F
100
AcDbEntity
  8
0
100
AcDbLine
 62
7
  6
CONTINUOUS
 10
14.9294635437
 20
5.3517715575
 11
14.9412469701
 21
5.4028111847
  0
LINE
  5
230
100
AcDbEntity
  8
0
100
AcDbLine
 62
7
  6
CONTINUOUS
 10
15.1794635437
 20
5.4028111847
 11
15.1912469701
 21
5.3517715575
  0
LINE
  5
231
100
AcDbEntity
  8
0
100
AcDbLine
 62
7
  6
CONTINUOUS
 10
13.7115463465
 20
5.3356247044
 11
13.9091641674
 21
5.3356247044
  0
LINE
  5
232
100
AcDbEntity
  8
0
100
AcDbLine
 62
7
  6
CONTINUOUS
 10
14.2115463465
 20
5.3356247044
 11
14.4091641674
 21
5.3356247044
  0
LINE
  5
233
100
AcDbEntity
  8
0
100
AcDbLine
 62
7
  6
CONTINUOUS
 10
14.7115463465
 20
5.3356247044
 11
14.9091641674
 21
5.3356247044
  0
LINE
  5
234
100
AcDbEntity
  8
0
100
AcDbLine
 62
7
  6
CONTINUOUS
 10
15.2115463465
 20
5.3356247044
 11
15.4091641674
 21
5.3356247044
  0
LINE
  5
235
100
AcDbEntity
  8
0
100
AcDbLine
 62
7
  6
CONTINUOUS
 10
15.7115463465
 20
5.3356247044
 11
15.9091641674
 21
5.3356247044
  0
LINE
  5
236
100
AcDbEntity
  8
0
100
AcDbLine
 62
7
  6
CONTINUOUS
 10
16.2115463465
 20
5.3356247044
 11
16.4091641674
 21
5.3356247044
  0
LINE
  5
237
100
AcDbEntity
  8
0
100
AcDbLine
 62
7
  6
CONTINUOUS
 10
16.7115463465
 20
5.3356247044
 11
16.9091641674
 21
5.3356247044
  0
LINE
  5
238
100
AcDbEntity
  8
0
100
AcDbLine
 62
7
  6
CONTINUOUS
 10
17.2115463465
 20
5.3356247044
 11
17.4091641674
 21
5.3356247044
  0
LINE
  5
239
100
AcDbEntity
  8
0
100
AcDbLine
 62
7
  6
CONTINUOUS
 10
15.4294635437
 20
5.3517715575
 11
15.4412469701
 21
5.4028111847
  0
LINE
  5
23A
100
AcDbEntity
  8
0
100
AcDbLine
 62
7
  6
CONTINUOUS
 10
13.5603552569
 20
5.4189580378
 11
13.6591641674
 21
5.4189580378
  0
LINE
  5
23B
100
AcDbEntity
  8
0
100
AcDbLine
 62
7
  6
CONTINUOUS
 10
13.9615463465
 20
5.4189580378
 11
14.1591641674
 21
5.4189580378
  0
LINE
  5
23C
100
AcDbEntity
  8
0
100
AcDbLine
 62
7
  6
CONTINUOUS
 10
14.4615463465
 20
5.4189580378
 11
14.6591641674
 21
5.4189580378
  0
LINE
  5
23D
100
AcDbEntity
  8
0
100
AcDbLine
 62
7
  6
CONTINUOUS
 10
14.9615463465
 20
5.4189580378
 11
15.1591641674
 21
5.4189580378
  0
LINE
  5
23E
100
AcDbEntity
  8
0
100
AcDbLine
 62
7
  6
CONTINUOUS
 10
15.4615463465
 20
5.4189580378
 11
15.6591641674
 21
5.4189580378
  0
LINE
  5
23F
100
AcDbEntity
  8
0
100
AcDbLine
 62
7
  6
CONTINUOUS
 10
15.9615463465
 20
5.4189580378
 11
16.1591641674
 21
5.4189580378
  0
LINE
  5
240
100
AcDbEntity
  8
0
100
AcDbLine
 62
7
  6
CONTINUOUS
 10
16.4615463465
 20
5.4189580378
 11
16.6591641674
 21
5.4189580378
  0
LINE
  5
241
100
AcDbEntity
  8
0
100
AcDbLine
 62
7
  6
CONTINUOUS
 10
16.9615463465
 20
5.4189580378
 11
17.1591641674
 21
5.4189580378
  0
LINE
  5
242
100
AcDbEntity
  8
0
100
AcDbLine
 62
7
  6
CONTINUOUS
 10
17.4615463465
 20
5.4189580378
 11
17.5603552569
 21
5.4189580378
  0
LINE
  5
243
100
AcDbEntity
  8
0
100
AcDbLine
 62
7
  6
CONTINUOUS
 10
13.5603552569
 20
5.5856247044
 11
17.5603552569
 21
5.5856247044
  0
LINE
  5
244
100
AcDbEntity
  8
0
100
AcDbLine
 62
7
  6
CONTINUOUS
 10
15.6794635437
 20
5.4028111847
 11
15.6912469701
 21
5.3517715575
  0
LINE
  5
245
100
AcDbEntity
  8
0
100
AcDbLine
 62
7
  6
CONTINUOUS
 10
15.9294635437
 20
5.3517715575
 11
15.9412469701
 21
5.4028111847
  0
LINE
  5
246
100
AcDbEntity
  8
0
100
AcDbLine
 62
7
  6
CONTINUOUS
 10
16.1794635437
 20
5.4028111847
 11
16.1912469701
 21
5.3517715575
  0
LINE
  5
247
100
AcDbEntity
  8
0
100
AcDbLine
 62
7
  6
CONTINUOUS
 10
16.4294635437
 20
5.3517715575
 11
16.4412469701
 21
5.4028111847
  0
LINE
  5
248
100
AcDbEntity
  8
0
100
AcDbLine
 62
7
  6
CONTINUOUS
 10
16.6794635437
 20
5.4028111847
 11
16.6912469701
 21
5.3517715575
  0
LINE
  5
249
100
AcDbEntity
  8
0
100
AcDbLine
 62
7
  6
CONTINUOUS
 10
16.9294635437
 20
5.3517715575
 11
16.9412469701
 21
5.4028111847
  0
LINE
  5
24A
100
AcDbEntity
  8
0
100
AcDbLine
 62
7
  6
CONTINUOUS
 10
17.1794635437
 20
5.4028111847
 11
17.1912469701
 21
5.3517715575
  0
LINE
  5
24B
100
AcDbEntity
  8
0
100
AcDbLine
 62
7
  6
CONTINUOUS
 10
17.5603552569
 20
5.4189580378
 11
17.5603552569
 21
5.5856247044
  0
LINE
  5
24C
100
AcDbEntity
  8
0
100
AcDbLine
 62
7
  6
CONTINUOUS
 10
17.4294635437
 20
5.3517715575
 11
17.4412469701
 21
5.4028111847
  0
LINE
  5
24D
100
AcDbEntity
  8
0
100
AcDbLine
 62
7
  6
CONTINUOUS
 10
14.6032581957
 20
10.892350343
 11
15.4404956251
 21
10.892350343
  0
LINE
  5
24E
100
AcDbEntity
  8
0
100
AcDbLine
 62
7
  6
CONTINUOUS
 10
14.5359413513
 20
10.9496956858
 11
14.5751345181
 21
10.9041310656
  0
LINE
  5
24F
100
AcDbEntity
  8
0
100
AcDbLine
 62
7
  6
CONTINUOUS
 10
15.4749729311
 20
10.9511359122
 11
15.4808358582
 21
10.9520580617
  0
LINE
  5
250
100
AcDbEntity
  8
0
100
AcDbLine
 62
7
  6
CONTINUOUS
 10
15.4735627187
 20
10.9510985961
 11
15.4749729311
 21
10.9511359122
  0
LINE
  5
251
100
AcDbEntity
  8
0
100
AcDbLine
 62
7
  6
CONTINUOUS
 10
15.4723882915
 20
10.9510984356
 11
15.4735539317
 21
10.9510984356
  0
LINE
  5
252
100
AcDbEntity
  8
0
100
AcDbLine
 62
7
  6
CONTINUOUS
 10
15.4085405715
 20
10.9959520043
 11
14.5335326272
 21
10.9959520043
  0
LINE
  5
253
100
AcDbEntity
  8
0
100
AcDbLine
 62
7
  6
CONTINUOUS
 10
14.518132149
 20
10.9804117551
 11
14.5258257758
 21
10.964733792
  0
LINE
  5
254
100
AcDbEntity
  8
0
100
AcDbLine
 62
7
  6
CONTINUOUS
 10
15.5960060928
 20
11.342799367
 11
15.6018690199
 21
11.3437215165
  0
LINE
  5
255
100
AcDbEntity
  8
0
100
AcDbLine
 62
7
  6
CONTINUOUS
 10
15.5945958804
 20
11.3427620509
 11
15.5960060928
 21
11.342799367
  0
LINE
  5
256
100
AcDbEntity
  8
0
100
AcDbLine
 62
7
  6
CONTINUOUS
 10
15.5934214532
 20
11.3427618904
 11
15.5945870934
 21
11.3427618904
  0
LWPOLYLINE
  5
257
100
AcDbEntity
  8
0
100
AcDbPolyline
 62
7
  6
CONTINUOUS
 90
3
 70
0
 10
16.3280679901
 20
13.6937022454
 10
16.3331453766
 20
13.6954895587
 10
16.3374037709
 20
13.6977969132
  0
LINE
  5
258
100
AcDbEntity
  8
0
100
AcDbLine
 62
7
  6
CONTINUOUS
 10
15.7170392545
 20
11.7344628218
 11
15.7229021816
 21
11.7353849713
  0
LINE
  5
259
100
AcDbEntity
  8
0
100
AcDbLine
 62
7
  6
CONTINUOUS
 10
15.7156290421
 20
11.7344255057
 11
15.7170392545
 21
11.7344628218
  0
LINE
  5
25A
100
AcDbEntity
  8
0
100
AcDbLine
 62
7
  6
CONTINUOUS
 10
15.7144546149
 20
11.7344253452
 11
15.7156202551
 21
11.7344253452
  0
LINE
  5
25B
100
AcDbEntity
  8
0
100
AcDbLine
 62
7
  6
CONTINUOUS
 10
15.4468867698
 20
10.964733792
 11
15.439193143
 21
10.9804117551
  0
LINE
  5
25C
100
AcDbEntity
  8
0
100
AcDbLine
 62
7
  6
CONTINUOUS
 10
16.3374255016
 20
13.697811221
 11
16.3374198147
 21
13.6978075254
  0
LWPOLYLINE
  5
25D
100
AcDbEntity
  8
0
100
AcDbPolyline
 62
7
  6
CONTINUOUS
 90
3
 70
0
 10
16.2070348284
 20
13.3020387906
 10
16.2121122149
 20
13.3038261039
 10
16.2163706092
 20
13.3061334584
  0
LINE
  5
25E
100
AcDbEntity
  8
0
100
AcDbLine
 62
7
  6
CONTINUOUS
 10
14.5172731527
 20
10.9877929394
 11
15.4855384464
 21
14.1211005779
  0
LINE
  5
25F
100
AcDbEntity
  8
0
100
AcDbLine
 62
7
  6
CONTINUOUS
 10
15.8380724162
 20
12.1261262766
 11
15.8439353433
 21
12.1270484261
  0
LINE
  5
260
100
AcDbEntity
  8
0
100
AcDbLine
 62
7
  6
CONTINUOUS
 10
15.8366622038
 20
12.1260889606
 11
15.8380724162
 21
12.1261262766
  0
LINE
  5
261
100
AcDbEntity
  8
0
100
AcDbLine
 62
7
  6
CONTINUOUS
 10
15.8354877766
 20
12.1260888
 11
15.8366534168
 21
12.1260888
  0
LINE
  5
262
100
AcDbEntity
  8
0
100
AcDbLine
 62
7
  6
CONTINUOUS
 10
16.2163923399
 20
13.3061477662
 11
16.216386653
 21
13.3061440705
  0
LWPOLYLINE
  5
263
100
AcDbEntity
  8
0
100
AcDbPolyline
 62
7
  6
CONTINUOUS
 90
3
 70
0
 10
16.0860016667
 20
12.9103753358
 10
16.0910790532
 20
12.9121626491
 10
16.0953374475
 20
12.9144700036
  0
LINE
  5
264
100
AcDbEntity
  8
0
100
AcDbLine
 62
7
  6
CONTINUOUS
 10
15.4570570248
 20
10.9041310656
 11
15.4515304557
 21
10.9496956858
  0
LINE
  5
265
100
AcDbEntity
  8
0
100
AcDbLine
 62
7
  6
CONTINUOUS
 10
16.0953591782
 20
12.9144843114
 11
16.0953534913
 21
12.9144806157
  0
LINE
  5
266
100
AcDbEntity
  8
0
100
AcDbLine
 62
7
  6
CONTINUOUS
 10
15.9591055779
 20
12.5177897315
 11
15.964968505
 21
12.5187118809
  0
LINE
  5
267
100
AcDbEntity
  8
0
100
AcDbLine
 62
7
  6
CONTINUOUS
 10
15.9576953655
 20
12.5177524154
 11
15.9591055779
 21
12.5177897315
  0
LINE
  5
268
100
AcDbEntity
  8
0
100
AcDbLine
 62
7
  6
CONTINUOUS
 10
15.9565209383
 20
12.5177522548
 11
15.9576865785
 21
12.5177522548
  0
LINE
  5
269
100
AcDbEntity
  8
0
100
AcDbLine
 62
7
  6
CONTINUOUS
 10
15.5477777629
 20
11.1273326215
 11
15.5468449774
 21
11.1656982123
  0
LWPOLYLINE
  5
26A
100
AcDbEntity
  8
0
100
AcDbPolyline
 62
7
  6
CONTINUOUS
 90
6
 70
0
 10
15.5468448488
 20
11.1657029284
 10
15.5470016216
 20
11.1743040359
 10
15.5478464644
 20
11.1843465765
 10
15.5493749084
 20
11.1951957591
 10
15.5514037421
 20
11.2054623269
 10
15.5535891796
 20
11.2138492411
  0
LINE
  5
26B
100
AcDbEntity
  8
0
100
AcDbLine
 62
7
  6
CONTINUOUS
 10
15.4567531564
 20
10.900510006
 11
15.4570570248
 21
10.9041310656
  0
LINE
  5
26C
100
AcDbEntity
  8
0
100
AcDbLine
 62
7
  6
CONTINUOUS
 10
15.6688109246
 20
11.5189960763
 11
15.6678781391
 21
11.5573616671
  0
LWPOLYLINE
  5
26D
100
AcDbEntity
  8
0
100
AcDbPolyline
 62
7
  6
CONTINUOUS
 90
6
 70
0
 10
15.6678780105
 20
11.5573663832
 10
15.6680347833
 20
11.5659674907
 10
15.6688796261
 20
11.5760100313
 10
15.6704080701
 20
11.5868592139
 10
15.6724369038
 20
11.5971257817
 10
15.6746223413
 20
11.6055126959
  0
LINE
  5
26E
100
AcDbEntity
  8
0
100
AcDbLine
 62
7
  6
CONTINUOUS
 10
16.3302790109
 20
13.7260770438
 11
16.3307119021
 21
13.7269770866
  0
LINE
  5
26F
100
AcDbEntity
  8
0
100
AcDbLine
 62
7
  6
CONTINUOUS
 10
15.9743260165
 20
12.5228208566
 11
15.9743203296
 21
12.5228171609
  0
LWPOLYLINE
  5
270
100
AcDbEntity
  8
0
100
AcDbPolyline
 62
7
  6
CONTINUOUS
 90
3
 70
0
 10
15.964968505
 20
12.5187118809
 10
15.9700458915
 20
12.5204991943
 10
15.9743042858
 20
12.5228065487
  0
LINE
  5
271
100
AcDbEntity
  8
0
100
AcDbLine
 62
7
  6
CONTINUOUS
 10
15.7898440863
 20
11.9106595311
 11
15.7889113008
 21
11.9490251219
  0
LWPOLYLINE
  5
272
100
AcDbEntity
  8
0
100
AcDbPolyline
 62
7
  6
CONTINUOUS
 90
6
 70
0
 10
15.7889111722
 20
11.9490298381
 10
15.789067945
 20
11.9576309455
 10
15.7899127878
 20
11.9676734861
 10
15.7914412318
 20
11.9785226687
 10
15.7934700655
 20
11.9887892365
 10
15.795655503
 20
11.9971761507
  0
LINE
  5
273
100
AcDbEntity
  8
0
100
AcDbLine
 62
7
  6
CONTINUOUS
 10
16.2092458492
 20
13.3344135889
 11
16.2096787404
 21
13.3353136318
  0
LINE
  5
274
100
AcDbEntity
  8
0
100
AcDbLine
 62
7
  6
CONTINUOUS
 10
16.0882126875
 20
12.9427501341
 11
16.0886455787
 21
12.943650177
  0
LINE
  5
275
100
AcDbEntity
  8
0
100
AcDbLine
 62
7
  6
CONTINUOUS
 10
16.0801387396
 20
12.9094531863
 11
16.0860016667
 21
12.9103753358
  0
LINE
  5
276
100
AcDbEntity
  8
0
100
AcDbLine
 62
7
  6
CONTINUOUS
 10
16.0787285272
 20
12.9094158702
 11
16.0801387396
 21
12.9094531863
  0
LINE
  5
277
100
AcDbEntity
  8
0
100
AcDbLine
 62
7
  6
CONTINUOUS
 10
15.910877248
 20
12.3023229859
 11
15.9099444625
 21
12.3406885767
  0
LWPOLYLINE
  5
278
100
AcDbEntity
  8
0
100
AcDbPolyline
 62
7
  6
CONTINUOUS
 90
6
 70
0
 10
15.9099443339
 20
12.3406932929
 10
15.9101011067
 20
12.3492944003
 10
15.9109459495
 20
12.3593369409
 10
15.9124743935
 20
12.3701861235
 10
15.9145032272
 20
12.3804526913
 10
15.9166886647
 20
12.3888396055
  0
LINE
  5
279
100
AcDbEntity
  8
0
100
AcDbLine
 62
7
  6
CONTINUOUS
 10
15.5535891796
 20
11.2138492411
 11
15.5538681163
 21
11.2147672414
  0
LINE
  5
27A
100
AcDbEntity
  8
0
100
AcDbLine
 62
7
  6
CONTINUOUS
 10
15.6746223413
 20
11.6055126959
 11
15.674901278
 21
11.6064306962
  0
LINE
  5
27B
100
AcDbEntity
  8
0
100
AcDbLine
 62
7
  6
CONTINUOUS
 10
15.795655503
 20
11.9971761507
 11
15.7959344397
 21
11.998094151
  0
LINE
  5
27C
100
AcDbEntity
  8
0
100
AcDbLine
 62
7
  6
CONTINUOUS
 10
15.9166886647
 20
12.3888396055
 11
15.9169676014
 21
12.3897576058
  0
LINE
  5
27D
100
AcDbEntity
  8
0
100
AcDbLine
 62
7
  6
CONTINUOUS
 10
16.0377218264
 20
12.7805030603
 11
16.0380007631
 21
12.7814210606
  0
LINE
  5
27E
100
AcDbEntity
  8
0
100
AcDbLine
 62
7
  6
CONTINUOUS
 10
16.1587549881
 20
13.1721665151
 11
16.1590339248
 21
13.1730845154
  0
LINE
  5
27F
100
AcDbEntity
  8
0
100
AcDbLine
 62
7
  6
CONTINUOUS
 10
16.2797881498
 20
13.56382997
 11
16.2800670865
 21
13.5647479702
  0
LINE
  5
280
100
AcDbEntity
  8
0
100
AcDbLine
 62
7
  6
CONTINUOUS
 10
16.4008213115
 20
13.9554934248
 11
16.4011002482
 21
13.956411425
  0
LINE
  5
281
100
AcDbEntity
  8
0
100
AcDbLine
 62
7
  6
CONTINUOUS
 10
15.4578030358
 20
10.9039005308
 11
15.4806734092
 21
10.9779090863
  0
LINE
  5
282
100
AcDbEntity
  8
0
100
AcDbLine
 62
7
  6
CONTINUOUS
 10
15.5538699516
 20
11.2147731842
 11
15.6017065709
 21
11.3695725411
  0
LINE
  5
283
100
AcDbEntity
  8
0
100
AcDbLine
 62
7
  6
CONTINUOUS
 10
15.6749031133
 20
11.6064366391
 11
15.7227397326
 21
11.7612359959
  0
LINE
  5
284
100
AcDbEntity
  8
0
100
AcDbLine
 62
7
  6
CONTINUOUS
 10
15.795936275
 20
11.9981000939
 11
15.8437728943
 21
12.1528994507
  0
LINE
  5
285
100
AcDbEntity
  8
0
100
AcDbLine
 62
7
  6
CONTINUOUS
 10
15.9169694367
 20
12.3897635487
 11
15.964806056
 21
12.5445629055
  0
LINE
  5
286
100
AcDbEntity
  8
0
100
AcDbLine
 62
7
  6
CONTINUOUS
 10
16.0380025984
 20
12.7814270035
 11
16.0858392177
 21
12.9362263603
  0
LINE
  5
287
100
AcDbEntity
  8
0
100
AcDbLine
 62
7
  6
CONTINUOUS
 10
16.1590357601
 20
13.1730904583
 11
16.2068723794
 21
13.3278898151
  0
LINE
  5
288
100
AcDbEntity
  8
0
100
AcDbLine
 62
7
  6
CONTINUOUS
 10
16.2800689218
 20
13.5647539131
 11
16.3279055412
 21
13.71955327
  0
LINE
  5
289
100
AcDbEntity
  8
0
100
AcDbLine
 62
7
  6
CONTINUOUS
 10
16.4011020835
 20
13.9564173679
 11
16.4250203932
 21
14.0338170464
  0
LINE
  5
28A
100
AcDbEntity
  8
0
100
AcDbLine
 62
7
  6
CONTINUOUS
 10
15.5004386192
 20
10.9697368193
 11
15.5466706698
 21
11.1193437899
  0
LINE
  5
28B
100
AcDbEntity
  8
0
100
AcDbLine
 62
7
  6
CONTINUOUS
 10
15.6214717809
 20
11.3614002741
 11
15.6677038315
 21
11.5110072447
  0
LINE
  5
28C
100
AcDbEntity
  8
0
100
AcDbLine
 62
7
  6
CONTINUOUS
 10
15.7425049426
 20
11.7530637289
 11
15.7887369932
 21
11.9026706995
  0
LINE
  5
28D
100
AcDbEntity
  8
0
100
AcDbLine
 62
7
  6
CONTINUOUS
 10
15.8635381043
 20
12.1447271837
 11
15.9097701549
 21
12.2943341543
  0
LINE
  5
28E
100
AcDbEntity
  8
0
100
AcDbLine
 62
7
  6
CONTINUOUS
 10
15.984571266
 20
12.5363906386
 11
16.0308033166
 21
12.6859976092
  0
LINE
  5
28F
100
AcDbEntity
  8
0
100
AcDbLine
 62
7
  6
CONTINUOUS
 10
16.1056044277
 20
12.9280540934
 11
16.1518364783
 21
13.077661064
  0
LINE
  5
290
100
AcDbEntity
  8
0
100
AcDbLine
 62
7
  6
CONTINUOUS
 10
16.2266375894
 20
13.3197175482
 11
16.27286964
 21
13.4693245188
  0
LINE
  5
291
100
AcDbEntity
  8
0
100
AcDbLine
 62
7
  6
CONTINUOUS
 10
16.3476707511
 20
13.711381003
 11
16.3939028017
 21
13.8609879736
  0
LWPOLYLINE
  5
292
100
AcDbEntity
  8
0
100
AcDbPolyline
 62
7
  6
CONTINUOUS
 90
3
 70
0
 10
16.3279045964
 20
13.7195534111
 10
16.3291831461
 20
13.7233582328
 10
16.3302790109
 20
13.7260770438
  0
LWPOLYLINE
  5
293
100
AcDbEntity
  8
0
100
AcDbPolyline
 62
7
  6
CONTINUOUS
 90
3
 70
0
 10
16.2068714347
 20
13.3278899563
 10
16.2081499844
 20
13.3316947779
 10
16.2092458492
 20
13.3344135889
  0
LWPOLYLINE
  5
294
100
AcDbEntity
  8
0
100
AcDbPolyline
 62
7
  6
CONTINUOUS
 90
3
 70
0
 10
16.085838273
 20
12.9362265015
 10
16.0871168227
 20
12.9400313231
 10
16.0882126875
 20
12.9427501341
  0
LWPOLYLINE
  5
295
100
AcDbEntity
  8
0
100
AcDbPolyline
 62
7
  6
CONTINUOUS
 90
3
 70
0
 10
15.9648051113
 20
12.5445630467
 10
15.966083661
 20
12.5483678683
 10
15.9671795258
 20
12.5510866793
  0
LWPOLYLINE
  5
296
100
AcDbEntity
  8
0
100
AcDbPolyline
 62
7
  6
CONTINUOUS
 90
3
 70
0
 10
15.8437719496
 20
12.1528995919
 10
15.8450504993
 20
12.1567044135
 10
15.8461463641
 20
12.1594232245
  0
LWPOLYLINE
  5
297
100
AcDbEntity
  8
0
100
AcDbPolyline
 62
7
  6
CONTINUOUS
 90
3
 70
0
 10
15.7227387879
 20
11.7612361371
 10
15.7240173376
 20
11.7650409587
 10
15.7251132024
 20
11.7677597697
  0
LWPOLYLINE
  5
298
100
AcDbEntity
  8
0
100
AcDbPolyline
 62
7
  6
CONTINUOUS
 90
3
 70
0
 10
15.6017056262
 20
11.3695726822
 10
15.6029841759
 20
11.3733775039
 10
15.6040800407
 20
11.3760963149
  0
LWPOLYLINE
  5
299
100
AcDbEntity
  8
0
100
AcDbPolyline
 62
7
  6
CONTINUOUS
 90
3
 70
0
 10
15.4806724645
 20
10.9779092274
 10
15.4819510142
 20
10.9817140491
 10
15.483046879
 20
10.9844328601
  0
LINE
  5
29A
100
AcDbEntity
  8
0
100
AcDbLine
 62
7
  6
CONTINUOUS
 10
15.9671795258
 20
12.5510866793
 11
15.967612417
 21
12.5519867222
  0
LINE
  5
29B
100
AcDbEntity
  8
0
100
AcDbLine
 62
7
  6
CONTINUOUS
 10
15.8461463641
 20
12.1594232245
 11
15.8465792552
 21
12.1603232674
  0
LWPOLYLINE
  5
29C
100
AcDbEntity
  8
0
100
AcDbPolyline
 62
7
  6
CONTINUOUS
 90
3
 70
0
 10
15.8439353433
 20
12.1270484261
 10
15.8490127298
 20
12.1288357395
 10
15.8532711241
 20
12.1311430939
  0
LINE
  5
29D
100
AcDbEntity
  8
0
100
AcDbLine
 62
7
  6
CONTINUOUS
 10
16.0775541
 20
12.9094157096
 11
16.0787197402
 21
12.9094157096
  0
LINE
  5
29E
100
AcDbEntity
  8
0
100
AcDbLine
 62
7
  6
CONTINUOUS
 10
16.0319104097
 20
12.6939864407
 11
16.0309776242
 21
12.7323520315
  0
LWPOLYLINE
  5
29F
100
AcDbEntity
  8
0
100
AcDbPolyline
 62
7
  6
CONTINUOUS
 90
6
 70
0
 10
16.0309774956
 20
12.7323567477
 10
16.0311342685
 20
12.7409578551
 10
16.0319791112
 20
12.7510003958
 10
16.0335075552
 20
12.7618495783
 10
16.0355363889
 20
12.7721161461
 10
16.0377218264
 20
12.7805030603
  0
LINE
  5
2A0
100
AcDbEntity
  8
0
100
AcDbLine
 62
7
  6
CONTINUOUS
 10
15.7251132024
 20
11.7677597697
 11
15.7255460935
 21
11.7686598126
  0
LINE
  5
2A1
100
AcDbEntity
  8
0
100
AcDbLine
 62
7
  6
CONTINUOUS
 10
15.6040800407
 20
11.3760963149
 11
15.6045129318
 21
11.3769963578
  0
LINE
  5
2A2
100
AcDbEntity
  8
0
100
AcDbLine
 62
7
  6
CONTINUOUS
 10
15.8532928548
 20
12.1311574017
 11
15.8532871678
 21
12.1311537061
  0
LINE
  5
2A3
100
AcDbEntity
  8
0
100
AcDbLine
 62
7
  6
CONTINUOUS
 10
16.1529435714
 20
13.0856498956
 11
16.1520107859
 21
13.1240154864
  0
LWPOLYLINE
  5
2A4
100
AcDbEntity
  8
0
100
AcDbPolyline
 62
7
  6
CONTINUOUS
 90
6
 70
0
 10
16.1520106573
 20
13.1240202025
 10
16.1521674302
 20
13.1326213099
 10
16.1530122729
 20
13.1426638506
 10
16.1545407169
 20
13.1535130331
 10
16.1565695506
 20
13.163779601
 10
16.1587549881
 20
13.1721665151
  0
LINE
  5
2A5
100
AcDbEntity
  8
0
100
AcDbLine
 62
7
  6
CONTINUOUS
 10
15.483046879
 20
10.9844328601
 11
15.4834797701
 21
10.9853329029
  0
LINE
  5
2A6
100
AcDbEntity
  8
0
100
AcDbLine
 62
7
  6
CONTINUOUS
 10
16.2011719013
 20
13.3011166411
 11
16.2070348284
 21
13.3020387906
  0
LINE
  5
2A7
100
AcDbEntity
  8
0
100
AcDbLine
 62
7
  6
CONTINUOUS
 10
16.2739767331
 20
13.4773133504
 11
16.2730439476
 21
13.5156789412
  0
LWPOLYLINE
  5
2A8
100
AcDbEntity
  8
0
100
AcDbPolyline
 62
7
  6
CONTINUOUS
 90
6
 70
0
 10
16.273043819
 20
13.5156836573
 10
16.2732005919
 20
13.5242847648
 10
16.2740454346
 20
13.5343273054
 10
16.2755738786
 20
13.5451764879
 10
16.2776027123
 20
13.5554430558
 10
16.2797881498
 20
13.56382997
  0
LINE
  5
2A9
100
AcDbEntity
  8
0
100
AcDbLine
 62
7
  6
CONTINUOUS
 10
16.4253223184
 20
14.0374387041
 11
16.42501845
 21
14.0338176445
  0
LINE
  5
2AA
100
AcDbEntity
  8
0
100
AcDbLine
 62
7
  6
CONTINUOUS
 10
15.7322596931
 20
11.7394939469
 11
15.7322540061
 21
11.7394902513
  0
LWPOLYLINE
  5
2AB
100
AcDbEntity
  8
0
100
AcDbPolyline
 62
7
  6
CONTINUOUS
 90
3
 70
0
 10
15.7229021816
 20
11.7353849713
 10
15.7279795681
 20
11.7371722847
 10
15.7322379624
 20
11.7394796391
  0
LINE
  5
2AC
100
AcDbEntity
  8
0
100
AcDbLine
 62
7
  6
CONTINUOUS
 10
16.1997616889
 20
13.301079325
 11
16.2011719013
 21
13.3011166411
  0
LINE
  5
2AD
100
AcDbEntity
  8
0
100
AcDbLine
 62
7
  6
CONTINUOUS
 10
16.1985872618
 20
13.3010791644
 11
16.1997529019
 21
13.3010791644
  0
LINE
  5
2AE
100
AcDbEntity
  8
0
100
AcDbLine
 62
7
  6
CONTINUOUS
 10
16.3950098948
 20
13.8689768052
 11
16.3940771093
 21
13.907342396
  0
LWPOLYLINE
  5
2AF
100
AcDbEntity
  8
0
100
AcDbPolyline
 62
7
  6
CONTINUOUS
 90
6
 70
0
 10
16.3940769807
 20
13.9073471121
 10
16.3942337536
 20
13.9159482196
 10
16.3950785963
 20
13.9259907602
 10
16.3966070403
 20
13.9368399428
 10
16.398635874
 20
13.9471065106
 10
16.4008213115
 20
13.9554934248
  0
LINE
  5
2B0
100
AcDbEntity
  8
0
100
AcDbLine
 62
7
  6
CONTINUOUS
 10
15.6112265314
 20
11.3478304921
 11
15.6112208444
 21
11.3478267965
  0
LINE
  5
2B1
100
AcDbEntity
  8
0
100
AcDbLine
 62
7
  6
CONTINUOUS
 10
16.322205063
 20
13.6927800959
 11
16.3280679901
 21
13.6937022454
  0
LINE
  5
2B2
100
AcDbEntity
  8
0
100
AcDbLine
 62
7
  6
CONTINUOUS
 10
16.4253223184
 20
14.0374387041
 11
16.4197957493
 21
14.0830033243
  0
LWPOLYLINE
  5
2B3
100
AcDbEntity
  8
0
100
AcDbPolyline
 62
7
  6
CONTINUOUS
 90
3
 70
0
 10
15.6018690199
 20
11.3437215165
 10
15.6069464064
 20
11.3455088299
 10
15.6112048007
 20
11.3478161843
  0
LINE
  5
2B4
100
AcDbEntity
  8
0
100
AcDbLine
 62
7
  6
CONTINUOUS
 10
16.3207948506
 20
13.6927427798
 11
16.322205063
 21
13.6927800959
  0
LINE
  5
2B5
100
AcDbEntity
  8
0
100
AcDbLine
 62
7
  6
CONTINUOUS
 10
16.3196204235
 20
13.6927426193
 11
16.3207860636
 21
13.6927426193
  0
LINE
  5
2B6
100
AcDbEntity
  8
0
100
AcDbLine
 62
7
  6
CONTINUOUS
 10
15.4901933697
 20
10.9561670373
 11
15.4901876827
 21
10.9561633417
  0
LWPOLYLINE
  5
2B7
100
AcDbEntity
  8
0
100
AcDbPolyline
 62
7
  6
CONTINUOUS
 90
3
 70
0
 10
15.4808358582
 20
10.9520580617
 10
15.4859132447
 20
10.953845375
 10
15.490171639
 20
10.9561527295
  0
LINE
  5
2B8
100
AcDbEntity
  8
0
100
AcDbLine
 62
7
  6
CONTINUOUS
 10
16.3768058651
 20
14.1292596429
 11
15.5017979208
 21
14.1292596429
  0
LINE
  5
2B9
100
AcDbEntity
  8
0
100
AcDbLine
 62
7
  6
CONTINUOUS
 10
16.4151520634
 20
14.0980414305
 11
16.4074584366
 21
14.1137193936
  0
ARC
  5
2BA
100
AcDbEntity
  8
0
100
AcDbCircle
 62
7
  6
CONTINUOUS
 10
5.6758710838
 20
5.5034532301
 40
0.025
100
AcDbArc
 50
194.0
 51
270.0
  0
ARC
  5
2BB
100
AcDbEntity
  8
0
100
AcDbCircle
 62
7
  6
CONTINUOUS
 10
5.6966484174
 20
5.4201198968
 40
0.025
100
AcDbArc
 50
194.0
 51
270.0
  0
ARC
  5
2BC
100
AcDbEntity
  8
0
100
AcDbCircle
 62
7
  6
CONTINUOUS
 10
5.7303672762
 20
5.5948983528
 40
0.1
100
AcDbArc
 50
180.0
 51
194.0
  0
ARC
  5
2BD
100
AcDbEntity
  8
0
100
AcDbCircle
 62
7
  6
CONTINUOUS
 10
5.6553672762
 20
5.6201198968
 40
0.025
100
AcDbArc
 50
90.0
 51
180.0
  0
ARC
  5
2BE
100
AcDbEntity
  8
0
100
AcDbCircle
 62
7
  6
CONTINUOUS
 10
6.5848634685
 20
5.5034532301
 40
0.025
100
AcDbArc
 50
270.0
 51
346.0
  0
ARC
  5
2BF
100
AcDbEntity
  8
0
100
AcDbCircle
 62
7
  6
CONTINUOUS
 10
6.564086135
 20
5.4201198968
 40
0.025
100
AcDbArc
 50
270.0
 51
346.0
  0
ARC
  5
2C0
100
AcDbEntity
  8
0
100
AcDbCircle
 62
7
  6
CONTINUOUS
 10
6.5303672762
 20
5.5948983528
 40
0.1
100
AcDbArc
 50
346.0
 51
360.0
  0
ARC
  5
2C1
100
AcDbEntity
  8
0
100
AcDbCircle
 62
7
  6
CONTINUOUS
 10
6.6053672762
 20
5.6201198968
 40
0.025
100
AcDbArc
 50
0.0
 51
90.0
  0
ARC
  5
2C2
100
AcDbEntity
  8
0
100
AcDbCircle
 62
7
  6
CONTINUOUS
 10
13.7115463465
 20
5.3564580378
 40
0.0208333333
100
AcDbArc
 50
193.0
 51
270.0
  0
ARC
  5
2C3
100
AcDbEntity
  8
0
100
AcDbCircle
 62
7
  6
CONTINUOUS
 10
13.9091641674
 20
5.3564580378
 40
0.0208333333
100
AcDbArc
 50
270.0
 51
347.0
  0
ARC
  5
2C4
100
AcDbEntity
  8
0
100
AcDbCircle
 62
7
  6
CONTINUOUS
 10
14.2115463465
 20
5.3564580378
 40
0.0208333333
100
AcDbArc
 50
193.0
 51
270.0
  0
ARC
  5
2C5
100
AcDbEntity
  8
0
100
AcDbCircle
 62
7
  6
CONTINUOUS
 10
15.4091641674
 20
5.3564580378
 40
0.0208333333
100
AcDbArc
 50
270.0
 51
347.0
  0
ARC
  5
2C6
100
AcDbEntity
  8
0
100
AcDbCircle
 62
7
  6
CONTINUOUS
 10
15.2115463465
 20
5.3564580378
 40
0.0208333333
100
AcDbArc
 50
193.0
 51
270.0
  0
ARC
  5
2C7
100
AcDbEntity
  8
0
100
AcDbCircle
 62
7
  6
CONTINUOUS
 10
14.4091641674
 20
5.3564580378
 40
0.0208333333
100
AcDbArc
 50
270.0
 51
347.0
  0
ARC
  5
2C8
100
AcDbEntity
  8
0
100
AcDbCircle
 62
7
  6
CONTINUOUS
 10
14.9091641674
 20
5.3564580378
 40
0.0208333333
100
AcDbArc
 50
270.0
 51
347.0
  0
ARC
  5
2C9
100
AcDbEntity
  8
0
100
AcDbCircle
 62
7
  6
CONTINUOUS
 10
14.7115463465
 20
5.3564580378
 40
0.0208333333
100
AcDbArc
 50
193.0
 51
270.0
  0
ARC
  5
2CA
100
AcDbEntity
  8
0
100
AcDbCircle
 62
7
  6
CONTINUOUS
 10
13.6591641674
 20
5.3981247044
 40
0.0208333333
100
AcDbArc
 50
13.0
 51
90.0
  0
ARC
  5
2CB
100
AcDbEntity
  8
0
100
AcDbCircle
 62
7
  6
CONTINUOUS
 10
13.9615463465
 20
5.3981247044
 40
0.0208333333
100
AcDbArc
 50
90.0
 51
167.0
  0
ARC
  5
2CC
100
AcDbEntity
  8
0
100
AcDbCircle
 62
7
  6
CONTINUOUS
 10
14.1591641674
 20
5.3981247044
 40
0.0208333333
100
AcDbArc
 50
13.0
 51
90.0
  0
ARC
  5
2CD
100
AcDbEntity
  8
0
100
AcDbCircle
 62
7
  6
CONTINUOUS
 10
15.4615463465
 20
5.3981247044
 40
0.0208333333
100
AcDbArc
 50
90.0
 51
167.0
  0
ARC
  5
2CE
100
AcDbEntity
  8
0
100
AcDbCircle
 62
7
  6
CONTINUOUS
 10
15.1591641674
 20
5.3981247044
 40
0.0208333333
100
AcDbArc
 50
13.0
 51
90.0
  0
ARC
  5
2CF
100
AcDbEntity
  8
0
100
AcDbCircle
 62
7
  6
CONTINUOUS
 10
14.9615463465
 20
5.3981247044
 40
0.0208333333
100
AcDbArc
 50
90.0
 51
167.0
  0
ARC
  5
2D0
100
AcDbEntity
  8
0
100
AcDbCircle
 62
7
  6
CONTINUOUS
 10
14.4615463465
 20
5.3981247044
 40
0.0208333333
100
AcDbArc
 50
90.0
 51
167.0
  0
ARC
  5
2D1
100
AcDbEntity
  8
0
100
AcDbCircle
 62
7
  6
CONTINUOUS
 10
14.6591641674
 20
5.3981247044
 40
0.0208333333
100
AcDbArc
 50
13.0
 51
90.0
  0
ARC
  5
2D2
100
AcDbEntity
  8
0
100
AcDbCircle
 62
7
  6
CONTINUOUS
 10
17.4091641674
 20
5.3564580378
 40
0.0208333333
100
AcDbArc
 50
270.0
 51
347.0
  0
ARC
  5
2D3
100
AcDbEntity
  8
0
100
AcDbCircle
 62
7
  6
CONTINUOUS
 10
17.2115463465
 20
5.3564580378
 40
0.0208333333
100
AcDbArc
 50
193.0
 51
270.0
  0
ARC
  5
2D4
100
AcDbEntity
  8
0
100
AcDbCircle
 62
7
  6
CONTINUOUS
 10
16.9091641674
 20
5.3564580378
 40
0.0208333333
100
AcDbArc
 50
270.0
 51
347.0
  0
ARC
  5
2D5
100
AcDbEntity
  8
0
100
AcDbCircle
 62
7
  6
CONTINUOUS
 10
16.7115463465
 20
5.3564580378
 40
0.0208333333
100
AcDbArc
 50
193.0
 51
270.0
  0
ARC
  5
2D6
100
AcDbEntity
  8
0
100
AcDbCircle
 62
7
  6
CONTINUOUS
 10
16.4091641674
 20
5.3564580378
 40
0.0208333333
100
AcDbArc
 50
270.0
 51
347.0
  0
ARC
  5
2D7
100
AcDbEntity
  8
0
100
AcDbCircle
 62
7
  6
CONTINUOUS
 10
16.2115463465
 20
5.3564580378
 40
0.0208333333
100
AcDbArc
 50
193.0
 51
270.0
  0
ARC
  5
2D8
100
AcDbEntity
  8
0
100
AcDbCircle
 62
7
  6
CONTINUOUS
 10
15.9091641674
 20
5.3564580378
 40
0.0208333333
100
AcDbArc
 50
270.0
 51
347.0
  0
ARC
  5
2D9
100
AcDbEntity
  8
0
100
AcDbCircle
 62
7
  6
CONTINUOUS
 10
15.7115463465
 20
5.3564580378
 40
0.0208333333
100
AcDbArc
 50
193.0
 51
270.0
  0
ARC
  5
2DA
100
AcDbEntity
  8
0
100
AcDbCircle
 62
7
  6
CONTINUOUS
 10
17.4615463465
 20
5.3981247044
 40
0.0208333333
100
AcDbArc
 50
90.0
 51
167.0
  0
ARC
  5
2DB
100
AcDbEntity
  8
0
100
AcDbCircle
 62
7
  6
CONTINUOUS
 10
17.1591641674
 20
5.3981247044
 40
0.0208333333
100
AcDbArc
 50
13.0
 51
90.0
  0
ARC
  5
2DC
100
AcDbEntity
  8
0
100
AcDbCircle
 62
7
  6
CONTINUOUS
 10
16.9615463465
 20
5.3981247044
 40
0.0208333333
100
AcDbArc
 50
90.0
 51
167.0
  0
ARC
  5
2DD
100
AcDbEntity
  8
0
100
AcDbCircle
 62
7
  6
CONTINUOUS
 10
16.6591641674
 20
5.3981247044
 40
0.0208333333
100
AcDbArc
 50
13.0
 51
90.0
  0
ARC
  5
2DE
100
AcDbEntity
  8
0
100
AcDbCircle
 62
7
  6
CONTINUOUS
 10
16.4615463465
 20
5.3981247044
 40
0.0208333333
100
AcDbArc
 50
90.0
 51
167.0
  0
ARC
  5
2DF
100
AcDbEntity
  8
0
100
AcDbCircle
 62
7
  6
CONTINUOUS
 10
16.1591641674
 20
5.3981247044
 40
0.0208333333
100
AcDbArc
 50
13.0
 51
90.0
  0
ARC
  5
2E0
100
AcDbEntity
  8
0
100
AcDbCircle
 62
7
  6
CONTINUOUS
 10
15.9615463465
 20
5.3981247044
 40
0.0208333333
100
AcDbArc
 50
90.0
 51
167.0
  0
ARC
  5
2E1
100
AcDbEntity
  8
0
100
AcDbCircle
 62
7
  6
CONTINUOUS
 10
15.6591641674
 20
5.3981247044
 40
0.0208333333
100
AcDbArc
 50
13.0
 51
90.0
  0
ARC
  5
2E2
100
AcDbEntity
  8
0
100
AcDbCircle
 62
7
  6
CONTINUOUS
 10
15.5227714195
 20
11.1267281666
 40
0.0250140796
100
AcDbArc
 50
342.8318726495
 51
1.38683435
  0
ARC
  5
2E3
100
AcDbEntity
  8
0
100
AcDbCircle
 62
7
  6
CONTINUOUS
 10
15.6438045812
 20
11.5183916214
 40
0.0250140796
100
AcDbArc
 50
342.8318726497
 51
1.38683435
  0
ARC
  5
2E4
100
AcDbEntity
  8
0
100
AcDbCircle
 62
7
  6
CONTINUOUS
 10
15.7648377429
 20
11.9100550762
 40
0.0250140796
100
AcDbArc
 50
342.8318726495
 51
1.38683435
  0
ARC
  5
2E5
100
AcDbEntity
  8
0
100
AcDbCircle
 62
7
  6
CONTINUOUS
 10
15.8858709046
 20
12.301718531
 40
0.0250140796
100
AcDbArc
 50
342.8318726495
 51
1.38683435
  0
ARC
  5
2E6
100
AcDbEntity
  8
0
100
AcDbCircle
 62
7
  6
CONTINUOUS
 10
16.0069040663
 20
12.6933819859
 40
0.0250140796
100
AcDbArc
 50
342.8318726496
 51
1.3868343498
  0
ARC
  5
2E7
100
AcDbEntity
  8
0
100
AcDbCircle
 62
7
  6
CONTINUOUS
 10
16.127937228
 20
13.0850454407
 40
0.0250140796
100
AcDbArc
 50
342.8318726496
 51
1.3868343499
  0
ARC
  5
2E8
100
AcDbEntity
  8
0
100
AcDbCircle
 62
7
  6
CONTINUOUS
 10
16.2489703897
 20
13.4767088955
 40
0.0250140796
100
AcDbArc
 50
342.8318726495
 51
1.38683435
  0
ARC
  5
2E9
100
AcDbEntity
  8
0
100
AcDbCircle
 62
7
  6
CONTINUOUS
 10
16.3700076896
 20
13.8683700228
 40
0.0250096262
100
AcDbArc
 50
342.8368294238
 51
1.3873020096
  0
ARC
  5
2EA
100
AcDbEntity
  8
0
100
AcDbCircle
 62
7
  6
CONTINUOUS
 10
15.4765711681
 20
10.9771040091
 40
0.0249773677
100
AcDbArc
 50
302.9648313896
 51
342.846548592
  0
ARC
  5
2EB
100
AcDbEntity
  8
0
100
AcDbCircle
 62
7
  6
CONTINUOUS
 10
15.5976043298
 20
11.3687674639
 40
0.0249773677
100
AcDbArc
 50
302.9648313897
 51
342.8465485919
  0
ARC
  5
2EC
100
AcDbEntity
  8
0
100
AcDbCircle
 62
7
  6
CONTINUOUS
 10
15.7186374915
 20
11.7604309187
 40
0.0249773677
100
AcDbArc
 50
302.9648313897
 51
342.846548592
  0
ARC
  5
2ED
100
AcDbEntity
  8
0
100
AcDbCircle
 62
7
  6
CONTINUOUS
 10
15.8396706532
 20
12.1520943735
 40
0.0249773677
100
AcDbArc
 50
302.9648313897
 51
342.8465485919
  0
ARC
  5
2EE
100
AcDbEntity
  8
0
100
AcDbCircle
 62
7
  6
CONTINUOUS
 10
15.9607038149
 20
12.5437578283
 40
0.0249773677
100
AcDbArc
 50
302.9648313897
 51
342.846548592
  0
ARC
  5
2EF
100
AcDbEntity
  8
0
100
AcDbCircle
 62
7
  6
CONTINUOUS
 10
16.0817369766
 20
12.9354212832
 40
0.0249773677
100
AcDbArc
 50
302.9648313897
 51
342.8465485919
  0
ARC
  5
2F0
100
AcDbEntity
  8
0
100
AcDbCircle
 62
7
  6
CONTINUOUS
 10
16.2027701383
 20
13.327084738
 40
0.0249773677
100
AcDbArc
 50
302.9648313897
 51
342.8465485921
  0
ARC
  5
2F1
100
AcDbEntity
  8
0
100
AcDbCircle
 62
7
  6
CONTINUOUS
 10
16.3238033
 20
13.7187481928
 40
0.0249773677
100
AcDbArc
 50
302.9648313897
 51
342.8465485921
  0
SPLINE
  5
2F2
100
AcDbEntity
  8
0
100
AcDbSpline
 62
7
  6
CONTINUOUS
 70
0
 71
3
 72
15
 73
11
 74
0
 42
0.0000001
 43
0.0000001
 44
0.0000000001
 40
0.0
 40
0.0
 40
0.0
 40
0.0
 40
0.1295681592
 40
0.2645751038
 40
0.4012659372
 40
0.5362717474
 40
0.6662158584
 40
0.7881016066
 40
0.899814709
 40
1.0
 40
1.0
 40
1.0
 40
1.0
 10
16.3768058651
 20
14.1292596429
 30
0.0
 10
16.3783541193
 20
14.1292596429
 30
0.0
 10
16.3815180649
 20
14.1290444209
 30
0.0
 10
16.3862405786
 20
14.1281605225
 30
0.0
 10
16.3908968915
 20
14.1267330724
 30
0.0
 10
16.3953087684
 20
14.1248177544
 30
0.0
 10
16.3993149613
 20
14.1224890613
 30
0.0
 10
16.4027670426
 20
14.119827722
 30
0.0
 10
16.4055329013
 20
14.1169316831
 30
0.0
 10
16.4069310417
 20
14.1147941116
 30
0.0
 10
16.4074584366
 20
14.1137193936
 30
0.0
  0
SPLINE
  5
2F3
100
AcDbEntity
  8
0
100
AcDbSpline
 62
7
  6
CONTINUOUS
 70
0
 71
3
 72
15
 73
11
 74
0
 42
0.0000001
 43
0.0000001
 44
0.0000000001
 40
0.0
 40
0.0
 40
0.0
 40
0.0
 40
0.0996463404
 40
0.2028722828
 40
0.3125945811
 40
0.4308579322
 40
0.5588165373
 40
0.696832335
 40
0.8443987504
 40
1.0
 40
1.0
 40
1.0
 40
1.0
 10
15.485538435
 20
14.1211005852
 30
0.0
 10
15.4857285501
 20
14.1217158284
 30
0.0
 10
15.4862671868
 20
14.1229267745
 30
0.0
 10
15.4874981748
 20
14.1245477227
 30
0.0
 10
15.4891215672
 20
14.1259628887
 30
0.0
 10
15.4911057409
 20
14.1271469444
 30
0.0
 10
15.4934132882
 20
14.1280855742
 30
0.0
 10
15.4960048986
 20
14.1287643055
 30
0.0
 10
15.4988317675
 20
14.1291719631
 30
0.0
 10
15.5007923748
 20
14.1292596429
 30
0.0
 10
15.5017979208
 20
14.1292596429
 30
0.0
  0
SPLINE
  5
2F4
100
AcDbEntity
  8
0
100
AcDbSpline
 62
7
  6
CONTINUOUS
 70
0
 71
3
 72
11
 73
7
 74
0
 42
0.0000001
 43
0.0000001
 44
0.0000000001
 40
0.0
 40
0.0
 40
0.0
 40
0.0
 40
0.2336954277
 40
0.4747287143
 40
0.7289545149
 40
1.0
 40
1.0
 40
1.0
 40
1.0
 10
14.5172731414
 20
10.9877929467
 30
0.0
 10
14.5170982865
 20
10.9872270883
 30
0.0
 10
14.5168679737
 20
10.9860349396
 30
0.0
 10
14.5169102565
 20
10.9841756606
 30
0.0
 10
14.5173280677
 20
10.982268488
 30
0.0
 10
14.5178295335
 20
10.9810284207
 30
0.0
 10
14.518132149
 20
10.9804117551
 30
0.0
  0
SPLINE
  5
2F5
100
AcDbEntity
  8
0
100
AcDbSpline
 62
7
  6
CONTINUOUS
 70
0
 71
3
 72
9
 73
5
 74
0
 42
0.0000001
 43
0.0000001
 44
0.0000000001
 40
0.0
 40
0.0
 40
0.0
 40
0.0
 40
0.5166047276
 40
1.0
 40
1.0
 40
1.0
 40
1.0
 10
16.4151520634
 20
14.0980414305
 30
0.0
 10
16.4163502474
 20
14.0955997883
 30
0.0
 10
16.4183425257
 20
14.090701617
 30
0.0
 10
16.4194893159
 20
14.0855297599
 30
0.0
 10
16.4197957493
 20
14.0830033243
 30
0.0
  0
SPLINE
  5
2F6
100
AcDbEntity
  8
0
100
AcDbSpline
 62
7
  6
CONTINUOUS
 70
0
 71
3
 72
14
 73
10
 74
0
 42
0.0000001
 43
0.0000001
 44
0.0000000001
 40
0.0
 40
0.0
 40
0.0
 40
0.0
 40
0.1556186823
 40
0.3032565687
 40
0.56883259
 40
0.6871441707
 40
0.7968770643
 40
0.9001672133
 40
1.0
 40
1.0
 40
1.0
 40
1.0
 10
15.4404956251
 20
10.892350343
 30
0.0
 10
15.4415007063
 20
10.892350343
 30
0.0
 10
15.4434616371
 20
10.8924381969
 30
0.0
 10
15.4470995411
 20
10.8929628878
 30
0.0
 10
15.4504202845
 20
10.8940070089
 30
0.0
 10
15.4531706413
 20
10.8956456592
 30
0.0
 10
15.4547944164
 20
10.8970600771
 30
0.0
 10
15.4560256555
 20
10.8986814794
 30
0.0
 10
15.4565642669
 20
10.8998935114
 30
0.0
 10
15.4567540283
 20
10.9005097369
 30
0.0
  0
SPLINE
  5
2F7
100
AcDbEntity
  8
0
100
AcDbSpline
 62
7
  6
CONTINUOUS
 70
0
 71
3
 72
15
 73
11
 74
0
 42
0.0000001
 43
0.0000001
 44
0.0000000001
 40
0.0
 40
0.0
 40
0.0
 40
0.0
 40
0.1095605799
 40
0.2276759167
 40
0.3524285581
 40
0.4818022492
 40
0.6136298033
 40
0.7455993858
 40
0.8752997621
 40
1.0
 40
1.0
 40
1.0
 40
1.0
 10
14.5751345181
 20
10.9041310656
 30
0.0
 10
14.5758803852
 20
10.9032639462
 30
0.0
 10
14.5775726814
 20
10.9015822006
 30
0.0
 10
14.5804907808
 20
10.8993286851
 30
0.0
 10
14.5838196775
 20
10.8973091255
 30
0.0
 10
14.5874632982
 20
10.8955741362
 30
0.0
 10
14.5913274875
 20
10.8941721239
 30
0.0
 10
14.595309424
 20
10.8931369847
 30
0.0
 10
14.5992990203
 20
10.892503474
 30
0.0
 10
14.6019563715
 20
10.892350343
 30
0.0
 10
14.6032581957
 20
10.892350343
 30
0.0
  0
SPLINE
  5
2F8
100
AcDbEntity
  8
0
100
AcDbSpline
 62
7
  6
CONTINUOUS
 70
0
 71
3
 72
9
 73
5
 74
0
 42
0.0000001
 43
0.0000001
 44
0.0000000001
 40
0.0
 40
0.0
 40
0.0
 40
0.0
 40
0.4825233841
 40
1.0
 40
1.0
 40
1.0
 40
1.0
 10
14.5258257758
 20
10.964733792
 30
0.0
 10
14.5271125521
 20
10.9621116177
 30
0.0
 10
14.5301909117
 20
10.9568742593
 30
0.0
 10
14.5338986281
 20
10.9520704851
 30
0.0
 10
14.5359413513
 20
10.9496956858
 30
0.0
  0
SPLINE
  5
2F9
100
AcDbEntity
  8
0
100
AcDbSpline
 62
7
  6
CONTINUOUS
 70
0
 71
3
 72
15
 73
11
 74
0
 42
0.0000001
 43
0.0000001
 44
0.0000000001
 40
0.0
 40
0.0
 40
0.0
 40
0.0
 40
0.1556012496
 40
0.303167665
 40
0.4411834627
 40
0.5691420678
 40
0.6874054189
 40
0.7971277172
 40
0.9003536596
 40
1.0
 40
1.0
 40
1.0
 40
1.0
 10
14.5335326272
 20
10.9959520043
 30
0.0
 10
14.5325270812
 20
10.9959520043
 30
0.0
 10
14.5305664739
 20
10.9958643246
 30
0.0
 10
14.527739605
 20
10.995456667
 30
0.0
 10
14.5251479946
 20
10.9947779356
 30
0.0
 10
14.5228404473
 20
10.9938393059
 30
0.0
 10
14.5208562736
 20
10.9926552501
 30
0.0
 10
14.5192328812
 20
10.9912400842
 30
0.0
 10
14.5180018931
 20
10.989619136
 30
0.0
 10
14.5174632565
 20
10.9884081899
 30
0.0
 10
14.5172731414
 20
10.9877929467
 30
0.0
  0
SPLINE
  5
2FA
100
AcDbEntity
  8
0
100
AcDbSpline
 62
7
  6
CONTINUOUS
 70
0
 71
3
 72
9
 73
5
 74
0
 42
0.0000001
 43
0.0000001
 44
0.0000000001
 40
0.0
 40
0.0
 40
0.0
 40
0.0
 40
0.4833952724
 40
1.0
 40
1.0
 40
1.0
 40
1.0
 10
15.4515304557
 20
10.9496956858
 30
0.0
 10
15.4512240223
 20
10.9522221214
 30
0.0
 10
15.4500772321
 20
10.9573939785
 30
0.0
 10
15.4480849538
 20
10.9622921498
 30
0.0
 10
15.4468867698
 20
10.964733792
 30
0.0
  0
SPLINE
  5
2FB
100
AcDbEntity
  8
0
100
AcDbSpline
 62
7
  6
CONTINUOUS
 70
0
 71
3
 72
15
 73
11
 74
0
 42
0.0000001
 43
0.0000001
 44
0.0000000001
 40
0.0
 40
0.0
 40
0.0
 40
0.0
 40
0.100185291
 40
0.2118983934
 40
0.3337841416
 40
0.4637282526
 40
0.5987340628
 40
0.7354248962
 40
0.8704318408
 40
1.0
 40
1.0
 40
1.0
 40
1.0
 10
15.439193143
 20
10.9804117551
 30
0.0
 10
15.438665748
 20
10.9814864731
 30
0.0
 10
15.4372676077
 20
10.9836240446
 30
0.0
 10
15.4345017489
 20
10.9865200835
 30
0.0
 10
15.4310496677
 20
10.9891814228
 30
0.0
 10
15.4270434748
 20
10.9915101159
 30
0.0
 10
15.4226315978
 20
10.9934254339
 30
0.0
 10
15.417975285
 20
10.994852884
 30
0.0
 10
15.4132527713
 20
10.9957367824
 30
0.0
 10
15.4100888257
 20
10.9959520043
 30
0.0
 10
15.4085405715
 20
10.9959520043
 30
0.0
  0
ENDSEC
  0
SECTION
  2
OBJECTS
  0
DICTIONARY
  5
C
100
AcDbDictionary
280
0
281
1
  3
ACAD_GROUP
350
D
  3
ACAD_MLINESTYLE
350
17
  3
ACAD_LAYOUT
350
1A
  3
ACAD_PLOTSETTINGS
350
19
  3
ACAD_PLOTSTYLENAME
350
E
  0
DICTIONARY
  5
D
102
{ACAD_REACTORS
330
C
102
}
100
AcDbDictionary
280
0
281
1
  0
ACDBDICTIONARYWDFLT
  5
E
102
{ACAD_REACTORS
330
C
102
}
100
AcDbDictionary
281
1
  3
Normal
350
F
100
AcDbDictionaryWithDefault
340
F
  0
DICTIONARY
  5
17
102
{ACAD_REACTORS
330
C
102
}
100
AcDbDictionary
280
0
281
1
  3
Standard
350
18
  0
DICTIONARY
  5
19
102
{ACAD_REACTORS
330
C
102
}
100
AcDbDictionary
281
1
  0
DICTIONARY
  5
1A
102
{ACAD_REACTORS
330
C
102
}
100
AcDbDictionary
281
1
  3
Model
350
2FC
  3
Layout1
350
2FD
  0
ACDBPLACEHOLDER
  5
F
102
{ACAD_REACTORS
330
E
102
}
  0
MLINESTYLE
  5
18
102
{ACAD_REACTORS
330
17
102
}
100
AcDbMlineStyle
  2
STANDARD
 70
0
  3

 62
256
 51
90.0
 52
90.0
 71
2
 49
0.5
 62
256
  6
BYLAYER
 49
-0.5
 62
256
  6
BYLAYER
  0
LAYOUT
  5
2FC
102
{ACAD_REACTORS
330
1A
102
}
100
AcDbPlotSettings
  1

  2
none_device
  4
ANSI_C_(22.00_x_17.00_Inches)
  6

 40
0.0
 41
0.0
 42
0.0
 43
0.0
 44
558.8
 45
431.8
 46
0.0
 47
0.0
 48
0.0
 49
0.0
140
0.0
141
0.0
142
1.0
143
1.0
 70
1024
 72
0
 73
0
 74
0
  7

 75
0
147
1.0
148
0.0
149
0.0
100
AcDbLayout
  1
Model
 70
0
 71
0
 10
0.0
 20
0.0
 11
22.0
 21
17.0
 12
0.0
 22
0.0
 32
0.0
 14
0.0
 24
0.0
 34
0.0
 15
0.0
 25
0.0
 35
0.0
146
0.0
 13
0.0
 23
0.0
 33
0.0
 16
1.0
 26
0.0
 36
0.0
 17
0.0
 27
1.0
 37
0.0
 76
0
330
216
345
0
346
0
  0
LAYOUT
  5
2FD
102
{ACAD_REACTORS
330
1A
102
}
100
AcDbPlotSettings
  1

  2
none_device
  4
ANSI_C_(22.00_x_17.00_Inches)
  6

 40
0.0
 41
0.0
 42
0.0
 43
0.0
 44
558.8
 45
431.8
 46
0.0
 47
0.0
 48
0.0
 49
0.0
140
0.0
141
0.0
142
1.0
143
1.0
 70
0
 72
0
 73
0
 74
0
  7

 75
0
147
1.0
148
0.0
149
0.0
100
AcDbLayout
  1
Layout1
 70
0
 71
1
 10
0.0
 20
0.0
 11
22.0
 21
17.0
 12
0.0
 22
0.0
 32
0.0
 14
0.0
 24
0.0
 34
0.0
 15
0.0
 25
0.0
 35
0.0
146
0.0
 13
0.0
 23
0.0
 33
0.0
 16
1.0
 26
0.0
 36
0.0
 17
0.0
 27
1.0
 37
0.0
 76
0
330
217
345
0
346
0
  0
ENDSEC
  0
EOF