999
DXF file: _cgs_temp_output.dxf
999
Pro/ENGINEER 2015110 by Parametric Technology Corporation
  0
SECTION
  2
HEADER
  9
$ACADVER
  1
AC1021
  9
$DWGCODEPAGE
  3
ANSI_1252
  9
$EXTMAX
 10
22.0
 20
17.0
 30
0.0
  9
$EXTMIN
 10
0.0
 20
0.0
 30
0.0
  9
$LIMMIN
 10
0.0
 20
0.0
  9
$LIMMAX
 10
22.0
 20
17.0
  9
$VIEWCTR
 10
11.0
 20
8.5
  9
$VIEWSIZE
 40
17.0
  9
$CLAYER
  8
0
  9
$LTSCALE
 40
1.21
  9
$CELTYPE
  6
BYLAYER
  9
$DIMSCALE
 40
1.0
  9
$DIMASZ
 40
0.1875
  9
$DIMEXO
 40
0.0625
  9
$DIMDLI
 40
0.836
  9
$DIMEXE
 40
0.125
  9
$DIMCEN
 40
0.198
  9
$DIMLFAC
 40
1.0
  9
$DIMBLK
  1
_CLOSED
  9
$DIMALT
 70
0
  9
$DIMALTF
 40
25.4
  9
$DIMTXT
 40
0.15625
  9
$DIMTOL
 70
0
  9
$DIMLIM
 70
0
  9
$DIMTFAC
 40
1.0
  9
$DIMGAP
 40
0.09
  9
$DIMDSEP
 70
46
  9
$AUNITS
 70
0
  9
$PDMODE
 70
3
  9
$PDSIZE
 40
0.3125
  9
$HANDSEED
  5
37C
  9
$TILEMODE
 70
1
  9
$MEASUREMENT
 70
0
  9
$INSUNITS
 70
1
  0
ENDSEC
  0
SECTION
  2
CLASSES
  0
CLASS
  1
ACDBDICTIONARYWDFLT
  2
AcDbDictionaryWithDefault
  3
AutoCAD 2000
 90
0
 91
1
280
0
281
0
  0
CLASS
  1
ACDBPLACEHOLDER
  2
AcDbPlaceHolder
  3
AutoCAD 2000
 90
0
 91
1
280
0
281
0
  0
CLASS
  1
LAYOUT
  2
AcDbLayout
  3
AutoCAD 2000
 90
0
 91
0
280
0
281
0
  0
ENDSEC
  0
SECTION
  2
TABLES
  0
TABLE
  2
VPORT
  5
8
100
AcDbSymbolTable
 70
2
  0
VPORT
  5
1F4
100
AcDbSymbolTableRecord
100
AcDbViewportTableRecord
  2
*ACTIVE
 70
0
 10
0.0
 20
0.0
 11
1.0
 21
1.0
 12
11.0
 22
8.5
 13
0.0
 23
0.0
 14
1.0
 24
1.0
 15
0.0
 25
0.0
 16
0.0
 26
0.0
 36
1.0
 17
0.0
 27
0.0
 37
0.0
 40
17.0
 41
1.2941176471
 42
50.0
 43
0.0
 44
0.0
 50
0.0
 51
0.0
 71
0
 72
100
 73
1
 74
1
 75
0
 76
0
 77
0
 78
0
  0
ENDTAB
  0
TABLE
  2
LTYPE
  5
5
100
AcDbSymbolTable
 70
6
  0
LTYPE
  5
14
100
AcDbSymbolTableRecord
100
AcDbLinetypeTableRecord
  2
BYBLOCK
 70
0
  3

 72
65
 73
0
 40
0.0
  0
LTYPE
  5
15
100
AcDbSymbolTableRecord
100
AcDbLinetypeTableRecord
  2
BYLAYER
 70
0
  3

 72
65
 73
0
 40
0.0
  0
LTYPE
  5
16
100
AcDbSymbolTableRecord
100
AcDbLinetypeTableRecord
  2
CONTINUOUS
 70
64
  3
Solid line
 72
65
 73
0
 40
0.0
  0
LTYPE
  5
1F5
100
AcDbSymbolTableRecord
100
AcDbLinetypeTableRecord
  2
CENTER
 70
64
  3
____ _ ____ _ ____ _ ____ _ ____ _ ____ _ ____
 72
65
 73
4
 40
0.6
 49
0.375
 74
0
 49
-0.075
 74
0
 49
0.075
 74
0
 49
-0.075
 74
0
  0
LTYPE
  5
1F6
100
AcDbSymbolTableRecord
100
AcDbLinetypeTableRecord
  2
HIDDEN
 70
64
  3
- - - - - - - - - - - - - - - - - - - -
 72
65
 73
2
 40
0.2
 49
0.1
 74
0
 49
-0.1
 74
0
  0
LTYPE
  5
1F7
100
AcDbSymbolTableRecord
100
AcDbLinetypeTableRecord
  2
PHANTOM
 70
64
  3
_____ _ _ _____ _ _ _____ _ _ _____
 72
65
 73
6
 40
0.8
 49
0.45
 74
0
 49
-0.05
 74
0
 49
0.1
 74
0
 49
-0.05
 74
0
 49
0.1
 74
0
 49
-0.05
 74
0
  0
LTYPE
  5
1F8
100
AcDbSymbolTableRecord
100
AcDbLinetypeTableRecord
  2
DOT
 70
64
  3
. . . . . . . . . . . . . . . . . . . .
 72
65
 73
2
 40
0.2
 49
0.1
 74
0
 49
-0.1
 74
0
  0
LTYPE
  5
1F9
100
AcDbSymbolTableRecord
100
AcDbLinetypeTableRecord
  2
DASHED
 70
64
  3
- - - - - - - - - - - - - - - - - - - -
 72
65
 73
2
 40
0.2
 49
0.1
 74
0
 49
-0.1
 74
0
  0
ENDTAB
  0
TABLE
  2
LAYER
  5
2
100
AcDbSymbolTable
 70
36
  0
LAYER
  5
10
100
AcDbSymbolTableRecord
100
AcDbLayerTableRecord
  2
0
 70
0
 62
7
  6
CONTINUOUS
370
-3
390
F
  0
LAYER
  5
1FA
100
AcDbSymbolTableRecord
100
AcDbLayerTableRecord
  2
DEFAULT_1
 70
0
 62
7
  6
CENTER
370
-3
390
F
  0
LAYER
  5
1FB
100
AcDbSymbolTableRecord
100
AcDbLayerTableRecord
  2
DEFAULT_2
 70
0
 62
8
  6
HIDDEN
370
-3
390
F
  0
LAYER
  5
1FC
100
AcDbSymbolTableRecord
100
AcDbLayerTableRecord
  2
DEFAULT_3
 70
0
 62
7
  6
PHANTOM
370
-3
390
F
  0
LAYER
  5
1FD
100
AcDbSymbolTableRecord
100
AcDbLayerTableRecord
  2
01_ALL_DTM_PLN
 70
0
 62
7
  6
CONTINUOUS
370
-3
390
F
  0
LAYER
  5
1FE
100
AcDbSymbolTableRecord
100
AcDbLayerTableRecord
  2
01__ASM_ALL_DTM_PLN
 70
0
 62
7
  6
CONTINUOUS
370
-3
390
F
  0
LAYER
  5
1FF
100
AcDbSymbolTableRecord
100
AcDbLayerTableRecord
  2
01__ASM_DEF_DTM_PLN
 70
0
 62
7
  6
CONTINUOUS
370
-3
390
F
  0
LAYER
  5
200
100
AcDbSymbolTableRecord
100
AcDbLayerTableRecord
  2
01___PRT_ALL_DTM_PLN
 70
0
 62
7
  6
CONTINUOUS
370
-3
390
F
  0
LAYER
  5
201
100
AcDbSymbolTableRecord
100
AcDbLayerTableRecord
  2
01___PRT_DEF_DTM_PLN
 70
0
 62
7
  6
CONTINUOUS
370
-3
390
F
  0
LAYER
  5
202
100
AcDbSymbolTableRecord
100
AcDbLayerTableRecord
  2
02_ALL_AXES
 70
0
 62
7
  6
CONTINUOUS
370
-3
390
F
  0
LAYER
  5
203
100
AcDbSymbolTableRecord
100
AcDbLayerTableRecord
  2
02__ASM_ALL_AXES
 70
0
 62
7
  6
CONTINUOUS
370
-3
390
F
  0
LAYER
  5
204
100
AcDbSymbolTableRecord
100
AcDbLayerTableRecord
  2
02___PRT_ALL_AXES
 70
0
 62
7
  6
CONTINUOUS
370
-3
390
F
  0
LAYER
  5
205
100
AcDbSymbolTableRecord
100
AcDbLayerTableRecord
  2
03_ALL_CURVES
 70
0
 62
7
  6
CONTINUOUS
370
-3
390
F
  0
LAYER
  5
206
100
AcDbSymbolTableRecord
100
AcDbLayerTableRecord
  2
03__ASM_ALL_CURVES
 70
0
 62
7
  6
CONTINUOUS
370
-3
390
F
  0
LAYER
  5
207
100
AcDbSymbolTableRecord
100
AcDbLayerTableRecord
  2
03___PRT_ALL_CURVES
 70
0
 62
7
  6
CONTINUOUS
370
-3
390
F
  0
LAYER
  5
208
100
AcDbSymbolTableRecord
100
AcDbLayerTableRecord
  2
04_ALL_DTM_PNT
 70
0
 62
7
  6
CONTINUOUS
370
-3
390
F
  0
LAYER
  5
209
100
AcDbSymbolTableRecord
100
AcDbLayerTableRecord
  2
04__ASM_ALL_DTM_PNT
 70
0
 62
7
  6
CONTINUOUS
370
-3
390
F
  0
LAYER
  5
20A
100
AcDbSymbolTableRecord
100
AcDbLayerTableRecord
  2
04___PRT_ALL_DTM_PNT
 70
0
 62
7
  6
CONTINUOUS
370
-3
390
F
  0
LAYER
  5
20B
100
AcDbSymbolTableRecord
100
AcDbLayerTableRecord
  2
05_ALL_DTM_CSYS
 70
0
 62
7
  6
CONTINUOUS
370
-3
390
F
  0
LAYER
  5
20C
100
AcDbSymbolTableRecord
100
AcDbLayerTableRecord
  2
05__ASM_ALL_DTM_CSYS
 70
0
 62
7
  6
CONTINUOUS
370
-3
390
F
  0
LAYER
  5
20D
100
AcDbSymbolTableRecord
100
AcDbLayerTableRecord
  2
05__ASM_DEF_DTM_CSYS
 70
0
 62
7
  6
CONTINUOUS
370
-3
390
F
  0
LAYER
  5
20E
100
AcDbSymbolTableRecord
100
AcDbLayerTableRecord
  2
05___PRT_ALL_DTM_CSYS
 70
0
 62
7
  6
CONTINUOUS
370
-3
390
F
  0
LAYER
  5
20F
100
AcDbSymbolTableRecord
100
AcDbLayerTableRecord
  2
05___PRT_DEF_DTM_CSYS
 70
0
 62
7
  6
CONTINUOUS
370
-3
390
F
  0
LAYER
  5
210
100
AcDbSymbolTableRecord
100
AcDbLayerTableRecord
  2
06_ALL_SURFS
 70
0
 62
7
  6
CONTINUOUS
370
-3
390
F
  0
LAYER
  5
211
100
AcDbSymbolTableRecord
100
AcDbLayerTableRecord
  2
06__ASM_ALL_SURFS
 70
0
 62
7
  6
CONTINUOUS
370
-3
390
F
  0
LAYER
  5
212
100
AcDbSymbolTableRecord
100
AcDbLayerTableRecord
  2
06___PRT_ALL_SURFS
 70
0
 62
7
  6
CONTINUOUS
370
-3
390
F
  0
LAYER
  5
213
100
AcDbSymbolTableRecord
100
AcDbLayerTableRecord
  2
07__ASM_ALL_SKELETONS
 70
0
 62
7
  6
CONTINUOUS
370
-3
390
F
  0
ENDTAB
  0
TABLE
  2
STYLE
  5
3
100
AcDbSymbolTable
 70
1
  0
STYLE
  5
11
100
AcDbSymbolTableRecord
100
AcDbTextStyleTableRecord
  2
STANDARD
 70
0
 40
0.0
 41
0.8
 50
0.0
 71
0
 42
0.2
  3
txt
  4

  0
STYLE
  5
214
100
AcDbSymbolTableRecord
100
AcDbTextStyleTableRecord
  2
TEXTSTYLE_1
 70
0
 40
0.0
 41
0.8
 50
0.0
 71
0
 42
0.2
  3
gdt
  4

  0
ENDTAB
  0
TABLE
  2
VIEW
  5
6
100
AcDbSymbolTable
 70
0
  0
ENDTAB
  0
TABLE
  2
UCS
  5
7
100
AcDbSymbolTable
 70
0
  0
ENDTAB
  0
TABLE
  2
APPID
  5
9
100
AcDbSymbolTable
 70
1
  0
APPID
  5
215
100
AcDbSymbolTableRecord
100
AcDbRegAppTableRecord
  2
ACAD
 70
0
  0
ENDTAB
  0
TABLE
  2
BLOCK_RECORD
  5
1
100
AcDbSymbolTable
 70
0
  0
BLOCK_RECORD
  5
216
100
AcDbSymbolTableRecord
100
AcDbBlockTableRecord
  2
*Model_Space
  0
BLOCK_RECORD
  5
217
100
AcDbSymbolTableRecord
100
AcDbBlockTableRecord
  2
*Paper_Space
  0
ENDTAB
  0
TABLE
  2
DIMSTYLE
  5
A
100
AcDbSymbolTable
 70
1
100
AcDbDimStyleTable
 71
0
  0
DIMSTYLE
105
218
100
AcDbSymbolTableRecord
100
AcDbDimStyleTableRecord
  2
STANDARD
 70
0
  3

  4

 40
1.0
 41
0.1875
 42
0.0625
 43
0.38
 44
0.125
 45
0.0
 46
0.0
 47
0.0001
 48
0.0001
140
0.15625
141
0.09
142
0.0
143
25.4
144
1.0
145
0.0
146
1.0
147
0.09
 71
0.0
 72
0.0
 73
1
 74
1
 75
0
 76
0
 77
0
 78
4
170
0
171
2
172
0
173
0
174
0
175
0
176
0
177
0
178
0
270
2
271
4
272
4
273
2
274
2
275
0
280
0
281
0
282
0
283
1
284
4
285
0
286
0
287
3
288
0
340
11
278
46
  0
ENDTAB
  0
ENDSEC
  0
SECTION
  2
BLOCKS
  0
BLOCK
  5
20
100
AcDbEntity
  8
0
100
AcDbBlockBegin
  2
*Model_Space
 70
0
 10
0.0
 20
0.0
 30
0.0
  3
*Model_Space
  1

  0
ENDBLK
  5
21
100
AcDbEntity
  8
0
100
AcDbBlockEnd
  0
BLOCK
  5
1C
100
AcDbEntity
  8
0
100
AcDbBlockBegin
  2
*Paper_Space
 70
0
 10
0.0
 20
0.0
 30
0.0
  3
*Paper_Space
  1

  0
ENDBLK
  5
1D
100
AcDbEntity
  8
0
100
AcDbBlockEnd
  0
ENDSEC
  0
SECTION
  2
ENTITIES
  0
MTEXT
  5
219
100
AcDbEntity
  8
0
100
AcDbMText
 62
7
  6
CONTINUOUS
  7
STANDARD
 71
1
 72
1
 10
15.9560215477
 20
0.9479130325
 30
0.0
 11
1.0
 21
0.0
 31
0.0
 44
0.9
  1
SCALE: 1:1.000
 40
0.3
 41
3.36
  0
LINE
  5
21A
100
AcDbEntity
  8
0
100
AcDbLine
 62
7
  6
CONTINUOUS
 10
0.0
 20
0.0
 11
0.0
 21
17.0
  0
LINE
  5
21B
100
AcDbEntity
  8
0
100
AcDbLine
 62
7
  6
CONTINUOUS
 10
0.0
 20
0.0
 11
22.0
 21
0.0
  0
LINE
  5
21C
100
AcDbEntity
  8
0
100
AcDbLine
 62
7
  6
CONTINUOUS
 10
0.0
 20
17.0
 11
22.0
 21
17.0
  0
LINE
  5
21D
100
AcDbEntity
  8
0
100
AcDbLine
 62
7
  6
CONTINUOUS
 10
22.0
 20
0.0
 11
22.0
 21
17.0
  0
LINE
  5
21E
100
AcDbEntity
  8
0
100
AcDbLine
 62
7
  6
CONTINUOUS
 10
5.7957216069
 20
5.7016701212
 11
5.7957216069
 21
5.6882797759
  0
LINE
  5
21F
100
AcDbEntity
  8
0
100
AcDbLine
 62
7
  6
CONTINUOUS
 10
5.9201249784
 20
5.3235300831
 11
6.3406095739
 21
5.3235300831
  0
LINE
  5
220
100
AcDbEntity
  8
0
100
AcDbLine
 62
7
  6
CONTINUOUS
 10
5.8781631541
 20
5.4547636789
 11
6.3825713982
 21
5.4547636789
  0
LINE
  5
221
100
AcDbEntity
  8
0
100
AcDbLine
 62
7
  6
CONTINUOUS
 10
6.4650129455
 20
5.6882797759
 11
6.4650129455
 21
5.7016701212
  0
LINE
  5
222
100
AcDbEntity
  8
0
100
AcDbLine
 62
7
  6
CONTINUOUS
 10
6.4055177532
 20
10.6315438444
 11
5.7362264146
 21
10.6315438444
  0
LINE
  5
223
100
AcDbEntity
  8
0
100
AcDbLine
 62
7
  6
CONTINUOUS
 10
5.7362264146
 20
10.6315438444
 11
5.7362264146
 21
14.5685517184
  0
LINE
  5
224
100
AcDbEntity
  8
0
100
AcDbLine
 62
7
  6
CONTINUOUS
 10
6.4055177532
 20
10.6315438444
 11
6.4055177532
 21
14.5685517184
  0
LINE
  5
225
100
AcDbEntity
  8
0
100
AcDbLine
 62
7
  6
CONTINUOUS
 10
5.7362264146
 20
14.5685517184
 11
6.4055177532
 21
14.5685517184
  0
LINE
  5
226
100
AcDbEntity
  8
0
100
AcDbLine
 62
7
  6
CONTINUOUS
 10
13.5918513199
 20
5.3952684866
 11
13.5918513199
 21
5.6577356347
  0
LINE
  5
227
100
AcDbEntity
  8
0
100
AcDbLine
 62
7
  6
CONTINUOUS
 10
13.6634199202
 20
5.3749259946
 11
13.6843247144
 21
5.2843773828
  0
LINE
  5
228
100
AcDbEntity
  8
0
100
AcDbLine
 62
7
  6
CONTINUOUS
 10
13.8274619149
 20
5.2843773828
 11
13.8483667092
 21
5.3749259946
  0
LINE
  5
229
100
AcDbEntity
  8
0
100
AcDbLine
 62
7
  6
CONTINUOUS
 10
13.9915039097
 20
5.3749259946
 11
14.0124087039
 21
5.2843773828
  0
LINE
  5
22A
100
AcDbEntity
  8
0
100
AcDbLine
 62
7
  6
CONTINUOUS
 10
14.1555459045
 20
5.2843773828
 11
14.1764506987
 21
5.3749259946
  0
LINE
  5
22B
100
AcDbEntity
  8
0
100
AcDbLine
 62
7
  6
CONTINUOUS
 10
14.3195878992
 20
5.3749259946
 11
14.3404926934
 21
5.2843773828
  0
LINE
  5
22C
100
AcDbEntity
  8
0
100
AcDbLine
 62
7
  6
CONTINUOUS
 10
14.483629894
 20
5.2843773828
 11
14.5045346882
 21
5.3749259946
  0
LINE
  5
22D
100
AcDbEntity
  8
0
100
AcDbLine
 62
7
  6
CONTINUOUS
 10
14.6476718887
 20
5.3749259946
 11
14.6685766829
 21
5.2843773828
  0
LINE
  5
22E
100
AcDbEntity
  8
0
100
AcDbLine
 62
7
  6
CONTINUOUS
 10
14.8117138835
 20
5.2843773828
 11
14.8326186777
 21
5.3749259946
  0
LINE
  5
22F
100
AcDbEntity
  8
0
100
AcDbLine
 62
7
  6
CONTINUOUS
 10
14.9757558782
 20
5.3749259946
 11
14.9966606724
 21
5.2843773828
  0
LINE
  5
230
100
AcDbEntity
  8
0
100
AcDbLine
 62
7
  6
CONTINUOUS
 10
15.139797873
 20
5.2843773828
 11
15.1607026672
 21
5.3749259946
  0
LINE
  5
231
100
AcDbEntity
  8
0
100
AcDbLine
 62
7
  6
CONTINUOUS
 10
15.3038398677
 20
5.3749259946
 11
15.3247446619
 21
5.2843773828
  0
LINE
  5
232
100
AcDbEntity
  8
0
100
AcDbLine
 62
7
  6
CONTINUOUS
 10
13.7098987319
 20
5.2640348908
 11
13.8018878975
 21
5.2640348908
  0
LINE
  5
233
100
AcDbEntity
  8
0
100
AcDbLine
 62
7
  6
CONTINUOUS
 10
14.0379827214
 20
5.2640348908
 11
14.129971887
 21
5.2640348908
  0
LINE
  5
234
100
AcDbEntity
  8
0
100
AcDbLine
 62
7
  6
CONTINUOUS
 10
14.3660667109
 20
5.2640348908
 11
14.4580558765
 21
5.2640348908
  0
LINE
  5
235
100
AcDbEntity
  8
0
100
AcDbLine
 62
7
  6
CONTINUOUS
 10
14.6941507004
 20
5.2640348908
 11
14.786139866
 21
5.2640348908
  0
LINE
  5
236
100
AcDbEntity
  8
0
100
AcDbLine
 62
7
  6
CONTINUOUS
 10
15.0222346899
 20
5.2640348908
 11
15.1142238555
 21
5.2640348908
  0
LINE
  5
237
100
AcDbEntity
  8
0
100
AcDbLine
 62
7
  6
CONTINUOUS
 10
15.3503186794
 20
5.2640348908
 11
15.442307845
 21
5.2640348908
  0
LINE
  5
238
100
AcDbEntity
  8
0
100
AcDbLine
 62
7
  6
CONTINUOUS
 10
15.6784026689
 20
5.2640348908
 11
15.7703918345
 21
5.2640348908
  0
LINE
  5
239
100
AcDbEntity
  8
0
100
AcDbLine
 62
7
  6
CONTINUOUS
 10
16.0064866584
 20
5.2640348908
 11
16.098475824
 21
5.2640348908
  0
LINE
  5
23A
100
AcDbEntity
  8
0
100
AcDbLine
 62
7
  6
CONTINUOUS
 10
16.3345706479
 20
5.2640348908
 11
16.4265598135
 21
5.2640348908
  0
LINE
  5
23B
100
AcDbEntity
  8
0
100
AcDbLine
 62
7
  6
CONTINUOUS
 10
16.6626546374
 20
5.2640348908
 11
16.754643803
 21
5.2640348908
  0
LINE
  5
23C
100
AcDbEntity
  8
0
100
AcDbLine
 62
7
  6
CONTINUOUS
 10
16.9907386269
 20
5.2640348908
 11
17.0827277925
 21
5.2640348908
  0
LINE
  5
23D
100
AcDbEntity
  8
0
100
AcDbLine
 62
7
  6
CONTINUOUS
 10
17.3188226164
 20
5.2640348908
 11
17.410811782
 21
5.2640348908
  0
LINE
  5
23E
100
AcDbEntity
  8
0
100
AcDbLine
 62
7
  6
CONTINUOUS
 10
15.4678818625
 20
5.2843773828
 11
15.4887866567
 21
5.3749259946
  0
LINE
  5
23F
100
AcDbEntity
  8
0
100
AcDbLine
 62
7
  6
CONTINUOUS
 10
13.5918513199
 20
5.3952684866
 11
13.6378459027
 21
5.3952684866
  0
LINE
  5
240
100
AcDbEntity
  8
0
100
AcDbLine
 62
7
  6
CONTINUOUS
 10
13.8739407266
 20
5.3952684866
 11
13.9659298923
 21
5.3952684866
  0
LINE
  5
241
100
AcDbEntity
  8
0
100
AcDbLine
 62
7
  6
CONTINUOUS
 10
14.2020247161
 20
5.3952684866
 11
14.2940138818
 21
5.3952684866
  0
LINE
  5
242
100
AcDbEntity
  8
0
100
AcDbLine
 62
7
  6
CONTINUOUS
 10
14.5301087056
 20
5.3952684866
 11
14.6220978713
 21
5.3952684866
  0
LINE
  5
243
100
AcDbEntity
  8
0
100
AcDbLine
 62
7
  6
CONTINUOUS
 10
14.8581926951
 20
5.3952684866
 11
14.9501818608
 21
5.3952684866
  0
LINE
  5
244
100
AcDbEntity
  8
0
100
AcDbLine
 62
7
  6
CONTINUOUS
 10
15.1862766846
 20
5.3952684866
 11
15.2782658503
 21
5.3952684866
  0
LINE
  5
245
100
AcDbEntity
  8
0
100
AcDbLine
 62
7
  6
CONTINUOUS
 10
15.5143606741
 20
5.3952684866
 11
15.6063498398
 21
5.3952684866
  0
LINE
  5
246
100
AcDbEntity
  8
0
100
AcDbLine
 62
7
  6
CONTINUOUS
 10
15.8424446636
 20
5.3952684866
 11
15.9344338293
 21
5.3952684866
  0
LINE
  5
247
100
AcDbEntity
  8
0
100
AcDbLine
 62
7
  6
CONTINUOUS
 10
16.1705286531
 20
5.3952684866
 11
16.2625178188
 21
5.3952684866
  0
LINE
  5
248
100
AcDbEntity
  8
0
100
AcDbLine
 62
7
  6
CONTINUOUS
 10
16.4986126426
 20
5.3952684866
 11
16.5906018083
 21
5.3952684866
  0
LINE
  5
249
100
AcDbEntity
  8
0
100
AcDbLine
 62
7
  6
CONTINUOUS
 10
16.8266966321
 20
5.3952684866
 11
16.9186857978
 21
5.3952684866
  0
LINE
  5
24A
100
AcDbEntity
  8
0
100
AcDbLine
 62
7
  6
CONTINUOUS
 10
17.1547806216
 20
5.3952684866
 11
17.2467697873
 21
5.3952684866
  0
LINE
  5
24B
100
AcDbEntity
  8
0
100
AcDbLine
 62
7
  6
CONTINUOUS
 10
17.4828646111
 20
5.3952684866
 11
17.5288591939
 21
5.3952684866
  0
LINE
  5
24C
100
AcDbEntity
  8
0
100
AcDbLine
 62
7
  6
CONTINUOUS
 10
15.6319238572
 20
5.3749259946
 11
15.6528286514
 21
5.2843773828
  0
LINE
  5
24D
100
AcDbEntity
  8
0
100
AcDbLine
 62
7
  6
CONTINUOUS
 10
15.795965852
 20
5.2843773828
 11
15.8168706462
 21
5.3749259946
  0
LINE
  5
24E
100
AcDbEntity
  8
0
100
AcDbLine
 62
7
  6
CONTINUOUS
 10
17.5288591939
 20
5.6577356782
 11
13.5918513199
 21
5.6577356782
  0
LINE
  5
24F
100
AcDbEntity
  8
0
100
AcDbLine
 62
7
  6
CONTINUOUS
 10
15.9600078467
 20
5.3749259946
 11
15.9809126409
 21
5.2843773828
  0
LINE
  5
250
100
AcDbEntity
  8
0
100
AcDbLine
 62
7
  6
CONTINUOUS
 10
16.1240498415
 20
5.2843773828
 11
16.1449546357
 21
5.3749259946
  0
LINE
  5
251
100
AcDbEntity
  8
0
100
AcDbLine
 62
7
  6
CONTINUOUS
 10
16.2880918362
 20
5.3749259946
 11
16.3089966304
 21
5.2843773828
  0
LINE
  5
252
100
AcDbEntity
  8
0
100
AcDbLine
 62
7
  6
CONTINUOUS
 10
16.452133831
 20
5.2843773828
 11
16.4730386252
 21
5.3749259946
  0
LINE
  5
253
100
AcDbEntity
  8
0
100
AcDbLine
 62
7
  6
CONTINUOUS
 10
16.6161758257
 20
5.3749259946
 11
16.6370806199
 21
5.2843773828
  0
LINE
  5
254
100
AcDbEntity
  8
0
100
AcDbLine
 62
7
  6
CONTINUOUS
 10
16.7802178205
 20
5.2843773828
 11
16.8011226147
 21
5.3749259946
  0
LINE
  5
255
100
AcDbEntity
  8
0
100
AcDbLine
 62
7
  6
CONTINUOUS
 10
16.9442598152
 20
5.3749259946
 11
16.9651646094
 21
5.2843773828
  0
LINE
  5
256
100
AcDbEntity
  8
0
100
AcDbLine
 62
7
  6
CONTINUOUS
 10
17.10830181
 20
5.2843773828
 11
17.1292066042
 21
5.3749259946
  0
LINE
  5
257
100
AcDbEntity
  8
0
100
AcDbLine
 62
7
  6
CONTINUOUS
 10
17.2723438047
 20
5.3749259946
 11
17.2932485989
 21
5.2843773828
  0
LINE
  5
258
100
AcDbEntity
  8
0
100
AcDbLine
 62
7
  6
CONTINUOUS
 10
17.5288591939
 20
5.3952684866
 11
17.5288591939
 21
5.6577356347
  0
LINE
  5
259
100
AcDbEntity
  8
0
100
AcDbLine
 62
7
  6
CONTINUOUS
 10
17.4363857995
 20
5.2843773828
 11
17.4572905937
 21
5.3749259946
  0
LWPOLYLINE
  5
25A
100
AcDbEntity
  8
0
100
AcDbPolyline
 62
7
  6
CONTINUOUS
 90
4
 70
0
 10
15.3214941014
 20
10.8883708705
 10
15.3232579529
 20
10.8885221171
 10
15.3273848437
 20
10.890194368
 10
15.3303132359
 20
10.8930419454
  0
LINE
  5
25B
100
AcDbEntity
  8
0
100
AcDbLine
 62
7
  6
CONTINUOUS
 10
14.8331959588
 20
10.8874087284
 11
15.2977867175
 21
10.8874087284
  0
LINE
  5
25C
100
AcDbEntity
  8
0
100
AcDbLine
 62
7
  6
CONTINUOUS
 10
15.3020449317
 20
10.8883708346
 11
15.3214977763
 21
10.8883708346
  0
LWPOLYLINE
  5
25D
100
AcDbEntity
  8
0
100
AcDbPolyline
 62
7
  6
CONTINUOUS
 90
4
 70
0
 10
15.4009121865
 20
11.1453678881
 10
15.4026760381
 20
11.1455191347
 10
15.4068029288
 20
11.1471913856
 10
15.409731321
 20
11.150038963
  0
LINE
  5
25E
100
AcDbEntity
  8
0
100
AcDbLine
 62
7
  6
CONTINUOUS
 10
15.3829108296
 20
11.1453678522
 11
15.4009158614
 21
11.1453678522
  0
LINE
  5
25F
100
AcDbEntity
  8
0
100
AcDbLine
 62
7
  6
CONTINUOUS
 10
14.6819454633
 20
11.0408882342
 11
14.6860300792
 21
11.0325646621
  0
LWPOLYLINE
  5
260
100
AcDbEntity
  8
0
100
AcDbPolyline
 62
7
  6
CONTINUOUS
 90
4
 70
0
 10
15.4803302716
 20
11.4023649057
 10
15.4820941232
 20
11.4025161522
 10
15.4862210139
 20
11.4041884032
 10
15.4891494061
 20
11.4070359806
  0
LINE
  5
261
100
AcDbEntity
  8
0
100
AcDbLine
 62
7
  6
CONTINUOUS
 10
15.4623289147
 20
11.4023648698
 11
15.4803339465
 21
11.4023648698
  0
LWPOLYLINE
  5
262
100
AcDbEntity
  8
0
100
AcDbPolyline
 62
7
  6
CONTINUOUS
 90
4
 70
0
 10
15.5597483567
 20
11.6593619233
 10
15.5615122083
 20
11.6595131698
 10
15.565639099
 20
11.6611854208
 10
15.5685674912
 20
11.6640329982
  0
LINE
  5
263
100
AcDbEntity
  8
0
100
AcDbLine
 62
7
  6
CONTINUOUS
 10
15.5417469998
 20
11.6593618874
 11
15.5597520316
 21
11.6593618874
  0
LINE
  5
264
100
AcDbEntity
  8
0
100
AcDbLine
 62
7
  6
CONTINUOUS
 10
15.3024882248
 20
11.0325646621
 11
15.2984036089
 21
11.0408882342
  0
LWPOLYLINE
  5
265
100
AcDbEntity
  8
0
100
AcDbPolyline
 62
7
  6
CONTINUOUS
 90
4
 70
0
 10
15.6391664418
 20
11.9163589409
 10
15.6409302934
 20
11.9165101874
 10
15.6450571841
 20
11.9181824384
 10
15.6479855763
 20
11.9210300157
  0
LINE
  5
266
100
AcDbEntity
  8
0
100
AcDbLine
 62
7
  6
CONTINUOUS
 10
15.6211650849
 20
11.9163589049
 11
15.6391701167
 21
11.9163589049
  0
LWPOLYLINE
  5
267
100
AcDbEntity
  8
0
100
AcDbPolyline
 62
7
  6
CONTINUOUS
 90
4
 70
0
 10
15.7185845269
 20
12.1733559585
 10
15.7203483785
 20
12.173507205
 10
15.7244752692
 20
12.175179456
 10
15.7274036614
 20
12.1780270333
  0
LINE
  5
268
100
AcDbEntity
  8
0
100
AcDbLine
 62
7
  6
CONTINUOUS
 10
14.6815717661
 20
11.0440993399
 11
15.6345887874
 21
14.1280635511
  0
LINE
  5
269
100
AcDbEntity
  8
0
100
AcDbLine
 62
7
  6
CONTINUOUS
 10
15.70058317
 20
12.1733559225
 11
15.7185882018
 21
12.1733559225
  0
LWPOLYLINE
  5
26A
100
AcDbEntity
  8
0
100
AcDbPolyline
 62
7
  6
CONTINUOUS
 90
4
 70
0
 10
15.798002612
 20
12.4303529761
 10
15.7997664636
 20
12.4305042226
 10
15.8038933543
 20
12.4321764736
 10
15.8068217466
 20
12.4350240509
  0
LWPOLYLINE
  5
26B
100
AcDbEntity
  8
0
100
AcDbPolyline
 62
7
  6
CONTINUOUS
 90
3
 70
0
 10
15.3604445668
 20
10.9964603919
 10
15.36152155
 20
11.0189157815
 10
15.3630133669
 20
11.0461536606
  0
LINE
  5
26C
100
AcDbEntity
  8
0
100
AcDbLine
 62
7
  6
CONTINUOUS
 10
15.3630133669
 20
11.0461536606
 11
15.3644174709
 21
11.0689265323
  0
LINE
  5
26D
100
AcDbEntity
  8
0
100
AcDbLine
 62
7
  6
CONTINUOUS
 10
15.3601852295
 20
10.9928686732
 11
15.3604460301
 21
10.9964963253
  0
LINE
  5
26E
100
AcDbEntity
  8
0
100
AcDbLine
 62
7
  6
CONTINUOUS
 10
15.3644182091
 20
11.0689379006
 11
15.3646133542
 21
11.0714784375
  0
LINE
  5
26F
100
AcDbEntity
  8
0
100
AcDbLine
 62
7
  6
CONTINUOUS
 10
16.1924846495
 20
13.762868194
 11
16.192598159
 21
13.7630511767
  0
LINE
  5
270
100
AcDbEntity
  8
0
100
AcDbLine
 62
7
  6
CONTINUOUS
 10
15.7800012551
 20
12.4303529401
 11
15.798006287
 21
12.4303529401
  0
LWPOLYLINE
  5
271
100
AcDbEntity
  8
0
100
AcDbPolyline
 62
7
  6
CONTINUOUS
 90
3
 70
0
 10
15.4398626519
 20
11.2534574095
 10
15.4409396351
 20
11.2759127991
 10
15.442431452
 20
11.3031506782
  0
LWPOLYLINE
  5
272
100
AcDbEntity
  8
0
100
AcDbPolyline
 62
7
  6
CONTINUOUS
 90
3
 70
0
 10
15.519280737
 20
11.5104544271
 10
15.5203577202
 20
11.5329098167
 10
15.5218495371
 20
11.5601476958
  0
LINE
  5
273
100
AcDbEntity
  8
0
100
AcDbLine
 62
7
  6
CONTINUOUS
 10
15.442431452
 20
11.3031506782
 11
15.4438355561
 21
11.3259235499
  0
LINE
  5
274
100
AcDbEntity
  8
0
100
AcDbLine
 62
7
  6
CONTINUOUS
 10
15.5218495371
 20
11.5601476958
 11
15.5232536412
 21
11.5829205675
  0
LINE
  5
275
100
AcDbEntity
  8
0
100
AcDbLine
 62
7
  6
CONTINUOUS
 10
15.4396033146
 20
11.2498656908
 11
15.4398641152
 21
11.2534933429
  0
LINE
  5
276
100
AcDbEntity
  8
0
100
AcDbLine
 62
7
  6
CONTINUOUS
 10
15.5190213997
 20
11.5068627084
 11
15.5192822003
 21
11.5104903605
  0
LINE
  5
277
100
AcDbEntity
  8
0
100
AcDbLine
 62
7
  6
CONTINUOUS
 10
15.4438362942
 20
11.3259349182
 11
15.4440314393
 21
11.3284754551
  0
LINE
  5
278
100
AcDbEntity
  8
0
100
AcDbLine
 62
7
  6
CONTINUOUS
 10
15.5232543793
 20
11.5829319358
 11
15.5234495244
 21
11.5854724726
  0
LWPOLYLINE
  5
279
100
AcDbEntity
  8
0
100
AcDbPolyline
 62
7
  6
CONTINUOUS
 90
5
 70
0
 10
15.3646133542
 20
11.0714784375
 10
15.3656592906
 20
11.080373717
 10
15.3672989285
 20
11.0901948503
 10
15.3693794274
 20
11.1000373922
 10
15.3716969629
 20
11.1089851129
  0
LWPOLYLINE
  5
27A
100
AcDbEntity
  8
0
100
AcDbPolyline
 62
7
  6
CONTINUOUS
 90
5
 70
0
 10
15.4440314393
 20
11.3284754551
 10
15.4450773757
 20
11.3373707346
 10
15.4467170136
 20
11.3471918678
 10
15.4487975125
 20
11.3570344098
 10
15.451115048
 20
11.3659821305
  0
LINE
  5
27B
100
AcDbEntity
  8
0
100
AcDbLine
 62
7
  6
CONTINUOUS
 10
15.304188157
 20
10.8906209366
 11
15.3043341316
 21
10.8915971648
  0
LWPOLYLINE
  5
27C
100
AcDbEntity
  8
0
100
AcDbPolyline
 62
7
  6
CONTINUOUS
 90
3
 70
0
 10
16.2039121721
 20
13.7200091389
 10
16.2057566643
 20
13.7231764883
 10
16.2073283378
 20
13.727186505
  0
LWPOLYLINE
  5
27D
100
AcDbEntity
  8
0
100
AcDbPolyline
 62
7
  6
CONTINUOUS
 90
3
 70
0
 10
16.124494087
 20
13.4630121213
 10
16.1263385792
 20
13.4661794707
 10
16.1279102527
 20
13.4701894874
  0
LINE
  5
27E
100
AcDbEntity
  8
0
100
AcDbLine
 62
7
  6
CONTINUOUS
 10
16.1130665644
 20
13.5058711764
 11
16.1131800739
 21
13.5060541591
  0
LINE
  5
27F
100
AcDbEntity
  8
0
100
AcDbLine
 62
7
  6
CONTINUOUS
 10
16.0336484793
 20
13.2488741588
 11
16.0337619888
 21
13.2490571415
  0
LWPOLYLINE
  5
280
100
AcDbEntity
  8
0
100
AcDbPolyline
 62
7
  6
CONTINUOUS
 90
3
 70
0
 10
15.5986988222
 20
11.7674514447
 10
15.5997758053
 20
11.7899068343
 10
15.6012676222
 20
11.8171447134
  0
LWPOLYLINE
  5
281
100
AcDbEntity
  8
0
100
AcDbPolyline
 62
7
  6
CONTINUOUS
 90
3
 70
0
 10
15.6781169073
 20
12.0244484623
 10
15.6791938904
 20
12.0469038519
 10
15.6806857073
 20
12.074141731
  0
LINE
  5
282
100
AcDbEntity
  8
0
100
AcDbLine
 62
7
  6
CONTINUOUS
 10
15.6012676222
 20
11.8171447134
 11
15.6026717263
 21
11.8399175851
  0
LINE
  5
283
100
AcDbEntity
  8
0
100
AcDbLine
 62
7
  6
CONTINUOUS
 10
15.6806857073
 20
12.074141731
 11
15.6820898114
 21
12.0969146027
  0
LINE
  5
284
100
AcDbEntity
  8
0
100
AcDbLine
 62
7
  6
CONTINUOUS
 10
15.5984394848
 20
11.763859726
 11
15.5987002854
 21
11.7674873781
  0
LINE
  5
285
100
AcDbEntity
  8
0
100
AcDbLine
 62
7
  6
CONTINUOUS
 10
15.6778575699
 20
12.0208567436
 11
15.6781183705
 21
12.0244843957
  0
LINE
  5
286
100
AcDbEntity
  8
0
100
AcDbLine
 62
7
  6
CONTINUOUS
 10
15.6026724644
 20
11.8399289534
 11
15.6028676095
 21
11.8424694902
  0
LINE
  5
287
100
AcDbEntity
  8
0
100
AcDbLine
 62
7
  6
CONTINUOUS
 10
15.6820905495
 20
12.096925971
 11
15.6822856946
 21
12.0994665078
  0
LWPOLYLINE
  5
288
100
AcDbEntity
  8
0
100
AcDbPolyline
 62
7
  6
CONTINUOUS
 90
5
 70
0
 10
15.5234495244
 20
11.5854724726
 10
15.5244954609
 20
11.5943677522
 10
15.5261350987
 20
11.6041888854
 10
15.5282155976
 20
11.6140314274
 10
15.5305331331
 20
11.6229791481
  0
LWPOLYLINE
  5
289
100
AcDbEntity
  8
0
100
AcDbPolyline
 62
7
  6
CONTINUOUS
 90
5
 70
0
 10
15.6028676095
 20
11.8424694902
 10
15.603913546
 20
11.8513647698
 10
15.6055531838
 20
11.861185903
 10
15.6076336827
 20
11.871028445
 10
15.6099512182
 20
11.8799761657
  0
LWPOLYLINE
  5
28A
100
AcDbEntity
  8
0
100
AcDbPolyline
 62
7
  6
CONTINUOUS
 90
3
 70
0
 10
15.3571773928
 20
10.9762300039
 10
15.3589998792
 20
10.9844426451
 10
15.3601852295
 20
10.9928686732
  0
LWPOLYLINE
  5
28B
100
AcDbEntity
  8
0
100
AcDbPolyline
 62
7
  6
CONTINUOUS
 90
3
 70
0
 10
15.4365954779
 20
11.2332270215
 10
15.4384179643
 20
11.2414396627
 10
15.4396033146
 20
11.2498656908
  0
LWPOLYLINE
  5
28C
100
AcDbEntity
  8
0
100
AcDbPolyline
 62
7
  6
CONTINUOUS
 90
4
 70
0
 10
16.1897582069
 20
13.7562168305
 10
16.1909035308
 20
13.7593890092
 10
16.1918603019
 20
13.7616520888
 10
16.1924846495
 20
13.762868194
  0
LWPOLYLINE
  5
28D
100
AcDbEntity
  8
0
100
AcDbPolyline
 62
7
  6
CONTINUOUS
 90
3
 70
0
 10
16.0450760019
 20
13.2060151037
 10
16.0469204941
 20
13.2091824531
 10
16.0484921676
 20
13.2131924698
  0
LWPOLYLINE
  5
28E
100
AcDbEntity
  8
0
100
AcDbPolyline
 62
7
  6
CONTINUOUS
 90
3
 70
0
 10
15.9656579168
 20
12.9490180861
 10
15.967502409
 20
12.9521854355
 10
15.9690740824
 20
12.9561954522
  0
LINE
  5
28F
100
AcDbEntity
  8
0
100
AcDbLine
 62
7
  6
CONTINUOUS
 10
15.9542303942
 20
12.9918771412
 11
15.9543439037
 21
12.9920601239
  0
LINE
  5
290
100
AcDbEntity
  8
0
100
AcDbLine
 62
7
  6
CONTINUOUS
 10
15.8748123091
 20
12.7348801237
 11
15.8749258186
 21
12.7350631063
  0
LWPOLYLINE
  5
291
100
AcDbEntity
  8
0
100
AcDbPolyline
 62
7
  6
CONTINUOUS
 90
4
 70
0
 10
15.8774206971
 20
12.6873499937
 10
15.8791845487
 20
12.6875012402
 10
15.8833114394
 20
12.6891734912
 10
15.8862398317
 20
12.6920210685
  0
LINE
  5
292
100
AcDbEntity
  8
0
100
AcDbLine
 62
7
  6
CONTINUOUS
 10
15.8594193402
 20
12.6873499577
 11
15.8774243721
 21
12.6873499577
  0
LWPOLYLINE
  5
293
100
AcDbEntity
  8
0
100
AcDbPolyline
 62
7
  6
CONTINUOUS
 90
3
 70
0
 10
15.7575349924
 20
12.2814454799
 10
15.7586119755
 20
12.3039008695
 10
15.7601037925
 20
12.3311387486
  0
LWPOLYLINE
  5
294
100
AcDbEntity
  8
0
100
AcDbPolyline
 62
7
  6
CONTINUOUS
 90
3
 70
0
 10
15.8369530775
 20
12.5384424975
 10
15.8380300606
 20
12.5608978871
 10
15.8395218776
 20
12.5881357662
  0
LINE
  5
295
100
AcDbEntity
  8
0
100
AcDbLine
 62
7
  6
CONTINUOUS
 10
15.7601037925
 20
12.3311387486
 11
15.7615078965
 21
12.3539116203
  0
LINE
  5
296
100
AcDbEntity
  8
0
100
AcDbLine
 62
7
  6
CONTINUOUS
 10
15.8395218776
 20
12.5881357662
 11
15.8409259816
 21
12.6109086379
  0
LINE
  5
297
100
AcDbEntity
  8
0
100
AcDbLine
 62
7
  6
CONTINUOUS
 10
15.757275655
 20
12.2778537612
 11
15.7575364556
 21
12.2814814133
  0
LINE
  5
298
100
AcDbEntity
  8
0
100
AcDbLine
 62
7
  6
CONTINUOUS
 10
15.8366937401
 20
12.5348507788
 11
15.8369545407
 21
12.5384784309
  0
LINE
  5
299
100
AcDbEntity
  8
0
100
AcDbLine
 62
7
  6
CONTINUOUS
 10
15.7615086347
 20
12.3539229886
 11
15.7617037797
 21
12.3564635254
  0
LINE
  5
29A
100
AcDbEntity
  8
0
100
AcDbLine
 62
7
  6
CONTINUOUS
 10
15.8409267198
 20
12.6109200062
 11
15.8411218648
 21
12.613460543
  0
LWPOLYLINE
  5
29B
100
AcDbEntity
  8
0
100
AcDbPolyline
 62
7
  6
CONTINUOUS
 90
5
 70
0
 10
15.6822856946
 20
12.0994665078
 10
15.6833316311
 20
12.1083617874
 10
15.6849712689
 20
12.1181829206
 10
15.6870517679
 20
12.1280254626
 10
15.6893693033
 20
12.1369731833
  0
LWPOLYLINE
  5
29C
100
AcDbEntity
  8
0
100
AcDbPolyline
 62
7
  6
CONTINUOUS
 90
5
 70
0
 10
15.7617037797
 20
12.3564635254
 10
15.7627497162
 20
12.3653588049
 10
15.7643893541
 20
12.3751799382
 10
15.766469853
 20
12.3850224802
 10
15.7687873884
 20
12.3939702009
  0
LWPOLYLINE
  5
29D
100
AcDbEntity
  8
0
100
AcDbPolyline
 62
7
  6
CONTINUOUS
 90
5
 70
0
 10
15.8411218648
 20
12.613460543
 10
15.8421678013
 20
12.6223558225
 10
15.8438074392
 20
12.6321769558
 10
15.8458879381
 20
12.6420194978
 10
15.8482054735
 20
12.6509672185
  0
LWPOLYLINE
  5
29E
100
AcDbEntity
  8
0
100
AcDbPolyline
 62
7
  6
CONTINUOUS
 90
3
 70
0
 10
15.5160135631
 20
11.4902240391
 10
15.5178360494
 20
11.4984366803
 10
15.5190213997
 20
11.5068627084
  0
LWPOLYLINE
  5
29F
100
AcDbEntity
  8
0
100
AcDbPolyline
 62
7
  6
CONTINUOUS
 90
3
 70
0
 10
15.5954316482
 20
11.7472210567
 10
15.5972541345
 20
11.7554336979
 10
15.5984394848
 20
11.763859726
  0
LWPOLYLINE
  5
2A0
100
AcDbEntity
  8
0
100
AcDbPolyline
 62
7
  6
CONTINUOUS
 90
3
 70
0
 10
15.6748497333
 20
12.0042180743
 10
15.6766722196
 20
12.0124307155
 10
15.6778575699
 20
12.0208567436
  0
LWPOLYLINE
  5
2A1
100
AcDbEntity
  8
0
100
AcDbPolyline
 62
7
  6
CONTINUOUS
 90
3
 70
0
 10
15.7542678184
 20
12.2612150919
 10
15.7560903047
 20
12.2694277331
 10
15.757275655
 20
12.2778537612
  0
LWPOLYLINE
  5
2A2
100
AcDbEntity
  8
0
100
AcDbPolyline
 62
7
  6
CONTINUOUS
 90
3
 70
0
 10
15.8336859035
 20
12.5182121095
 10
15.8355083898
 20
12.5264247507
 10
15.8366937401
 20
12.5348507788
  0
LWPOLYLINE
  5
2A3
100
AcDbEntity
  8
0
100
AcDbPolyline
 62
7
  6
CONTINUOUS
 90
3
 70
0
 10
15.9131039886
 20
12.7752091271
 10
15.9149264749
 20
12.7834217683
 10
15.9161118253
 20
12.7918477964
  0
LINE
  5
2A4
100
AcDbEntity
  8
0
100
AcDbLine
 62
7
  6
CONTINUOUS
 10
15.3564074147
 20
10.9735538729
 11
15.3571773928
 21
10.9762300039
  0
LINE
  5
2A5
100
AcDbEntity
  8
0
100
AcDbLine
 62
7
  6
CONTINUOUS
 10
15.4358254998
 20
11.2305508905
 11
15.4365954779
 21
11.2332270215
  0
LINE
  5
2A6
100
AcDbEntity
  8
0
100
AcDbLine
 62
7
  6
CONTINUOUS
 10
15.5152435849
 20
11.4875479081
 11
15.5160135631
 21
11.4902240391
  0
LINE
  5
2A7
100
AcDbEntity
  8
0
100
AcDbLine
 62
7
  6
CONTINUOUS
 10
15.59466167
 20
11.7445449257
 11
15.5954316482
 21
11.7472210567
  0
LINE
  5
2A8
100
AcDbEntity
  8
0
100
AcDbLine
 62
7
  6
CONTINUOUS
 10
15.6740797551
 20
12.0015419433
 11
15.6748497333
 21
12.0042180743
  0
LINE
  5
2A9
100
AcDbEntity
  8
0
100
AcDbLine
 62
7
  6
CONTINUOUS
 10
15.7534978402
 20
12.2585389609
 11
15.7542678184
 21
12.2612150919
  0
LINE
  5
2AA
100
AcDbEntity
  8
0
100
AcDbLine
 62
7
  6
CONTINUOUS
 10
15.8329159254
 20
12.5155359785
 11
15.8336859035
 21
12.5182121095
  0
LINE
  5
2AB
100
AcDbEntity
  8
0
100
AcDbLine
 62
7
  6
CONTINUOUS
 10
15.9123340105
 20
12.7725329961
 11
15.9131039886
 21
12.7752091271
  0
LINE
  5
2AC
100
AcDbEntity
  8
0
100
AcDbLine
 62
7
  6
CONTINUOUS
 10
15.9917520956
 20
13.0295300137
 11
15.9925220737
 21
13.0322061447
  0
LINE
  5
2AD
100
AcDbEntity
  8
0
100
AcDbLine
 62
7
  6
CONTINUOUS
 10
16.0711701807
 20
13.2865270313
 11
16.0719401588
 21
13.2892031623
  0
LINE
  5
2AE
100
AcDbEntity
  8
0
100
AcDbLine
 62
7
  6
CONTINUOUS
 10
16.1505882658
 20
13.5435240489
 11
16.1513582439
 21
13.5462001799
  0
LINE
  5
2AF
100
AcDbEntity
  8
0
100
AcDbLine
 62
7
  6
CONTINUOUS
 10
16.2300063509
 20
13.8005210665
 11
16.230776329
 21
13.8031971975
  0
LINE
  5
2B0
100
AcDbEntity
  8
0
100
AcDbLine
 62
7
  6
CONTINUOUS
 10
15.3716969629
 20
11.1089851129
 11
15.3724699199
 21
11.1115829276
  0
LINE
  5
2B1
100
AcDbEntity
  8
0
100
AcDbLine
 62
7
  6
CONTINUOUS
 10
15.451115048
 20
11.3659821305
 11
15.451888005
 21
11.3685799452
  0
LINE
  5
2B2
100
AcDbEntity
  8
0
100
AcDbLine
 62
7
  6
CONTINUOUS
 10
15.5305331331
 20
11.6229791481
 11
15.5313060901
 21
11.6255769628
  0
LINE
  5
2B3
100
AcDbEntity
  8
0
100
AcDbLine
 62
7
  6
CONTINUOUS
 10
15.6099512182
 20
11.8799761657
 11
15.6107241752
 21
11.8825739804
  0
LINE
  5
2B4
100
AcDbEntity
  8
0
100
AcDbLine
 62
7
  6
CONTINUOUS
 10
15.6893693033
 20
12.1369731833
 11
15.6901422604
 21
12.139570998
  0
LINE
  5
2B5
100
AcDbEntity
  8
0
100
AcDbLine
 62
7
  6
CONTINUOUS
 10
15.7687873884
 20
12.3939702009
 11
15.7695603455
 21
12.3965680156
  0
LINE
  5
2B6
100
AcDbEntity
  8
0
100
AcDbLine
 62
7
  6
CONTINUOUS
 10
15.8482054735
 20
12.6509672185
 11
15.8489784306
 21
12.6535650332
  0
LINE
  5
2B7
100
AcDbEntity
  8
0
100
AcDbLine
 62
7
  6
CONTINUOUS
 10
15.9276235586
 20
12.9079642361
 11
15.9283965157
 21
12.9105620508
  0
LINE
  5
2B8
100
AcDbEntity
  8
0
100
AcDbLine
 62
7
  6
CONTINUOUS
 10
16.0070416437
 20
13.1649612537
 11
16.0078146008
 21
13.1675590684
  0
LINE
  5
2B9
100
AcDbEntity
  8
0
100
AcDbLine
 62
7
  6
CONTINUOUS
 10
16.0864597289
 20
13.4219582713
 11
16.0872326859
 21
13.424556086
  0
LINE
  5
2BA
100
AcDbEntity
  8
0
100
AcDbLine
 62
7
  6
CONTINUOUS
 10
16.165877814
 20
13.6789552889
 11
16.166650771
 21
13.6815531036
  0
LINE
  5
2BB
100
AcDbEntity
  8
0
100
AcDbLine
 62
7
  6
CONTINUOUS
 10
16.2452958991
 20
13.9359523065
 11
16.2460688561
 21
13.9385501212
  0
LINE
  5
2BC
100
AcDbEntity
  8
0
100
AcDbLine
 62
7
  6
CONTINUOUS
 10
15.3041880854
 20
10.8906209587
 11
15.3153218245
 21
10.9266497515
  0
LINE
  5
2BD
100
AcDbEntity
  8
0
100
AcDbLine
 62
7
  6
CONTINUOUS
 10
15.372472431
 20
11.1115891819
 11
15.3947399096
 21
11.1836467691
  0
LINE
  5
2BE
100
AcDbEntity
  8
0
100
AcDbLine
 62
7
  6
CONTINUOUS
 10
15.4518905161
 20
11.3685861995
 11
15.4741579947
 21
11.4406437867
  0
LINE
  5
2BF
100
AcDbEntity
  8
0
100
AcDbLine
 62
7
  6
CONTINUOUS
 10
15.5313086012
 20
11.6255832171
 11
15.5535760798
 21
11.6976408043
  0
LINE
  5
2C0
100
AcDbEntity
  8
0
100
AcDbLine
 62
7
  6
CONTINUOUS
 10
15.6107266863
 20
11.8825802347
 11
15.6329941649
 21
11.9546378219
  0
LINE
  5
2C1
100
AcDbEntity
  8
0
100
AcDbLine
 62
7
  6
CONTINUOUS
 10
15.6901447714
 20
12.1395772523
 11
15.71241225
 21
12.2116348395
  0
LINE
  5
2C2
100
AcDbEntity
  8
0
100
AcDbLine
 62
7
  6
CONTINUOUS
 10
15.7695628565
 20
12.3965742699
 11
15.7918303351
 21
12.4686318571
  0
LINE
  5
2C3
100
AcDbEntity
  8
0
100
AcDbLine
 62
7
  6
CONTINUOUS
 10
15.8489809416
 20
12.6535712874
 11
15.8712484202
 21
12.7256288747
  0
LINE
  5
2C4
100
AcDbEntity
  8
0
100
AcDbLine
 62
7
  6
CONTINUOUS
 10
15.9283990267
 20
12.910568305
 11
15.9506665053
 21
12.9826258923
  0
LINE
  5
2C5
100
AcDbEntity
  8
0
100
AcDbLine
 62
7
  6
CONTINUOUS
 10
16.0078171118
 20
13.1675653226
 11
16.0300845904
 21
13.2396229099
  0
LINE
  5
2C6
100
AcDbEntity
  8
0
100
AcDbLine
 62
7
  6
CONTINUOUS
 10
16.0872351969
 20
13.4245623402
 11
16.1095026755
 21
13.4966199274
  0
LINE
  5
2C7
100
AcDbEntity
  8
0
100
AcDbLine
 62
7
  6
CONTINUOUS
 10
16.166653282
 20
13.6815593578
 11
16.1889207606
 21
13.753616945
  0
LINE
  5
2C8
100
AcDbEntity
  8
0
100
AcDbLine
 62
7
  6
CONTINUOUS
 10
16.2460713671
 20
13.9385563754
 11
16.2572051067
 21
13.9745851698
  0
LINE
  5
2C9
100
AcDbEntity
  8
0
100
AcDbLine
 62
7
  6
CONTINUOUS
 10
15.3341457298
 20
10.9015145618
 11
15.3564132101
 21
10.9735721544
  0
LINE
  5
2CA
100
AcDbEntity
  8
0
100
AcDbLine
 62
7
  6
CONTINUOUS
 10
15.4135638149
 20
11.1585115793
 11
15.4358312952
 21
11.230569172
  0
LINE
  5
2CB
100
AcDbEntity
  8
0
100
AcDbLine
 62
7
  6
CONTINUOUS
 10
15.4929819
 20
11.4155085969
 11
15.5152493804
 21
11.4875661896
  0
LINE
  5
2CC
100
AcDbEntity
  8
0
100
AcDbLine
 62
7
  6
CONTINUOUS
 10
15.5723999851
 20
11.6725056145
 11
15.5946674655
 21
11.7445632072
  0
LINE
  5
2CD
100
AcDbEntity
  8
0
100
AcDbLine
 62
7
  6
CONTINUOUS
 10
15.6518180703
 20
11.9295026321
 11
15.6740855506
 21
12.0015602248
  0
LINE
  5
2CE
100
AcDbEntity
  8
0
100
AcDbLine
 62
7
  6
CONTINUOUS
 10
15.7312361554
 20
12.1864996497
 11
15.7535036357
 21
12.2585572424
  0
LINE
  5
2CF
100
AcDbEntity
  8
0
100
AcDbLine
 62
7
  6
CONTINUOUS
 10
15.8106542405
 20
12.4434966673
 11
15.8329217208
 21
12.51555426
  0
LINE
  5
2D0
100
AcDbEntity
  8
0
100
AcDbLine
 62
7
  6
CONTINUOUS
 10
15.8900723256
 20
12.7004936849
 11
15.9123398059
 21
12.7725512776
  0
LINE
  5
2D1
100
AcDbEntity
  8
0
100
AcDbLine
 62
7
  6
CONTINUOUS
 10
15.9694904107
 20
12.9574907025
 11
15.991757891
 21
13.0295482952
  0
LINE
  5
2D2
100
AcDbEntity
  8
0
100
AcDbLine
 62
7
  6
CONTINUOUS
 10
16.0489084958
 20
13.2144877201
 11
16.0711759761
 21
13.2865453128
  0
LINE
  5
2D3
100
AcDbEntity
  8
0
100
AcDbLine
 62
7
  6
CONTINUOUS
 10
16.1283265809
 20
13.4714847377
 11
16.1505940612
 21
13.5435423304
  0
LINE
  5
2D4
100
AcDbEntity
  8
0
100
AcDbLine
 62
7
  6
CONTINUOUS
 10
16.207744666
 20
13.7284817553
 11
16.2300121463
 21
13.800539348
  0
LINE
  5
2D5
100
AcDbEntity
  8
0
100
AcDbLine
 62
7
  6
CONTINUOUS
 10
16.2073283378
 20
13.727186505
 11
16.2077465588
 21
13.728487842
  0
LINE
  5
2D6
100
AcDbEntity
  8
0
100
AcDbLine
 62
7
  6
CONTINUOUS
 10
16.1279102527
 20
13.4701894874
 11
16.1283284737
 21
13.4714908244
  0
LINE
  5
2D7
100
AcDbEntity
  8
0
100
AcDbLine
 62
7
  6
CONTINUOUS
 10
16.0484921676
 20
13.2131924698
 11
16.0489103886
 21
13.2144938069
  0
LINE
  5
2D8
100
AcDbEntity
  8
0
100
AcDbLine
 62
7
  6
CONTINUOUS
 10
15.9690740824
 20
12.9561954522
 11
15.9694923035
 21
12.9574967893
  0
LINE
  5
2D9
100
AcDbEntity
  8
0
100
AcDbLine
 62
7
  6
CONTINUOUS
 10
15.8896559973
 20
12.6991984347
 11
15.8900742184
 21
12.7004997717
  0
LINE
  5
2DA
100
AcDbEntity
  8
0
100
AcDbLine
 62
7
  6
CONTINUOUS
 10
15.8102379122
 20
12.4422014171
 11
15.8106561333
 21
12.4435027541
  0
LINE
  5
2DB
100
AcDbEntity
  8
0
100
AcDbLine
 62
7
  6
CONTINUOUS
 10
15.7308198271
 20
12.1852043995
 11
15.7312380482
 21
12.1865057365
  0
LINE
  5
2DC
100
AcDbEntity
  8
0
100
AcDbLine
 62
7
  6
CONTINUOUS
 10
15.651401742
 20
11.9282073819
 11
15.6518199631
 21
11.9295087189
  0
LINE
  5
2DD
100
AcDbEntity
  8
0
100
AcDbLine
 62
7
  6
CONTINUOUS
 10
15.5719836569
 20
11.6712103643
 11
15.572401878
 21
11.6725117013
  0
LINE
  5
2DE
100
AcDbEntity
  8
0
100
AcDbLine
 62
7
  6
CONTINUOUS
 10
15.4925655718
 20
11.4142133467
 11
15.4929837929
 21
11.4155146837
  0
LINE
  5
2DF
100
AcDbEntity
  8
0
100
AcDbLine
 62
7
  6
CONTINUOUS
 10
15.4131474867
 20
11.1572163291
 11
15.4135657078
 21
11.1585176661
  0
LINE
  5
2E0
100
AcDbEntity
  8
0
100
AcDbLine
 62
7
  6
CONTINUOUS
 10
15.3337294016
 20
10.9002193115
 11
15.3341476227
 21
10.9015206485
  0
LINE
  5
2E1
100
AcDbEntity
  8
0
100
AcDbLine
 62
7
  6
CONTINUOUS
 10
16.1889206301
 20
13.7536165744
 11
16.1897582069
 21
13.7562168305
  0
LINE
  5
2E2
100
AcDbEntity
  8
0
100
AcDbLine
 62
7
  6
CONTINUOUS
 10
16.109502545
 20
13.4966195568
 11
16.1103401218
 21
13.4992198129
  0
LINE
  5
2E3
100
AcDbEntity
  8
0
100
AcDbLine
 62
7
  6
CONTINUOUS
 10
16.0300844599
 20
13.2396225392
 11
16.0309220367
 21
13.2422227953
  0
LINE
  5
2E4
100
AcDbEntity
  8
0
100
AcDbLine
 62
7
  6
CONTINUOUS
 10
15.9506663748
 20
12.9826255216
 11
15.9515039516
 21
12.9852257777
  0
LINE
  5
2E5
100
AcDbEntity
  8
0
100
AcDbLine
 62
7
  6
CONTINUOUS
 10
15.8712482897
 20
12.725628504
 11
15.8720858665
 21
12.7282287601
  0
LINE
  5
2E6
100
AcDbEntity
  8
0
100
AcDbLine
 62
7
  6
CONTINUOUS
 10
15.7918302046
 20
12.4686314864
 11
15.7926677814
 21
12.4712317425
  0
LINE
  5
2E7
100
AcDbEntity
  8
0
100
AcDbLine
 62
7
  6
CONTINUOUS
 10
15.7124121195
 20
12.2116344688
 11
15.7132496963
 21
12.2142347249
  0
LINE
  5
2E8
100
AcDbEntity
  8
0
100
AcDbLine
 62
7
  6
CONTINUOUS
 10
15.6329940344
 20
11.9546374512
 11
15.6338316112
 21
11.9572377073
  0
LINE
  5
2E9
100
AcDbEntity
  8
0
100
AcDbLine
 62
7
  6
CONTINUOUS
 10
15.5535759493
 20
11.6976404336
 11
15.5544135261
 21
11.7002406897
  0
LINE
  5
2EA
100
AcDbEntity
  8
0
100
AcDbLine
 62
7
  6
CONTINUOUS
 10
15.4741578642
 20
11.4406434161
 11
15.4749954409
 21
11.4432436721
  0
LINE
  5
2EB
100
AcDbEntity
  8
0
100
AcDbLine
 62
7
  6
CONTINUOUS
 10
15.3947397791
 20
11.1836463985
 11
15.3955773558
 21
11.1862466545
  0
LINE
  5
2EC
100
AcDbEntity
  8
0
100
AcDbLine
 62
7
  6
CONTINUOUS
 10
15.315321694
 20
10.9266493809
 11
15.3161592707
 21
10.9292496369
  0
LWPOLYLINE
  5
2ED
100
AcDbEntity
  8
0
100
AcDbPolyline
 62
7
  6
CONTINUOUS
 90
4
 70
0
 10
16.1103401218
 20
13.4992198129
 10
16.1114854457
 20
13.5023919916
 10
16.1124422168
 20
13.5046550712
 10
16.1130665644
 20
13.5058711764
  0
LWPOLYLINE
  5
2EE
100
AcDbEntity
  8
0
100
AcDbPolyline
 62
7
  6
CONTINUOUS
 90
4
 70
0
 10
16.0309220367
 20
13.2422227953
 10
16.0320673606
 20
13.245394974
 10
16.0330241317
 20
13.2476580536
 10
16.0336484793
 20
13.2488741588
  0
LWPOLYLINE
  5
2EF
100
AcDbEntity
  8
0
100
AcDbPolyline
 62
7
  6
CONTINUOUS
 90
4
 70
0
 10
15.9515039516
 20
12.9852257777
 10
15.9526492754
 20
12.9883979564
 10
15.9536060466
 20
12.9906610361
 10
15.9542303942
 20
12.9918771412
  0
LWPOLYLINE
  5
2F0
100
AcDbEntity
  8
0
100
AcDbPolyline
 62
7
  6
CONTINUOUS
 90
4
 70
0
 10
15.8720858665
 20
12.7282287601
 10
15.8732311903
 20
12.7314009388
 10
15.8741879615
 20
12.7336640185
 10
15.8748123091
 20
12.7348801237
  0
LWPOLYLINE
  5
2F1
100
AcDbEntity
  8
0
100
AcDbPolyline
 62
7
  6
CONTINUOUS
 90
4
 70
0
 10
15.7926677814
 20
12.4712317425
 10
15.7938131052
 20
12.4744039212
 10
15.7947698764
 20
12.4766670009
 10
15.795394224
 20
12.4778831061
  0
LWPOLYLINE
  5
2F2
100
AcDbEntity
  8
0
100
AcDbPolyline
 62
7
  6
CONTINUOUS
 90
4
 70
0
 10
15.7132496963
 20
12.2142347249
 10
15.7143950201
 20
12.2174069037
 10
15.7153517913
 20
12.2196699833
 10
15.7159761389
 20
12.2208860885
  0
LWPOLYLINE
  5
2F3
100
AcDbEntity
  8
0
100
AcDbPolyline
 62
7
  6
CONTINUOUS
 90
4
 70
0
 10
15.6338316112
 20
11.9572377073
 10
15.634976935
 20
11.9604098861
 10
15.6359337062
 20
11.9626729657
 10
15.6365580538
 20
11.9638890709
  0
LWPOLYLINE
  5
2F4
100
AcDbEntity
  8
0
100
AcDbPolyline
 62
7
  6
CONTINUOUS
 90
4
 70
0
 10
15.5544135261
 20
11.7002406897
 10
15.5555588499
 20
11.7034128685
 10
15.5565156211
 20
11.7056759481
 10
15.5571399687
 20
11.7068920533
  0
LWPOLYLINE
  5
2F5
100
AcDbEntity
  8
0
100
AcDbPolyline
 62
7
  6
CONTINUOUS
 90
4
 70
0
 10
15.4749954409
 20
11.4432436721
 10
15.4761407648
 20
11.4464158509
 10
15.477097536
 20
11.4486789305
 10
15.4777218836
 20
11.4498950357
  0
LWPOLYLINE
  5
2F6
100
AcDbEntity
  8
0
100
AcDbPolyline
 62
7
  6
CONTINUOUS
 90
3
 70
0
 10
15.8862398317
 20
12.6920210685
 10
15.8880843239
 20
12.6951884179
 10
15.8896559973
 20
12.6991984347
  0
LWPOLYLINE
  5
2F7
100
AcDbEntity
  8
0
100
AcDbPolyline
 62
7
  6
CONTINUOUS
 90
3
 70
0
 10
15.8068217466
 20
12.4350240509
 10
15.8086662388
 20
12.4381914004
 10
15.8102379122
 20
12.4422014171
  0
LINE
  5
2F8
100
AcDbEntity
  8
0
100
AcDbLine
 62
7
  6
CONTINUOUS
 10
15.795394224
 20
12.4778831061
 11
15.7955077335
 21
12.4780660887
  0
LINE
  5
2F9
100
AcDbEntity
  8
0
100
AcDbLine
 62
7
  6
CONTINUOUS
 10
15.7159761389
 20
12.2208860885
 11
15.7160896484
 21
12.2210690711
  0
LWPOLYLINE
  5
2FA
100
AcDbEntity
  8
0
100
AcDbPolyline
 62
7
  6
CONTINUOUS
 90
3
 70
0
 10
15.9163711626
 20
12.7954395151
 10
15.9174481457
 20
12.8178949047
 10
15.9189399627
 20
12.8451327838
  0
LINE
  5
2FB
100
AcDbEntity
  8
0
100
AcDbLine
 62
7
  6
CONTINUOUS
 10
15.9189399627
 20
12.8451327838
 11
15.9203440667
 21
12.8679056554
  0
LINE
  5
2FC
100
AcDbEntity
  8
0
100
AcDbLine
 62
7
  6
CONTINUOUS
 10
15.9983580478
 20
13.1021298014
 11
15.9997621518
 21
13.124902673
  0
LINE
  5
2FD
100
AcDbEntity
  8
0
100
AcDbLine
 62
7
  6
CONTINUOUS
 10
15.9161118253
 20
12.7918477964
 11
15.9163726258
 21
12.7954754485
  0
LINE
  5
2FE
100
AcDbEntity
  8
0
100
AcDbLine
 62
7
  6
CONTINUOUS
 10
15.9955299104
 20
13.048844814
 11
15.9957907109
 21
13.0524724661
  0
LINE
  5
2FF
100
AcDbEntity
  8
0
100
AcDbLine
 62
7
  6
CONTINUOUS
 10
15.9203448049
 20
12.8679170238
 11
15.9205399499
 21
12.8704575606
  0
LINE
  5
300
100
AcDbEntity
  8
0
100
AcDbLine
 62
7
  6
CONTINUOUS
 10
15.99976289
 20
13.1249140414
 11
15.999958035
 21
13.1274545782
  0
LWPOLYLINE
  5
301
100
AcDbEntity
  8
0
100
AcDbPolyline
 62
7
  6
CONTINUOUS
 90
5
 70
0
 10
15.9205399499
 20
12.8704575606
 10
15.9215858864
 20
12.8793528401
 10
15.9232255243
 20
12.8891739734
 10
15.9253060232
 20
12.8990165154
 10
15.9276235586
 20
12.9079642361
  0
LWPOLYLINE
  5
302
100
AcDbEntity
  8
0
100
AcDbPolyline
 62
7
  6
CONTINUOUS
 90
5
 70
0
 10
15.999958035
 20
13.1274545782
 10
16.0010039715
 20
13.1363498577
 10
16.0026436094
 20
13.146170991
 10
16.0047241083
 20
13.156013533
 10
16.0070416437
 20
13.1649612537
  0
LWPOLYLINE
  5
303
100
AcDbEntity
  8
0
100
AcDbPolyline
 62
7
  6
CONTINUOUS
 90
3
 70
0
 10
15.9925220737
 20
13.0322061447
 10
15.99434456
 20
13.0404187859
 10
15.9955299104
 20
13.048844814
  0
LWPOLYLINE
  5
304
100
AcDbEntity
  8
0
100
AcDbPolyline
 62
7
  6
CONTINUOUS
 90
3
 70
0
 10
16.0719401588
 20
13.2892031623
 10
16.0737626452
 20
13.2974158035
 10
16.0749479955
 20
13.3058418316
  0
LWPOLYLINE
  5
305
100
AcDbEntity
  8
0
100
AcDbPolyline
 62
7
  6
CONTINUOUS
 90
3
 70
0
 10
16.1513582439
 20
13.5462001799
 10
16.1531807303
 20
13.5544128211
 10
16.1543660806
 20
13.5628388492
  0
LWPOLYLINE
  5
306
100
AcDbEntity
  8
0
100
AcDbPolyline
 62
7
  6
CONTINUOUS
 90
3
 70
0
 10
16.230776329
 20
13.8031971975
 10
16.2325988154
 20
13.8114098387
 10
16.2337841657
 20
13.8198358668
  0
LWPOLYLINE
  5
307
100
AcDbEntity
  8
0
100
AcDbPolyline
 62
7
  6
CONTINUOUS
 90
4
 70
0
 10
15.3955773558
 20
11.1862466545
 10
15.3967226797
 20
11.1894188333
 10
15.3976794509
 20
11.1916819129
 10
15.3983037985
 20
11.1928980181
  0
LWPOLYLINE
  5
308
100
AcDbEntity
  8
0
100
AcDbPolyline
 62
7
  6
CONTINUOUS
 90
4
 70
0
 10
15.3161592707
 20
10.9292496369
 10
15.3173045946
 20
10.9324218157
 10
15.3182613658
 20
10.9346848953
 10
15.3188857134
 20
10.9359010005
  0
LWPOLYLINE
  5
309
100
AcDbEntity
  8
0
100
AcDbPolyline
 62
7
  6
CONTINUOUS
 90
3
 70
0
 10
15.7274036614
 20
12.1780270333
 10
15.7292481536
 20
12.1811943828
 10
15.7308198271
 20
12.1852043995
  0
LWPOLYLINE
  5
30A
100
AcDbEntity
  8
0
100
AcDbPolyline
 62
7
  6
CONTINUOUS
 90
3
 70
0
 10
15.6479855763
 20
11.9210300157
 10
15.6498300685
 20
11.9241973652
 10
15.651401742
 20
11.9282073819
  0
LINE
  5
30B
100
AcDbEntity
  8
0
100
AcDbLine
 62
7
  6
CONTINUOUS
 10
15.6365580538
 20
11.9638890709
 11
15.6366715633
 21
11.9640720535
  0
LINE
  5
30C
100
AcDbEntity
  8
0
100
AcDbLine
 62
7
  6
CONTINUOUS
 10
15.5571399687
 20
11.7068920533
 11
15.5572534781
 21
11.7070750359
  0
LWPOLYLINE
  5
30D
100
AcDbEntity
  8
0
100
AcDbPolyline
 62
7
  6
CONTINUOUS
 90
4
 70
0
 10
15.9568387822
 20
12.9443470113
 10
15.9586026338
 20
12.9444982578
 10
15.9627295245
 20
12.9461705087
 10
15.9656579168
 20
12.9490180861
  0
LINE
  5
30E
100
AcDbEntity
  8
0
100
AcDbLine
 62
7
  6
CONTINUOUS
 10
15.9388374253
 20
12.9443469753
 11
15.9568424572
 21
12.9443469753
  0
LWPOLYLINE
  5
30F
100
AcDbEntity
  8
0
100
AcDbPolyline
 62
7
  6
CONTINUOUS
 90
3
 70
0
 10
15.9957892477
 20
13.0524365327
 10
15.9968662308
 20
13.0748919223
 10
15.9983580478
 20
13.1021298014
  0
LWPOLYLINE
  5
310
100
AcDbEntity
  8
0
100
AcDbPolyline
 62
7
  6
CONTINUOUS
 90
3
 70
0
 10
16.0752073328
 20
13.3094335503
 10
16.0762843159
 20
13.3318889399
 10
16.0777761329
 20
13.359126819
  0
LINE
  5
311
100
AcDbEntity
  8
0
100
AcDbLine
 62
7
  6
CONTINUOUS
 10
16.0777761329
 20
13.359126819
 11
16.0791802369
 21
13.3818996906
  0
LINE
  5
312
100
AcDbEntity
  8
0
100
AcDbLine
 62
7
  6
CONTINUOUS
 10
16.157194218
 20
13.6161238366
 11
16.158598322
 21
13.6388967082
  0
LINE
  5
313
100
AcDbEntity
  8
0
100
AcDbLine
 62
7
  6
CONTINUOUS
 10
16.0749479955
 20
13.3058418316
 11
16.075208796
 21
13.3094694837
  0
LINE
  5
314
100
AcDbEntity
  8
0
100
AcDbLine
 62
7
  6
CONTINUOUS
 10
16.1543660806
 20
13.5628388492
 11
16.1546268811
 21
13.5664665013
  0
LINE
  5
315
100
AcDbEntity
  8
0
100
AcDbLine
 62
7
  6
CONTINUOUS
 10
16.0791809751
 20
13.381911059
 11
16.0793761201
 21
13.3844515958
  0
LINE
  5
316
100
AcDbEntity
  8
0
100
AcDbLine
 62
7
  6
CONTINUOUS
 10
16.1585990602
 20
13.6389080766
 11
16.1587942052
 21
13.6414486134
  0
LWPOLYLINE
  5
317
100
AcDbEntity
  8
0
100
AcDbPolyline
 62
7
  6
CONTINUOUS
 90
5
 70
0
 10
16.0793761201
 20
13.3844515958
 10
16.0804220566
 20
13.3933468753
 10
16.0820616945
 20
13.4031680086
 10
16.0841421934
 20
13.4130105506
 10
16.0864597289
 20
13.4219582713
  0
LWPOLYLINE
  5
318
100
AcDbEntity
  8
0
100
AcDbPolyline
 62
7
  6
CONTINUOUS
 90
5
 70
0
 10
16.1587942052
 20
13.6414486134
 10
16.1598401417
 20
13.6503438929
 10
16.1614797796
 20
13.6601650262
 10
16.1635602785
 20
13.6700075681
 10
16.165877814
 20
13.6789552889
  0
LWPOLYLINE
  5
319
100
AcDbEntity
  8
0
100
AcDbPolyline
 62
7
  6
CONTINUOUS
 90
5
 70
0
 10
16.2382122903
 20
13.898445631
 10
16.2392582268
 20
13.9073409105
 10
16.2408978647
 20
13.9171620438
 10
16.2429783636
 20
13.9270045857
 10
16.2452958991
 20
13.9359523065
  0
LINE
  5
31A
100
AcDbEntity
  8
0
100
AcDbLine
 62
7
  6
CONTINUOUS
 10
16.2573511529
 20
13.9755613759
 11
16.2572051783
 21
13.9745851478
  0
LWPOLYLINE
  5
31B
100
AcDbEntity
  8
0
100
AcDbPolyline
 62
7
  6
CONTINUOUS
 90
3
 70
0
 10
15.5685674912
 20
11.6640329982
 10
15.5704119834
 20
11.6672003476
 10
15.5719836569
 20
11.6712103643
  0
LWPOLYLINE
  5
31C
100
AcDbEntity
  8
0
100
AcDbPolyline
 62
7
  6
CONTINUOUS
 90
3
 70
0
 10
15.4891494061
 20
11.4070359806
 10
15.4909938983
 20
11.41020333
 10
15.4925655718
 20
11.4142133467
  0
LINE
  5
31D
100
AcDbEntity
  8
0
100
AcDbLine
 62
7
  6
CONTINUOUS
 10
15.4777218836
 20
11.4498950357
 11
15.477835393
 21
11.4500780183
  0
LWPOLYLINE
  5
31E
100
AcDbEntity
  8
0
100
AcDbPolyline
 62
7
  6
CONTINUOUS
 90
3
 70
0
 10
16.1546254179
 20
13.5664305679
 10
16.1557024011
 20
13.5888859575
 10
16.157194218
 20
13.6161238366
  0
LWPOLYLINE
  5
31F
100
AcDbEntity
  8
0
100
AcDbPolyline
 62
7
  6
CONTINUOUS
 90
3
 70
0
 10
16.234043503
 20
13.8234275855
 10
16.2351204862
 20
13.8458829751
 10
16.2366123031
 20
13.8731208542
  0
LINE
  5
320
100
AcDbEntity
  8
0
100
AcDbLine
 62
7
  6
CONTINUOUS
 10
16.2366123031
 20
13.8731208542
 11
16.2380164071
 21
13.8958937258
  0
LINE
  5
321
100
AcDbEntity
  8
0
100
AcDbLine
 62
7
  6
CONTINUOUS
 10
16.2337841657
 20
13.8198358668
 11
16.2340449662
 21
13.8234635189
  0
LINE
  5
322
100
AcDbEntity
  8
0
100
AcDbLine
 62
7
  6
CONTINUOUS
 10
16.2380171453
 20
13.8959050942
 11
16.2382122903
 21
13.898445631
  0
LWPOLYLINE
  5
323
100
AcDbEntity
  8
0
100
AcDbPolyline
 62
7
  6
CONTINUOUS
 90
3
 70
0
 10
15.409731321
 20
11.150038963
 10
15.4115758132
 20
11.1532063124
 10
15.4131474867
 20
11.1572163291
  0
LWPOLYLINE
  5
324
100
AcDbEntity
  8
0
100
AcDbPolyline
 62
7
  6
CONTINUOUS
 90
3
 70
0
 10
15.3303132359
 20
10.8930419454
 10
15.3321577281
 20
10.8962092948
 10
15.3337294016
 20
10.9002193115
  0
LINE
  5
325
100
AcDbEntity
  8
0
100
AcDbLine
 62
7
  6
CONTINUOUS
 10
15.3983037985
 20
11.1928980181
 11
15.3984173079
 21
11.1930810007
  0
LINE
  5
326
100
AcDbEntity
  8
0
100
AcDbLine
 62
7
  6
CONTINUOUS
 10
15.3188857134
 20
10.9359010005
 11
15.3189992228
 21
10.9360839832
  0
LWPOLYLINE
  5
327
100
AcDbEntity
  8
0
100
AcDbPolyline
 62
7
  6
CONTINUOUS
 90
4
 70
0
 10
16.0362568673
 20
13.2013440289
 10
16.0380207189
 20
13.2014952754
 10
16.0421476096
 20
13.2031675263
 10
16.0450760019
 20
13.2060151037
  0
LINE
  5
328
100
AcDbEntity
  8
0
100
AcDbLine
 62
7
  6
CONTINUOUS
 10
16.0182555104
 20
13.2013439929
 11
16.0362605423
 21
13.2013439929
  0
LWPOLYLINE
  5
329
100
AcDbEntity
  8
0
100
AcDbPolyline
 62
7
  6
CONTINUOUS
 90
4
 70
0
 10
16.1156749524
 20
13.4583410465
 10
16.117438804
 20
13.458492293
 10
16.1215656948
 20
13.4601645439
 10
16.124494087
 20
13.4630121213
  0
LINE
  5
32A
100
AcDbEntity
  8
0
100
AcDbLine
 62
7
  6
CONTINUOUS
 10
16.0976735955
 20
13.4583410105
 11
16.1156786274
 21
13.4583410105
  0
LWPOLYLINE
  5
32B
100
AcDbEntity
  8
0
100
AcDbPolyline
 62
7
  6
CONTINUOUS
 90
4
 70
0
 10
16.1950930375
 20
13.7153380641
 10
16.1968568891
 20
13.7154893106
 10
16.2009837799
 20
13.7171615615
 10
16.2039121721
 20
13.7200091389
  0
LINE
  5
32C
100
AcDbEntity
  8
0
100
AcDbLine
 62
7
  6
CONTINUOUS
 10
16.1770916806
 20
13.7153380281
 11
16.1950967125
 21
13.7153380281
  0
LINE
  5
32D
100
AcDbEntity
  8
0
100
AcDbLine
 62
7
  6
CONTINUOUS
 10
16.2555052461
 20
14.1165288732
 11
16.2514206302
 21
14.1248524453
  0
ARC
  5
32E
100
AcDbEntity
  8
0
100
AcDbCircle
 62
7
  6
CONTINUOUS
 10
0.1526829443
 20
3.5615636221
 40
6.0236220472
100
AcDbArc
 50
18.3858422587
 51
20.2917741548
  0
ARC
  5
32F
100
AcDbEntity
  8
0
100
AcDbCircle
 62
7
  6
CONTINUOUS
 10
0.1526829443
 20
3.5615636221
 40
6.0236220472
100
AcDbArc
 50
17.0774188237
 51
18.3733748836
  0
ARC
  5
330
100
AcDbEntity
  8
0
100
AcDbCircle
 62
7
  6
CONTINUOUS
 10
5.9044814494
 20
5.6882797759
 40
0.1087598425
100
AcDbArc
 50
180.0
 51
200.2917741548
  0
ARC
  5
331
100
AcDbEntity
  8
0
100
AcDbCircle
 62
7
  6
CONTINUOUS
 10
5.8065975911
 20
5.7016701212
 40
0.0108759843
100
AcDbArc
 50
91.6579596401
 51
180.0
  0
ARC
  5
332
100
AcDbEntity
  8
0
100
AcDbCircle
 62
7
  6
CONTINUOUS
 10
5.8781631541
 20
5.4646061986
 40
0.0098425197
100
AcDbArc
 50
198.3858422587
 51
270.0
  0
ARC
  5
333
100
AcDbEntity
  8
0
100
AcDbCircle
 62
7
  6
CONTINUOUS
 10
5.9201250062
 20
5.3333725144
 40
0.0098425197
100
AcDbArc
 50
197.0768795461
 51
269.9998380879
  0
ARC
  5
334
100
AcDbEntity
  8
0
100
AcDbCircle
 62
7
  6
CONTINUOUS
 10
6.1303672762
 20
-5.484041527
 40
11.2012723975
100
AcDbArc
 50
88.3420403599
 51
91.6579596401
  0
ARC
  5
335
100
AcDbEntity
  8
0
100
AcDbCircle
 62
7
  6
CONTINUOUS
 10
6.3406095739
 20
5.3333726028
 40
0.0098425197
100
AcDbArc
 50
270.0
 51
342.9225811763
  0
ARC
  5
336
100
AcDbEntity
  8
0
100
AcDbCircle
 62
7
  6
CONTINUOUS
 10
6.3825713982
 20
5.4646061986
 40
0.0098425197
100
AcDbArc
 50
270.0
 51
341.6141577413
  0
ARC
  5
337
100
AcDbEntity
  8
0
100
AcDbCircle
 62
7
  6
CONTINUOUS
 10
6.3562531029
 20
5.6882797759
 40
0.1087598425
100
AcDbArc
 50
339.7082258452
 51
360.0
  0
ARC
  5
338
100
AcDbEntity
  8
0
100
AcDbCircle
 62
7
  6
CONTINUOUS
 10
6.4541369612
 20
5.7016701212
 40
0.0108759843
100
AcDbArc
 50
0.0
 51
88.3420403599
  0
ARC
  5
339
100
AcDbEntity
  8
0
100
AcDbCircle
 62
7
  6
CONTINUOUS
 10
12.108051608
 20
3.5615636221
 40
6.0236220472
100
AcDbArc
 50
159.7082258452
 51
161.6141577413
  0
ARC
  5
33A
100
AcDbEntity
  8
0
100
AcDbCircle
 62
7
  6
CONTINUOUS
 10
12.108051608
 20
3.5615636221
 40
6.0236220472
100
AcDbArc
 50
161.6350765081
 51
162.9225811763
  0
ARC
  5
33B
100
AcDbEntity
  8
0
100
AcDbCircle
 62
7
  6
CONTINUOUS
 10
13.7098987319
 20
5.29028161
 40
0.0262467192
100
AcDbArc
 50
193.0
 51
270.0
  0
ARC
  5
33C
100
AcDbEntity
  8
0
100
AcDbCircle
 62
7
  6
CONTINUOUS
 10
13.8018878975
 20
5.29028161
 40
0.0262467192
100
AcDbArc
 50
270.0
 51
347.0
  0
ARC
  5
33D
100
AcDbEntity
  8
0
100
AcDbCircle
 62
7
  6
CONTINUOUS
 10
14.0379827214
 20
5.29028161
 40
0.0262467192
100
AcDbArc
 50
193.0
 51
270.0
  0
ARC
  5
33E
100
AcDbEntity
  8
0
100
AcDbCircle
 62
7
  6
CONTINUOUS
 10
14.129971887
 20
5.29028161
 40
0.0262467192
100
AcDbArc
 50
270.0
 51
347.0
  0
ARC
  5
33F
100
AcDbEntity
  8
0
100
AcDbCircle
 62
7
  6
CONTINUOUS
 10
14.3660667109
 20
5.29028161
 40
0.0262467192
100
AcDbArc
 50
193.0
 51
270.0
  0
ARC
  5
340
100
AcDbEntity
  8
0
100
AcDbCircle
 62
7
  6
CONTINUOUS
 10
14.4580558765
 20
5.29028161
 40
0.0262467192
100
AcDbArc
 50
270.0
 51
347.0
  0
ARC
  5
341
100
AcDbEntity
  8
0
100
AcDbCircle
 62
7
  6
CONTINUOUS
 10
14.6941507004
 20
5.29028161
 40
0.0262467192
100
AcDbArc
 50
193.0
 51
270.0
  0
ARC
  5
342
100
AcDbEntity
  8
0
100
AcDbCircle
 62
7
  6
CONTINUOUS
 10
14.786139866
 20
5.29028161
 40
0.0262467192
100
AcDbArc
 50
270.0
 51
347.0
  0
ARC
  5
343
100
AcDbEntity
  8
0
100
AcDbCircle
 62
7
  6
CONTINUOUS
 10
15.0222346899
 20
5.29028161
 40
0.0262467192
100
AcDbArc
 50
193.0
 51
270.0
  0
ARC
  5
344
100
AcDbEntity
  8
0
100
AcDbCircle
 62
7
  6
CONTINUOUS
 10
15.1142238555
 20
5.29028161
 40
0.0262467192
100
AcDbArc
 50
270.0
 51
347.0
  0
ARC
  5
345
100
AcDbEntity
  8
0
100
AcDbCircle
 62
7
  6
CONTINUOUS
 10
15.3503186794
 20
5.29028161
 40
0.0262467192
100
AcDbArc
 50
193.0
 51
270.0
  0
ARC
  5
346
100
AcDbEntity
  8
0
100
AcDbCircle
 62
7
  6
CONTINUOUS
 10
15.442307845
 20
5.29028161
 40
0.0262467192
100
AcDbArc
 50
270.0
 51
347.0
  0
ARC
  5
347
100
AcDbEntity
  8
0
100
AcDbCircle
 62
7
  6
CONTINUOUS
 10
13.6378459027
 20
5.3690217675
 40
0.0262467192
100
AcDbArc
 50
13.0
 51
90.0
  0
ARC
  5
348
100
AcDbEntity
  8
0
100
AcDbCircle
 62
7
  6
CONTINUOUS
 10
13.9659298923
 20
5.3690217675
 40
0.0262467192
100
AcDbArc
 50
13.0
 51
90.0
  0
ARC
  5
349
100
AcDbEntity
  8
0
100
AcDbCircle
 62
7
  6
CONTINUOUS
 10
13.8739407266
 20
5.3690217675
 40
0.0262467192
100
AcDbArc
 50
90.0
 51
167.0
  0
ARC
  5
34A
100
AcDbEntity
  8
0
100
AcDbCircle
 62
7
  6
CONTINUOUS
 10
14.2940138818
 20
5.3690217675
 40
0.0262467192
100
AcDbArc
 50
13.0
 51
90.0
  0
ARC
  5
34B
100
AcDbEntity
  8
0
100
AcDbCircle
 62
7
  6
CONTINUOUS
 10
14.2020247161
 20
5.3690217675
 40
0.0262467192
100
AcDbArc
 50
90.0
 51
167.0
  0
ARC
  5
34C
100
AcDbEntity
  8
0
100
AcDbCircle
 62
7
  6
CONTINUOUS
 10
14.6220978713
 20
5.3690217675
 40
0.0262467192
100
AcDbArc
 50
13.0
 51
90.0
  0
ARC
  5
34D
100
AcDbEntity
  8
0
100
AcDbCircle
 62
7
  6
CONTINUOUS
 10
14.5301087056
 20
5.3690217675
 40
0.0262467192
100
AcDbArc
 50
90.0
 51
167.0
  0
ARC
  5
34E
100
AcDbEntity
  8
0
100
AcDbCircle
 62
7
  6
CONTINUOUS
 10
14.9501818608
 20
5.3690217675
 40
0.0262467192
100
AcDbArc
 50
13.0
 51
90.0
  0
ARC
  5
34F
100
AcDbEntity
  8
0
100
AcDbCircle
 62
7
  6
CONTINUOUS
 10
14.8581926951
 20
5.3690217675
 40
0.0262467192
100
AcDbArc
 50
90.0
 51
167.0
  0
ARC
  5
350
100
AcDbEntity
  8
0
100
AcDbCircle
 62
7
  6
CONTINUOUS
 10
15.2782658503
 20
5.3690217675
 40
0.0262467192
100
AcDbArc
 50
13.0
 51
90.0
  0
ARC
  5
351
100
AcDbEntity
  8
0
100
AcDbCircle
 62
7
  6
CONTINUOUS
 10
15.1862766846
 20
5.3690217675
 40
0.0262467192
100
AcDbArc
 50
90.0
 51
167.0
  0
ARC
  5
352
100
AcDbEntity
  8
0
100
AcDbCircle
 62
7
  6
CONTINUOUS
 10
15.5143606741
 20
5.3690217675
 40
0.0262467192
100
AcDbArc
 50
90.0
 51
167.0
  0
ARC
  5
353
100
AcDbEntity
  8
0
100
AcDbCircle
 62
7
  6
CONTINUOUS
 10
17.410811782
 20
5.29028161
 40
0.0262467192
100
AcDbArc
 50
270.0
 51
347.0
  0
ARC
  5
354
100
AcDbEntity
  8
0
100
AcDbCircle
 62
7
  6
CONTINUOUS
 10
17.3188226164
 20
5.29028161
 40
0.0262467192
100
AcDbArc
 50
193.0
 51
270.0
  0
ARC
  5
355
100
AcDbEntity
  8
0
100
AcDbCircle
 62
7
  6
CONTINUOUS
 10
17.0827277925
 20
5.29028161
 40
0.0262467192
100
AcDbArc
 50
270.0
 51
347.0
  0
ARC
  5
356
100
AcDbEntity
  8
0
100
AcDbCircle
 62
7
  6
CONTINUOUS
 10
16.9907386269
 20
5.29028161
 40
0.0262467192
100
AcDbArc
 50
193.0
 51
270.0
  0
ARC
  5
357
100
AcDbEntity
  8
0
100
AcDbCircle
 62
7
  6
CONTINUOUS
 10
16.754643803
 20
5.29028161
 40
0.0262467192
100
AcDbArc
 50
270.0
 51
347.0
  0
ARC
  5
358
100
AcDbEntity
  8
0
100
AcDbCircle
 62
7
  6
CONTINUOUS
 10
16.6626546374
 20
5.29028161
 40
0.0262467192
100
AcDbArc
 50
193.0
 51
270.0
  0
ARC
  5
359
100
AcDbEntity
  8
0
100
AcDbCircle
 62
7
  6
CONTINUOUS
 10
16.4265598135
 20
5.29028161
 40
0.0262467192
100
AcDbArc
 50
270.0
 51
347.0
  0
ARC
  5
35A
100
AcDbEntity
  8
0
100
AcDbCircle
 62
7
  6
CONTINUOUS
 10
16.3345706479
 20
5.29028161
 40
0.0262467192
100
AcDbArc
 50
193.0
 51
270.0
  0
ARC
  5
35B
100
AcDbEntity
  8
0
100
AcDbCircle
 62
7
  6
CONTINUOUS
 10
16.098475824
 20
5.29028161
 40
0.0262467192
100
AcDbArc
 50
270.0
 51
347.0
  0
ARC
  5
35C
100
AcDbEntity
  8
0
100
AcDbCircle
 62
7
  6
CONTINUOUS
 10
16.0064866584
 20
5.29028161
 40
0.0262467192
100
AcDbArc
 50
193.0
 51
270.0
  0
ARC
  5
35D
100
AcDbEntity
  8
0
100
AcDbCircle
 62
7
  6
CONTINUOUS
 10
15.6784026689
 20
5.29028161
 40
0.0262467192
100
AcDbArc
 50
193.0
 51
270.0
  0
ARC
  5
35E
100
AcDbEntity
  8
0
100
AcDbCircle
 62
7
  6
CONTINUOUS
 10
15.7703918345
 20
5.29028161
 40
0.0262467192
100
AcDbArc
 50
270.0
 51
347.0
  0
ARC
  5
35F
100
AcDbEntity
  8
0
100
AcDbCircle
 62
7
  6
CONTINUOUS
 10
17.4828646111
 20
5.3690217675
 40
0.0262467192
100
AcDbArc
 50
90.0
 51
167.0
  0
ARC
  5
360
100
AcDbEntity
  8
0
100
AcDbCircle
 62
7
  6
CONTINUOUS
 10
17.1547806216
 20
5.3690217675
 40
0.0262467192
100
AcDbArc
 50
90.0
 51
167.0
  0
ARC
  5
361
100
AcDbEntity
  8
0
100
AcDbCircle
 62
7
  6
CONTINUOUS
 10
17.2467697873
 20
5.3690217675
 40
0.0262467192
100
AcDbArc
 50
13.0
 51
90.0
  0
ARC
  5
362
100
AcDbEntity
  8
0
100
AcDbCircle
 62
7
  6
CONTINUOUS
 10
16.8266966321
 20
5.3690217675
 40
0.0262467192
100
AcDbArc
 50
90.0
 51
167.0
  0
ARC
  5
363
100
AcDbEntity
  8
0
100
AcDbCircle
 62
7
  6
CONTINUOUS
 10
16.9186857978
 20
5.3690217675
 40
0.0262467192
100
AcDbArc
 50
13.0
 51
90.0
  0
ARC
  5
364
100
AcDbEntity
  8
0
100
AcDbCircle
 62
7
  6
CONTINUOUS
 10
16.4986126426
 20
5.3690217675
 40
0.0262467192
100
AcDbArc
 50
90.0
 51
167.0
  0
ARC
  5
365
100
AcDbEntity
  8
0
100
AcDbCircle
 62
7
  6
CONTINUOUS
 10
16.5906018083
 20
5.3690217675
 40
0.0262467192
100
AcDbArc
 50
13.0
 51
90.0
  0
ARC
  5
366
100
AcDbEntity
  8
0
100
AcDbCircle
 62
7
  6
CONTINUOUS
 10
16.1705286531
 20
5.3690217675
 40
0.0262467192
100
AcDbArc
 50
90.0
 51
167.0
  0
ARC
  5
367
100
AcDbEntity
  8
0
100
AcDbCircle
 62
7
  6
CONTINUOUS
 10
16.2625178188
 20
5.3690217675
 40
0.0262467192
100
AcDbArc
 50
13.0
 51
90.0
  0
ARC
  5
368
100
AcDbEntity
  8
0
100
AcDbCircle
 62
7
  6
CONTINUOUS
 10
15.8424446636
 20
5.3690217675
 40
0.0262467192
100
AcDbArc
 50
90.0
 51
167.0
  0
ARC
  5
369
100
AcDbEntity
  8
0
100
AcDbCircle
 62
7
  6
CONTINUOUS
 10
15.9344338293
 20
5.3690217675
 40
0.0262467192
100
AcDbArc
 50
13.0
 51
90.0
  0
ARC
  5
36A
100
AcDbEntity
  8
0
100
AcDbCircle
 62
7
  6
CONTINUOUS
 10
15.6063498398
 20
5.3690217675
 40
0.0262467192
100
AcDbArc
 50
13.0
 51
90.0
  0
ARC
  5
36B
100
AcDbEntity
  8
0
100
AcDbCircle
 62
7
  6
CONTINUOUS
 10
15.9398753157
 20
-1.223453932
 40
15.3579653178
100
AcDbArc
 50
88.8863140049
 51
91.1136859951
  0
ARC
  5
36C
100
AcDbEntity
  8
0
100
AcDbCircle
 62
7
  6
CONTINUOUS
 10
14.9868582945
 20
-4.3074181431
 40
15.3579653178
100
AcDbArc
 50
88.8863140049
 51
91.1136859951
  0
ARC
  5
36D
100
AcDbEntity
  8
0
100
AcDbCircle
 62
7
  6
CONTINUOUS
 10
10.4547644921
 20
6.5956545364
 40
6.1263828232
100
AcDbArc
 50
44.5249730082
 51
46.0877583398
  0
ARC
  5
36E
100
AcDbEntity
  8
0
100
AcDbCircle
 62
7
  6
CONTINUOUS
 10
18.3886796512
 20
13.971936773
 40
2.1313315803
100
AcDbArc
 50
176.7415163235
 51
179.9025611273
  0
ARC
  5
36F
100
AcDbEntity
  8
0
100
AcDbCircle
 62
7
  6
CONTINUOUS
 10
17.4356626299
 20
10.8879725619
 40
2.1313315803
100
AcDbArc
 50
176.7415163235
 51
179.9025611273
  0
SPLINE
  5
370
100
AcDbEntity
  8
0
100
AcDbSpline
 62
7
  6
CONTINUOUS
 70
0
 71
3
 72
9
 73
5
 74
0
 42
0.0000001
 43
0.0000001
 44
0.0000000001
 40
0.0
 40
0.0
 40
0.0
 40
0.0
 40
0.522142326
 40
1.0
 40
1.0
 40
1.0
 40
1.0
 10
16.2555052461
 20
14.1165288732
 30
0.0
 10
16.2573634786
 20
14.1127421935
 30
0.0
 10
16.2602175377
 20
14.1051002211
 30
0.0
 10
16.2610140863
 20
14.096936994
 30
0.0
 10
16.2607938688
 20
14.0930829748
 30
0.0
  0
SPLINE
  5
371
100
AcDbEntity
  8
0
100
AcDbSpline
 62
7
  6
CONTINUOUS
 70
0
 71
3
 72
9
 73
5
 74
0
 42
0.0000001
 43
0.0000001
 44
0.0000000001
 40
0.0
 40
0.0
 40
0.0
 40
0.0
 40
0.5391468816
 40
1.0
 40
1.0
 40
1.0
 40
1.0
 10
16.2383767766
 20
14.1316102353
 30
0.0
 10
16.2410964204
 20
14.1315576128
 30
0.0
 10
16.2460802871
 20
14.1302457179
 30
0.0
 10
16.2503963076
 20
14.1269397953
 30
0.0
 10
16.2514206302
 20
14.1248524453
 30
0.0
  0
SPLINE
  5
372
100
AcDbEntity
  8
0
100
AcDbSpline
 62
7
  6
CONTINUOUS
 70
0
 71
3
 72
9
 73
5
 74
0
 42
0.0000001
 43
0.0000001
 44
0.0000000001
 40
0.0
 40
0.0
 40
0.0
 40
0.0
 40
0.5734369091
 40
1.0
 40
1.0
 40
1.0
 40
1.0
 10
15.2977867175
 20
10.8874087284
 30
0.0
 10
15.2992227071
 20
10.8874087284
 30
0.0
 10
15.3017890716
 20
10.8877015845
 30
0.0
 10
15.3038723762
 20
10.8896004883
 30
0.0
 10
15.3041876025
 20
10.890621108
 30
0.0
  0
SPLINE
  5
373
100
AcDbEntity
  8
0
100
AcDbSpline
 62
7
  6
CONTINUOUS
 70
0
 71
3
 72
9
 73
5
 74
0
 42
0.0000001
 43
0.0000001
 44
0.0000000001
 40
0.0
 40
0.0
 40
0.0
 40
0.0
 40
0.4863473635
 40
1.0
 40
1.0
 40
1.0
 40
1.0
 10
14.8225377726
 20
10.8915971648
 30
0.0
 10
14.8238619608
 20
10.8902503906
 30
0.0
 10
14.8273176087
 20
10.888222743
 30
0.0
 10
14.831201196
 20
10.8874087284
 30
0.0
 10
14.8331959588
 20
10.8874087284
 30
0.0
  0
SPLINE
  5
374
100
AcDbEntity
  8
0
100
AcDbSpline
 62
7
  6
CONTINUOUS
 70
0
 71
3
 72
9
 73
5
 74
0
 42
0.0000001
 43
0.0000001
 44
0.0000000001
 40
0.0
 40
0.0
 40
0.0
 40
0.0
 40
0.232065058
 40
1.0
 40
1.0
 40
1.0
 40
1.0
 10
14.6860300792
 20
11.0325646621
 30
0.0
 10
14.6870345996
 20
11.0305176648
 30
0.0
 10
14.6918426753
 20
11.0219321459
 30
0.0
 10
14.6983171233
 20
11.0143522507
 30
0.0
 10
14.7037526081
 20
11.0091187637
 30
0.0
  0
SPLINE
  5
375
100
AcDbEntity
  8
0
100
AcDbSpline
 62
7
  6
CONTINUOUS
 70
0
 71
3
 72
9
 73
5
 74
0
 42
0.0000001
 43
0.0000001
 44
0.0000000001
 40
0.0
 40
0.0
 40
0.0
 40
0.0
 40
0.4282847724
 40
1.0
 40
1.0
 40
1.0
 40
1.0
 10
15.6345888666
 20
14.1280635164
 30
0.0
 10
15.6349276224
 20
14.12915751
 30
0.0
 10
15.6371103616
 20
14.131209999
 30
0.0
 10
15.6398453753
 20
14.1315800882
 30
0.0
 10
15.6413738549
 20
14.1316102353
 30
0.0
  0
SPLINE
  5
376
100
AcDbEntity
  8
0
100
AcDbSpline
 62
7
  6
CONTINUOUS
 70
0
 71
3
 72
9
 73
5
 74
0
 42
0.0000001
 43
0.0000001
 44
0.0000000001
 40
0.0
 40
0.0
 40
0.0
 40
0.0
 40
0.2358409635
 40
1.0
 40
1.0
 40
1.0
 40
1.0
 10
14.6815718453
 20
11.0440993052
 30
0.0
 10
14.6814955729
 20
11.0438529877
 30
0.0
 10
14.6812852736
 20
11.0427713368
 30
0.0
 10
14.6815773936
 20
11.0416382814
 30
0.0
 10
14.6819454633
 20
11.0408882342
 30
0.0
  0
SPLINE
  5
377
100
AcDbEntity
  8
0
100
AcDbSpline
 62
7
  6
CONTINUOUS
 70
0
 71
3
 72
9
 73
5
 74
0
 42
0.0000001
 43
0.0000001
 44
0.0000000001
 40
0.0
 40
0.0
 40
0.0
 40
0.0
 40
0.5717152276
 40
1.0
 40
1.0
 40
1.0
 40
1.0
 10
14.6883568336
 20
11.0476460241
 30
0.0
 10
14.686828354
 20
11.0476158771
 30
0.0
 10
14.6840933403
 20
11.0472457879
 30
0.0
 10
14.6819106011
 20
11.0451932989
 30
0.0
 10
14.6815718453
 20
11.0440993052
 30
0.0
  0
SPLINE
  5
378
100
AcDbEntity
  8
0
100
AcDbSpline
 62
7
  6
CONTINUOUS
 70
0
 71
3
 72
9
 73
5
 74
0
 42
0.0000001
 43
0.0000001
 44
0.0000000001
 40
0.0
 40
0.0
 40
0.0
 40
0.0
 40
0.4608531184
 40
1.0
 40
1.0
 40
1.0
 40
1.0
 10
15.2984036089
 20
11.0408882342
 30
0.0
 10
15.2973792863
 20
11.0429755842
 30
0.0
 10
15.2930632658
 20
11.0462815067
 30
0.0
 10
15.2880793991
 20
11.0475934017
 30
0.0
 10
15.2853597553
 20
11.0476460241
 30
0.0
  0
SPLINE
  5
379
100
AcDbEntity
  8
0
100
AcDbSpline
 62
7
  6
CONTINUOUS
 70
0
 71
3
 72
9
 73
5
 74
0
 42
0.0000001
 43
0.0000001
 44
0.0000000001
 40
0.0
 40
0.0
 40
0.0
 40
0.0
 40
0.477857674
 40
1.0
 40
1.0
 40
1.0
 40
1.0
 10
15.3077768475
 20
11.0091187637
 30
0.0
 10
15.3079970651
 20
11.0129727829
 30
0.0
 10
15.3072005164
 20
11.0211360099
 30
0.0
 10
15.3043464573
 20
11.0287779824
 30
0.0
 10
15.3024882248
 20
11.0325646621
 30
0.0
  0
ENDSEC
  0
SECTION
  2
OBJECTS
  0
DICTIONARY
  5
C
100
AcDbDictionary
280
0
281
1
  3
ACAD_GROUP
350
D
  3
ACAD_MLINESTYLE
350
17
  3
ACAD_LAYOUT
350
1A
  3
ACAD_PLOTSETTINGS
350
19
  3
ACAD_PLOTSTYLENAME
350
E
  0
DICTIONARY
  5
D
102
{ACAD_REACTORS
330
C
102
}
100
AcDbDictionary
280
0
281
1
  0
ACDBDICTIONARYWDFLT
  5
E
102
{ACAD_REACTORS
330
C
102
}
100
AcDbDictionary
281
1
  3
Normal
350
F
100
AcDbDictionaryWithDefault
340
F
  0
DICTIONARY
  5
17
102
{ACAD_REACTORS
330
C
102
}
100
AcDbDictionary
280
0
281
1
  3
Standard
350
18
  0
DICTIONARY
  5
19
102
{ACAD_REACTORS
330
C
102
}
100
AcDbDictionary
281
1
  0
DICTIONARY
  5
1A
102
{ACAD_REACTORS
330
C
102
}
100
AcDbDictionary
281
1
  3
Model
350
37A
  3
Layout1
350
37B
  0
ACDBPLACEHOLDER
  5
F
102
{ACAD_REACTORS
330
E
102
}
  0
MLINESTYLE
  5
18
102
{ACAD_REACTORS
330
17
102
}
100
AcDbMlineStyle
  2
STANDARD
 70
0
  3

 62
256
 51
90.0
 52
90.0
 71
2
 49
0.5
 62
256
  6
BYLAYER
 49
-0.5
 62
256
  6
BYLAYER
  0
LAYOUT
  5
37A
102
{ACAD_REACTORS
330
1A
102
}
100
AcDbPlotSettings
  1

  2
none_device
  4
ANSI_C_(22.00_x_17.00_Inches)
  6

 40
0.0
 41
0.0
 42
0.0
 43
0.0
 44
558.8
 45
431.8
 46
0.0
 47
0.0
 48
0.0
 49
0.0
140
0.0
141
0.0
142
1.0
143
1.0
 70
1024
 72
0
 73
0
 74
0
  7

 75
0
147
1.0
148
0.0
149
0.0
100
AcDbLayout
  1
Model
 70
0
 71
0
 10
0.0
 20
0.0
 11
22.0
 21
17.0
 12
0.0
 22
0.0
 32
0.0
 14
0.0
 24
0.0
 34
0.0
 15
0.0
 25
0.0
 35
0.0
146
0.0
 13
0.0
 23
0.0
 33
0.0
 16
1.0
 26
0.0
 36
0.0
 17
0.0
 27
1.0
 37
0.0
 76
0
330
216
345
0
346
0
  0
LAYOUT
  5
37B
102
{ACAD_REACTORS
330
1A
102
}
100
AcDbPlotSettings
  1

  2
none_device
  4
ANSI_C_(22.00_x_17.00_Inches)
  6

 40
0.0
 41
0.0
 42
0.0
 43
0.0
 44
558.8
 45
431.8
 46
0.0
 47
0.0
 48
0.0
 49
0.0
140
0.0
141
0.0
142
1.0
143
1.0
 70
0
 72
0
 73
0
 74
0
  7

 75
0
147
1.0
148
0.0
149
0.0
100
AcDbLayout
  1
Layout1
 70
0
 71
1
 10
0.0
 20
0.0
 11
22.0
 21
17.0
 12
0.0
 22
0.0
 32
0.0
 14
0.0
 24
0.0
 34
0.0
 15
0.0
 25
0.0
 35
0.0
146
0.0
 13
0.0
 23
0.0
 33
0.0
 16
1.0
 26
0.0
 36
0.0
 17
0.0
 27
1.0
 37
0.0
 76
0
330
217
345
0
346
0
  0
ENDSEC
  0
EOF