999
DXF file: _cgs_temp_output.dxf
999
Pro/ENGINEER 2016360 by Parametric Technology Corporation
  0
SECTION
  2
HEADER
  9
$ACADVER
  1
AC1021
  9
$DWGCODEPAGE
  3
ANSI_1252
  9
$EXTMAX
 10
22.0
 20
17.0
 30
0.0
  9
$EXTMIN
 10
0.0
 20
0.0
 30
0.0
  9
$LIMMIN
 10
0.0
 20
0.0
  9
$LIMMAX
 10
22.0
 20
17.0
  9
$VIEWCTR
 10
11.0
 20
8.5
  9
$VIEWSIZE
 40
17.0
  9
$CLAYER
  8
0
  9
$LTSCALE
 40
1.21
  9
$CELTYPE
  6
BYLAYER
  9
$DIMSCALE
 40
1.0
  9
$DIMASZ
 40
0.1875
  9
$DIMEXO
 40
0.0625
  9
$DIMDLI
 40
0.836
  9
$DIMEXE
 40
0.125
  9
$DIMCEN
 40
0.198
  9
$DIMLFAC
 40
1.0
  9
$DIMBLK
  1
_CLOSED
  9
$DIMALT
 70
0
  9
$DIMALTF
 40
25.4
  9
$DIMTXT
 40
0.15625
  9
$DIMTOL
 70
0
  9
$DIMLIM
 70
0
  9
$DIMTFAC
 40
1.0
  9
$DIMGAP
 40
0.09
  9
$DIMDSEP
 70
46
  9
$AUNITS
 70
0
  9
$PDMODE
 70
3
  9
$PDSIZE
 40
0.3125
  9
$HANDSEED
  5
2F7
  9
$TILEMODE
 70
1
  9
$MEASUREMENT
 70
0
  9
$INSUNITS
 70
1
  0
ENDSEC
  0
SECTION
  2
CLASSES
  0
CLASS
  1
ACDBDICTIONARYWDFLT
  2
AcDbDictionaryWithDefault
  3
AutoCAD 2000
 90
0
 91
1
280
0
281
0
  0
CLASS
  1
ACDBPLACEHOLDER
  2
AcDbPlaceHolder
  3
AutoCAD 2000
 90
0
 91
1
280
0
281
0
  0
CLASS
  1
LAYOUT
  2
AcDbLayout
  3
AutoCAD 2000
 90
0
 91
0
280
0
281
0
  0
ENDSEC
  0
SECTION
  2
TABLES
  0
TABLE
  2
VPORT
  5
8
100
AcDbSymbolTable
 70
2
  0
VPORT
  5
1F4
100
AcDbSymbolTableRecord
100
AcDbViewportTableRecord
  2
*ACTIVE
 70
0
 10
0.0
 20
0.0
 11
1.0
 21
1.0
 12
11.0
 22
8.5
 13
0.0
 23
0.0
 14
1.0
 24
1.0
 15
0.0
 25
0.0
 16
0.0
 26
0.0
 36
1.0
 17
0.0
 27
0.0
 37
0.0
 40
17.0
 41
1.2941176471
 42
50.0
 43
0.0
 44
0.0
 50
0.0
 51
0.0
 71
0
 72
100
 73
1
 74
1
 75
0
 76
0
 77
0
 78
0
  0
ENDTAB
  0
TABLE
  2
LTYPE
  5
5
100
AcDbSymbolTable
 70
6
  0
LTYPE
  5
14
100
AcDbSymbolTableRecord
100
AcDbLinetypeTableRecord
  2
BYBLOCK
 70
0
  3

 72
65
 73
0
 40
0.0
  0
LTYPE
  5
15
100
AcDbSymbolTableRecord
100
AcDbLinetypeTableRecord
  2
BYLAYER
 70
0
  3

 72
65
 73
0
 40
0.0
  0
LTYPE
  5
16
100
AcDbSymbolTableRecord
100
AcDbLinetypeTableRecord
  2
CONTINUOUS
 70
64
  3
Solid line
 72
65
 73
0
 40
0.0
  0
LTYPE
  5
1F5
100
AcDbSymbolTableRecord
100
AcDbLinetypeTableRecord
  2
CENTER
 70
64
  3
____ _ ____ _ ____ _ ____ _ ____ _ ____ _ ____
 72
65
 73
4
 40
0.6
 49
0.375
 74
0
 49
-0.075
 74
0
 49
0.075
 74
0
 49
-0.075
 74
0
  0
LTYPE
  5
1F6
100
AcDbSymbolTableRecord
100
AcDbLinetypeTableRecord
  2
HIDDEN
 70
64
  3
- - - - - - - - - - - - - - - - - - - -
 72
65
 73
2
 40
0.2
 49
0.1
 74
0
 49
-0.1
 74
0
  0
LTYPE
  5
1F7
100
AcDbSymbolTableRecord
100
AcDbLinetypeTableRecord
  2
PHANTOM
 70
64
  3
_____ _ _ _____ _ _ _____ _ _ _____
 72
65
 73
6
 40
0.8
 49
0.45
 74
0
 49
-0.05
 74
0
 49
0.1
 74
0
 49
-0.05
 74
0
 49
0.1
 74
0
 49
-0.05
 74
0
  0
LTYPE
  5
1F8
100
AcDbSymbolTableRecord
100
AcDbLinetypeTableRecord
  2
DOT
 70
64
  3
. . . . . . . . . . . . . . . . . . . .
 72
65
 73
2
 40
0.2
 49
0.1
 74
0
 49
-0.1
 74
0
  0
LTYPE
  5
1F9
100
AcDbSymbolTableRecord
100
AcDbLinetypeTableRecord
  2
DASHED
 70
64
  3
- - - - - - - - - - - - - - - - - - - -
 72
65
 73
2
 40
0.2
 49
0.1
 74
0
 49
-0.1
 74
0
  0
ENDTAB
  0
TABLE
  2
LAYER
  5
2
100
AcDbSymbolTable
 70
36
  0
LAYER
  5
10
100
AcDbSymbolTableRecord
100
AcDbLayerTableRecord
  2
0
 70
0
 62
7
  6
CONTINUOUS
370
-3
390
F
  0
LAYER
  5
1FA
100
AcDbSymbolTableRecord
100
AcDbLayerTableRecord
  2
DEFAULT_1
 70
0
 62
7
  6
CENTER
370
-3
390
F
  0
LAYER
  5
1FB
100
AcDbSymbolTableRecord
100
AcDbLayerTableRecord
  2
DEFAULT_2
 70
0
 62
8
  6
HIDDEN
370
-3
390
F
  0
LAYER
  5
1FC
100
AcDbSymbolTableRecord
100
AcDbLayerTableRecord
  2
DEFAULT_3
 70
0
 62
7
  6
PHANTOM
370
-3
390
F
  0
LAYER
  5
1FD
100
AcDbSymbolTableRecord
100
AcDbLayerTableRecord
  2
01_ALL_DTM_PLN
 70
0
 62
7
  6
CONTINUOUS
370
-3
390
F
  0
LAYER
  5
1FE
100
AcDbSymbolTableRecord
100
AcDbLayerTableRecord
  2
01__ASM_ALL_DTM_PLN
 70
0
 62
7
  6
CONTINUOUS
370
-3
390
F
  0
LAYER
  5
1FF
100
AcDbSymbolTableRecord
100
AcDbLayerTableRecord
  2
01__ASM_DEF_DTM_PLN
 70
0
 62
7
  6
CONTINUOUS
370
-3
390
F
  0
LAYER
  5
200
100
AcDbSymbolTableRecord
100
AcDbLayerTableRecord
  2
01___PRT_ALL_DTM_PLN
 70
0
 62
7
  6
CONTINUOUS
370
-3
390
F
  0
LAYER
  5
201
100
AcDbSymbolTableRecord
100
AcDbLayerTableRecord
  2
01___PRT_DEF_DTM_PLN
 70
0
 62
7
  6
CONTINUOUS
370
-3
390
F
  0
LAYER
  5
202
100
AcDbSymbolTableRecord
100
AcDbLayerTableRecord
  2
02_ALL_AXES
 70
0
 62
7
  6
CONTINUOUS
370
-3
390
F
  0
LAYER
  5
203
100
AcDbSymbolTableRecord
100
AcDbLayerTableRecord
  2
02__ASM_ALL_AXES
 70
0
 62
7
  6
CONTINUOUS
370
-3
390
F
  0
LAYER
  5
204
100
AcDbSymbolTableRecord
100
AcDbLayerTableRecord
  2
02___PRT_ALL_AXES
 70
0
 62
7
  6
CONTINUOUS
370
-3
390
F
  0
LAYER
  5
205
100
AcDbSymbolTableRecord
100
AcDbLayerTableRecord
  2
03_ALL_CURVES
 70
0
 62
7
  6
CONTINUOUS
370
-3
390
F
  0
LAYER
  5
206
100
AcDbSymbolTableRecord
100
AcDbLayerTableRecord
  2
03__ASM_ALL_CURVES
 70
0
 62
7
  6
CONTINUOUS
370
-3
390
F
  0
LAYER
  5
207
100
AcDbSymbolTableRecord
100
AcDbLayerTableRecord
  2
03___PRT_ALL_CURVES
 70
0
 62
7
  6
CONTINUOUS
370
-3
390
F
  0
LAYER
  5
208
100
AcDbSymbolTableRecord
100
AcDbLayerTableRecord
  2
04_ALL_DTM_PNT
 70
0
 62
7
  6
CONTINUOUS
370
-3
390
F
  0
LAYER
  5
209
100
AcDbSymbolTableRecord
100
AcDbLayerTableRecord
  2
04__ASM_ALL_DTM_PNT
 70
0
 62
7
  6
CONTINUOUS
370
-3
390
F
  0
LAYER
  5
20A
100
AcDbSymbolTableRecord
100
AcDbLayerTableRecord
  2
04___PRT_ALL_DTM_PNT
 70
0
 62
7
  6
CONTINUOUS
370
-3
390
F
  0
LAYER
  5
20B
100
AcDbSymbolTableRecord
100
AcDbLayerTableRecord
  2
05_ALL_DTM_CSYS
 70
0
 62
7
  6
CONTINUOUS
370
-3
390
F
  0
LAYER
  5
20C
100
AcDbSymbolTableRecord
100
AcDbLayerTableRecord
  2
05__ASM_ALL_DTM_CSYS
 70
0
 62
7
  6
CONTINUOUS
370
-3
390
F
  0
LAYER
  5
20D
100
AcDbSymbolTableRecord
100
AcDbLayerTableRecord
  2
05__ASM_DEF_DTM_CSYS
 70
0
 62
7
  6
CONTINUOUS
370
-3
390
F
  0
LAYER
  5
20E
100
AcDbSymbolTableRecord
100
AcDbLayerTableRecord
  2
05___PRT_ALL_DTM_CSYS
 70
0
 62
7
  6
CONTINUOUS
370
-3
390
F
  0
LAYER
  5
20F
100
AcDbSymbolTableRecord
100
AcDbLayerTableRecord
  2
05___PRT_DEF_DTM_CSYS
 70
0
 62
7
  6
CONTINUOUS
370
-3
390
F
  0
LAYER
  5
210
100
AcDbSymbolTableRecord
100
AcDbLayerTableRecord
  2
06_ALL_SURFS
 70
0
 62
7
  6
CONTINUOUS
370
-3
390
F
  0
LAYER
  5
211
100
AcDbSymbolTableRecord
100
AcDbLayerTableRecord
  2
06__ASM_ALL_SURFS
 70
0
 62
7
  6
CONTINUOUS
370
-3
390
F
  0
LAYER
  5
212
100
AcDbSymbolTableRecord
100
AcDbLayerTableRecord
  2
06___PRT_ALL_SURFS
 70
0
 62
7
  6
CONTINUOUS
370
-3
390
F
  0
LAYER
  5
213
100
AcDbSymbolTableRecord
100
AcDbLayerTableRecord
  2
07__ASM_ALL_SKELETONS
 70
0
 62
7
  6
CONTINUOUS
370
-3
390
F
  0
ENDTAB
  0
TABLE
  2
STYLE
  5
3
100
AcDbSymbolTable
 70
1
  0
STYLE
  5
11
100
AcDbSymbolTableRecord
100
AcDbTextStyleTableRecord
  2
STANDARD
 70
0
 40
0.0
 41
0.8
 50
0.0
 71
0
 42
0.2
  3
txt
  4

  0
STYLE
  5
214
100
AcDbSymbolTableRecord
100
AcDbTextStyleTableRecord
  2
TEXTSTYLE_1
 70
0
 40
0.0
 41
0.8
 50
0.0
 71
0
 42
0.2
  3
gdt
  4

  0
ENDTAB
  0
TABLE
  2
VIEW
  5
6
100
AcDbSymbolTable
 70
0
  0
ENDTAB
  0
TABLE
  2
UCS
  5
7
100
AcDbSymbolTable
 70
0
  0
ENDTAB
  0
TABLE
  2
APPID
  5
9
100
AcDbSymbolTable
 70
1
  0
APPID
  5
215
100
AcDbSymbolTableRecord
100
AcDbRegAppTableRecord
  2
ACAD
 70
0
  0
ENDTAB
  0
TABLE
  2
BLOCK_RECORD
  5
1
100
AcDbSymbolTable
 70
0
  0
BLOCK_RECORD
  5
216
100
AcDbSymbolTableRecord
100
AcDbBlockTableRecord
  2
*Model_Space
  0
BLOCK_RECORD
  5
217
100
AcDbSymbolTableRecord
100
AcDbBlockTableRecord
  2
*Paper_Space
  0
ENDTAB
  0
TABLE
  2
DIMSTYLE
  5
A
100
AcDbSymbolTable
 70
1
100
AcDbDimStyleTable
 71
0
  0
DIMSTYLE
105
218
100
AcDbSymbolTableRecord
100
AcDbDimStyleTableRecord
  2
STANDARD
 70
0
  3

  4

 40
1.0
 41
0.1875
 42
0.0625
 43
0.38
 44
0.125
 45
0.0
 46
0.0
 47
0.0001
 48
0.0001
140
0.15625
141
0.09
142
0.0
143
25.4
144
1.0
145
0.0
146
1.0
147
0.09
 71
0.0
 72
0.0
 73
1
 74
1
 75
0
 76
0
 77
0
 78
4
 79
1
170
0
171
3
172
0
173
0
174
0
175
0
176
0
177
0
178
0
270
2
179
4
271
4
272
4
273
2
274
2
275
0
280
0
281
0
282
0
283
1
284
4
285
0
286
0
287
3
288
0
340
11
278
46
  0
ENDTAB
  0
ENDSEC
  0
SECTION
  2
BLOCKS
  0
BLOCK
  5
20
100
AcDbEntity
  8
0
100
AcDbBlockBegin
  2
*Model_Space
 70
0
 10
0.0
 20
0.0
 30
0.0
  3
*Model_Space
  1

  0
ENDBLK
  5
21
100
AcDbEntity
  8
0
100
AcDbBlockEnd
  0
BLOCK
  5
1C
100
AcDbEntity
  8
0
100
AcDbBlockBegin
  2
*Paper_Space
 70
0
 10
0.0
 20
0.0
 30
0.0
  3
*Paper_Space
  1

  0
ENDBLK
  5
1D
100
AcDbEntity
  8
0
100
AcDbBlockEnd
  0
ENDSEC
  0
SECTION
  2
ENTITIES
  0
MTEXT
  5
219
100
AcDbEntity
  8
0
100
AcDbMText
 62
7
  6
CONTINUOUS
  7
STANDARD
 71
1
 72
1
 10
15.9560215477
 20
0.9479130325
 30
0.0
 11
1.0
 21
0.0
 31
0.0
 44
0.9
  1
SCALE: 1:1.000
 40
0.3
 41
3.36
  0
LINE
  5
21A
100
AcDbEntity
  8
0
100
AcDbLine
 62
7
  6
CONTINUOUS
 10
0.0
 20
0.0
 11
0.0
 21
17.0
  0
LINE
  5
21B
100
AcDbEntity
  8
0
100
AcDbLine
 62
7
  6
CONTINUOUS
 10
0.0
 20
0.0
 11
22.0
 21
0.0
  0
LINE
  5
21C
100
AcDbEntity
  8
0
100
AcDbLine
 62
7
  6
CONTINUOUS
 10
0.0
 20
17.0
 11
22.0
 21
17.0
  0
LINE
  5
21D
100
AcDbEntity
  8
0
100
AcDbLine
 62
7
  6
CONTINUOUS
 10
22.0
 20
0.0
 11
22.0
 21
17.0
  0
LINE
  5
21E
100
AcDbEntity
  8
0
100
AcDbLine
 62
7
  6
CONTINUOUS
 10
5.5678672762
 20
5.6391198968
 11
5.5678672762
 21
5.6035134576
  0
LINE
  5
21F
100
AcDbEntity
  8
0
100
AcDbLine
 62
7
  6
CONTINUOUS
 10
5.6132614517
 20
5.3954961204
 11
5.5704302697
 21
5.5810183521
  0
LINE
  5
220
100
AcDbEntity
  8
0
100
AcDbLine
 62
7
  6
CONTINUOUS
 10
5.6376207034
 20
5.3761198968
 11
6.623113849
 21
5.3761198968
  0
LINE
  5
221
100
AcDbEntity
  8
0
100
AcDbLine
 62
7
  6
CONTINUOUS
 10
5.615457357
 20
5.4721198968
 11
6.6452771953
 21
5.4721198968
  0
LINE
  5
222
100
AcDbEntity
  8
0
100
AcDbLine
 62
7
  6
CONTINUOUS
 10
6.6678672762
 20
5.6641198968
 11
5.5928672762
 21
5.6641198968
  0
LINE
  5
223
100
AcDbEntity
  8
0
100
AcDbLine
 62
7
  6
CONTINUOUS
 10
6.6928672762
 20
5.6035134576
 11
6.6928672762
 21
5.6391198968
  0
LINE
  5
224
100
AcDbEntity
  8
0
100
AcDbLine
 62
7
  6
CONTINUOUS
 10
6.6474731006
 20
5.3954961204
 11
6.6903042826
 21
5.5810183521
  0
LINE
  5
225
100
AcDbEntity
  8
0
100
AcDbLine
 62
7
  6
CONTINUOUS
 10
6.6333720839
 20
10.6000477814
 11
5.5083720839
 21
10.6000477814
  0
LINE
  5
226
100
AcDbEntity
  8
0
100
AcDbLine
 62
7
  6
CONTINUOUS
 10
5.5083720839
 20
10.6000477814
 11
5.5083720839
 21
14.6000477814
  0
LINE
  5
227
100
AcDbEntity
  8
0
100
AcDbLine
 62
7
  6
CONTINUOUS
 10
6.6333720839
 20
10.6000477814
 11
6.6333720839
 21
14.6000477814
  0
LINE
  5
228
100
AcDbEntity
  8
0
100
AcDbLine
 62
7
  6
CONTINUOUS
 10
5.5083720839
 20
14.6000477814
 11
6.6333720839
 21
14.6000477814
  0
LINE
  5
229
100
AcDbEntity
  8
0
100
AcDbLine
 62
7
  6
CONTINUOUS
 10
13.5603552569
 20
5.4126247044
 11
13.5603552569
 21
5.6046247044
  0
LINE
  5
22A
100
AcDbEntity
  8
0
100
AcDbLine
 62
7
  6
CONTINUOUS
 10
13.6785680033
 20
5.3940235297
 11
13.6921425106
 21
5.3352258791
  0
LINE
  5
22B
100
AcDbEntity
  8
0
100
AcDbLine
 62
7
  6
CONTINUOUS
 10
13.9285680033
 20
5.3352258791
 11
13.9421425106
 21
5.3940235297
  0
LINE
  5
22C
100
AcDbEntity
  8
0
100
AcDbLine
 62
7
  6
CONTINUOUS
 10
14.1785680033
 20
5.3940235297
 11
14.1921425106
 21
5.3352258791
  0
LINE
  5
22D
100
AcDbEntity
  8
0
100
AcDbLine
 62
7
  6
CONTINUOUS
 10
14.4285680033
 20
5.3352258791
 11
14.4421425106
 21
5.3940235297
  0
LINE
  5
22E
100
AcDbEntity
  8
0
100
AcDbLine
 62
7
  6
CONTINUOUS
 10
14.6785680033
 20
5.3940235297
 11
14.6921425106
 21
5.3352258791
  0
LINE
  5
22F
100
AcDbEntity
  8
0
100
AcDbLine
 62
7
  6
CONTINUOUS
 10
14.9285680033
 20
5.3352258791
 11
14.9421425106
 21
5.3940235297
  0
LINE
  5
230
100
AcDbEntity
  8
0
100
AcDbLine
 62
7
  6
CONTINUOUS
 10
15.1785680033
 20
5.3940235297
 11
15.1921425106
 21
5.3352258791
  0
LINE
  5
231
100
AcDbEntity
  8
0
100
AcDbLine
 62
7
  6
CONTINUOUS
 10
13.7155273921
 20
5.3166247044
 11
13.9051831218
 21
5.3166247044
  0
LINE
  5
232
100
AcDbEntity
  8
0
100
AcDbLine
 62
7
  6
CONTINUOUS
 10
14.2155273921
 20
5.3166247044
 11
14.4051831218
 21
5.3166247044
  0
LINE
  5
233
100
AcDbEntity
  8
0
100
AcDbLine
 62
7
  6
CONTINUOUS
 10
14.7155273921
 20
5.3166247044
 11
14.9051831218
 21
5.3166247044
  0
LINE
  5
234
100
AcDbEntity
  8
0
100
AcDbLine
 62
7
  6
CONTINUOUS
 10
15.2155273921
 20
5.3166247044
 11
15.4051831218
 21
5.3166247044
  0
LINE
  5
235
100
AcDbEntity
  8
0
100
AcDbLine
 62
7
  6
CONTINUOUS
 10
15.7155273921
 20
5.3166247044
 11
15.9051831218
 21
5.3166247044
  0
LINE
  5
236
100
AcDbEntity
  8
0
100
AcDbLine
 62
7
  6
CONTINUOUS
 10
16.2155273921
 20
5.3166247044
 11
16.4051831218
 21
5.3166247044
  0
LINE
  5
237
100
AcDbEntity
  8
0
100
AcDbLine
 62
7
  6
CONTINUOUS
 10
16.7155273921
 20
5.3166247044
 11
16.9051831218
 21
5.3166247044
  0
LINE
  5
238
100
AcDbEntity
  8
0
100
AcDbLine
 62
7
  6
CONTINUOUS
 10
17.2155273921
 20
5.3166247044
 11
17.4051831218
 21
5.3166247044
  0
LINE
  5
239
100
AcDbEntity
  8
0
100
AcDbLine
 62
7
  6
CONTINUOUS
 10
15.4285680033
 20
5.3352258791
 11
15.4421425106
 21
5.3940235297
  0
LINE
  5
23A
100
AcDbEntity
  8
0
100
AcDbLine
 62
7
  6
CONTINUOUS
 10
13.5603552569
 20
5.4126247044
 11
13.6551831218
 21
5.4126247044
  0
LINE
  5
23B
100
AcDbEntity
  8
0
100
AcDbLine
 62
7
  6
CONTINUOUS
 10
13.9655273921
 20
5.4126247044
 11
14.1551831218
 21
5.4126247044
  0
LINE
  5
23C
100
AcDbEntity
  8
0
100
AcDbLine
 62
7
  6
CONTINUOUS
 10
14.4655273921
 20
5.4126247044
 11
14.6551831218
 21
5.4126247044
  0
LINE
  5
23D
100
AcDbEntity
  8
0
100
AcDbLine
 62
7
  6
CONTINUOUS
 10
14.9655273921
 20
5.4126247044
 11
15.1551831218
 21
5.4126247044
  0
LINE
  5
23E
100
AcDbEntity
  8
0
100
AcDbLine
 62
7
  6
CONTINUOUS
 10
15.4655273921
 20
5.4126247044
 11
15.6551831218
 21
5.4126247044
  0
LINE
  5
23F
100
AcDbEntity
  8
0
100
AcDbLine
 62
7
  6
CONTINUOUS
 10
15.9655273921
 20
5.4126247044
 11
16.1551831218
 21
5.4126247044
  0
LINE
  5
240
100
AcDbEntity
  8
0
100
AcDbLine
 62
7
  6
CONTINUOUS
 10
16.4655273921
 20
5.4126247044
 11
16.6551831218
 21
5.4126247044
  0
LINE
  5
241
100
AcDbEntity
  8
0
100
AcDbLine
 62
7
  6
CONTINUOUS
 10
16.9655273921
 20
5.4126247044
 11
17.1551831218
 21
5.4126247044
  0
LINE
  5
242
100
AcDbEntity
  8
0
100
AcDbLine
 62
7
  6
CONTINUOUS
 10
17.4655273921
 20
5.4126247044
 11
17.5603552569
 21
5.4126247044
  0
LINE
  5
243
100
AcDbEntity
  8
0
100
AcDbLine
 62
7
  6
CONTINUOUS
 10
13.5603552569
 20
5.6046247044
 11
17.5603552569
 21
5.6046247044
  0
LINE
  5
244
100
AcDbEntity
  8
0
100
AcDbLine
 62
7
  6
CONTINUOUS
 10
15.6785680033
 20
5.3940235297
 11
15.6921425106
 21
5.3352258791
  0
LINE
  5
245
100
AcDbEntity
  8
0
100
AcDbLine
 62
7
  6
CONTINUOUS
 10
15.9285680033
 20
5.3352258791
 11
15.9421425106
 21
5.3940235297
  0
LINE
  5
246
100
AcDbEntity
  8
0
100
AcDbLine
 62
7
  6
CONTINUOUS
 10
16.1785680033
 20
5.3940235297
 11
16.1921425106
 21
5.3352258791
  0
LINE
  5
247
100
AcDbEntity
  8
0
100
AcDbLine
 62
7
  6
CONTINUOUS
 10
16.4285680033
 20
5.3352258791
 11
16.4421425106
 21
5.3940235297
  0
LINE
  5
248
100
AcDbEntity
  8
0
100
AcDbLine
 62
7
  6
CONTINUOUS
 10
16.6785680033
 20
5.3940235297
 11
16.6921425106
 21
5.3352258791
  0
LINE
  5
249
100
AcDbEntity
  8
0
100
AcDbLine
 62
7
  6
CONTINUOUS
 10
16.9285680033
 20
5.3352258791
 11
16.9421425106
 21
5.3940235297
  0
LINE
  5
24A
100
AcDbEntity
  8
0
100
AcDbLine
 62
7
  6
CONTINUOUS
 10
17.1785680033
 20
5.3940235297
 11
17.1921425106
 21
5.3352258791
  0
LINE
  5
24B
100
AcDbEntity
  8
0
100
AcDbLine
 62
7
  6
CONTINUOUS
 10
17.5603552569
 20
5.4126247044
 11
17.5603552569
 21
5.6046247044
  0
LINE
  5
24C
100
AcDbEntity
  8
0
100
AcDbLine
 62
7
  6
CONTINUOUS
 10
17.4285680033
 20
5.3352258791
 11
17.4421425106
 21
5.3940235297
  0
LINE
  5
24D
100
AcDbEntity
  8
0
100
AcDbLine
 62
7
  6
CONTINUOUS
 10
14.4777646459
 20
10.9521689821
 11
14.5241090119
 21
10.8965210705
  0
LINE
  5
24E
100
AcDbEntity
  8
0
100
AcDbLine
 62
7
  6
CONTINUOUS
 10
15.5392774559
 20
10.9372713874
 11
15.5455711768
 21
10.9380876456
  0
LINE
  5
24F
100
AcDbEntity
  8
0
100
AcDbLine
 62
7
  6
CONTINUOUS
 10
14.5524559279
 20
10.8844766167
 11
15.5009828118
 21
10.8844766167
  0
LINE
  5
250
100
AcDbEntity
  8
0
100
AcDbLine
 62
7
  6
CONTINUOUS
 10
15.5310357071
 20
10.9372712081
 11
15.5392697769
 21
10.9372712081
  0
LINE
  5
251
100
AcDbEntity
  8
0
100
AcDbLine
 62
7
  6
CONTINUOUS
 10
14.457680569
 20
10.9882854814
 11
14.4685420236
 21
10.9661521639
  0
LINE
  5
252
100
AcDbEntity
  8
0
100
AcDbLine
 62
7
  6
CONTINUOUS
 10
15.4632216157
 20
11.0038257306
 11
14.4730810471
 21
11.0038257306
  0
LINE
  5
253
100
AcDbEntity
  8
0
100
AcDbLine
 62
7
  6
CONTINUOUS
 10
15.6603106176
 20
11.3289348422
 11
15.6666043385
 21
11.3297511004
  0
LINE
  5
254
100
AcDbEntity
  8
0
100
AcDbLine
 62
7
  6
CONTINUOUS
 10
15.6520688688
 20
11.3289346629
 11
15.6603029386
 21
11.3289346629
  0
LWPOLYLINE
  5
255
100
AcDbEntity
  8
0
100
AcDbPolyline
 62
7
  6
CONTINUOUS
 90
3
 70
0
 10
16.3928033087
 20
13.6797318293
 10
16.3981821232
 20
13.6817017845
 10
16.4011193391
 20
13.6833841281
  0
LINE
  5
256
100
AcDbEntity
  8
0
100
AcDbLine
 62
7
  6
CONTINUOUS
 10
15.7813437793
 20
11.720598297
 11
15.7876375002
 21
11.7214145553
  0
LINE
  5
257
100
AcDbEntity
  8
0
100
AcDbLine
 62
7
  6
CONTINUOUS
 10
15.7731020305
 20
11.7205981177
 11
15.7813361003
 21
11.7205981177
  0
LINE
  5
258
100
AcDbEntity
  8
0
100
AcDbLine
 62
7
  6
CONTINUOUS
 10
15.5047356419
 20
10.9661521639
 11
15.4938741872
 21
10.9882854814
  0
LINE
  5
259
100
AcDbEntity
  8
0
100
AcDbLine
 62
7
  6
CONTINUOUS
 10
14.4568215727
 20
10.9956666657
 11
15.4250868663
 21
14.1289743042
  0
LINE
  5
25A
100
AcDbEntity
  8
0
100
AcDbLine
 62
7
  6
CONTINUOUS
 10
16.4010634804
 20
13.6833471385
 11
16.4010546004
 21
13.6833411869
  0
LWPOLYLINE
  5
25B
100
AcDbEntity
  8
0
100
AcDbPolyline
 62
7
  6
CONTINUOUS
 90
3
 70
0
 10
16.271770147
 20
13.2880683745
 10
16.2771489615
 20
13.2900383297
 10
16.2800861774
 20
13.2917206733
  0
LINE
  5
25C
100
AcDbEntity
  8
0
100
AcDbLine
 62
7
  6
CONTINUOUS
 10
15.902376941
 20
12.1122617518
 11
15.9086706619
 21
12.1130780101
  0
LINE
  5
25D
100
AcDbEntity
  8
0
100
AcDbLine
 62
7
  6
CONTINUOUS
 10
15.8941351922
 20
12.1122615725
 11
15.902369262
 21
12.1122615725
  0
LINE
  5
25E
100
AcDbEntity
  8
0
100
AcDbLine
 62
7
  6
CONTINUOUS
 10
16.2800303187
 20
13.2916836837
 11
16.2800214387
 21
13.2916777321
  0
LWPOLYLINE
  5
25F
100
AcDbEntity
  8
0
100
AcDbPolyline
 62
7
  6
CONTINUOUS
 90
3
 70
0
 10
16.1507369853
 20
12.8964049197
 10
16.1561157998
 20
12.8983748749
 10
16.1590530157
 20
12.9000572185
  0
LINE
  5
260
100
AcDbEntity
  8
0
100
AcDbLine
 62
7
  6
CONTINUOUS
 10
15.5175086089
 20
10.8965210705
 11
15.5092369175
 21
10.9521689821
  0
LINE
  5
261
100
AcDbEntity
  8
0
100
AcDbLine
 62
7
  6
CONTINUOUS
 10
16.0234101027
 20
12.5039252066
 11
16.0297038236
 21
12.5047414649
  0
LINE
  5
262
100
AcDbEntity
  8
0
100
AcDbLine
 62
7
  6
CONTINUOUS
 10
16.0151683539
 20
12.5039250273
 11
16.0234024237
 21
12.5039250273
  0
LINE
  5
263
100
AcDbEntity
  8
0
100
AcDbLine
 62
7
  6
CONTINUOUS
 10
15.6104798162
 20
11.1109685254
 11
15.6083612504
 21
11.157529067
  0
LWPOLYLINE
  5
264
100
AcDbEntity
  8
0
100
AcDbPolyline
 62
7
  6
CONTINUOUS
 90
7
 70
0
 10
15.6083610274
 20
11.1575348285
 10
15.6083223671
 20
11.1585126362
 10
15.608369155
 20
11.1670331395
 10
15.6091183486
 20
11.1775803531
 10
15.6105949149
 20
11.1889329439
 10
15.6126329933
 20
11.1997090149
 10
15.6148982506
 20
11.2086138499
  0
LINE
  5
265
100
AcDbEntity
  8
0
100
AcDbLine
 62
7
  6
CONTINUOUS
 10
16.158997157
 20
12.9000202289
 11
16.158988277
 21
12.9000142773
  0
LINE
  5
266
100
AcDbEntity
  8
0
100
AcDbLine
 62
7
  6
CONTINUOUS
 10
15.7315129779
 20
11.5026319802
 11
15.7293944121
 21
11.5491925218
  0
LWPOLYLINE
  5
267
100
AcDbEntity
  8
0
100
AcDbPolyline
 62
7
  6
CONTINUOUS
 90
7
 70
0
 10
15.7293941891
 20
11.5491982833
 10
15.7293555288
 20
11.550176091
 10
15.7294023167
 20
11.5586965943
 10
15.7301515103
 20
11.5692438079
 10
15.7316280766
 20
11.5805963987
 10
15.733666155
 20
11.5913724697
 10
15.7359314124
 20
11.6002773048
  0
LINE
  5
268
100
AcDbEntity
  8
0
100
AcDbLine
 62
7
  6
CONTINUOUS
 10
15.5172408937
 20
10.8926361104
 11
15.5175086089
 21
10.8965210705
  0
LINE
  5
269
100
AcDbEntity
  8
0
100
AcDbLine
 62
7
  6
CONTINUOUS
 10
16.3903401674
 20
13.7162674414
 11
16.3906561181
 21
13.7168528173
  0
LWPOLYLINE
  5
26A
100
AcDbEntity
  8
0
100
AcDbPolyline
 62
7
  6
CONTINUOUS
 90
3
 70
0
 10
16.0297038236
 20
12.5047414649
 10
16.0350826381
 20
12.50671142
 10
16.038019854
 20
12.5083937637
  0
LINE
  5
26B
100
AcDbEntity
  8
0
100
AcDbLine
 62
7
  6
CONTINUOUS
 10
15.8525461396
 20
11.894295435
 11
15.8504275738
 21
11.9408559766
  0
LWPOLYLINE
  5
26C
100
AcDbEntity
  8
0
100
AcDbPolyline
 62
7
  6
CONTINUOUS
 90
7
 70
0
 10
15.8504273508
 20
11.9408617381
 10
15.8503886905
 20
11.9418395458
 10
15.8504354784
 20
11.9503600492
 10
15.851184672
 20
11.9609072627
 10
15.8526612383
 20
11.9722598536
 10
15.8546993167
 20
11.9830359245
 10
15.8569645741
 20
11.9919407596
  0
LINE
  5
26D
100
AcDbEntity
  8
0
100
AcDbLine
 62
7
  6
CONTINUOUS
 10
16.2693070057
 20
13.3246039865
 11
16.2696229564
 21
13.3251893625
  0
LINE
  5
26E
100
AcDbEntity
  8
0
100
AcDbLine
 62
7
  6
CONTINUOUS
 10
16.148273844
 20
12.9329405317
 11
16.1485897947
 21
12.9335259077
  0
LINE
  5
26F
100
AcDbEntity
  8
0
100
AcDbLine
 62
7
  6
CONTINUOUS
 10
16.0379639953
 20
12.5083567741
 11
16.0379551152
 21
12.5083508225
  0
LINE
  5
270
100
AcDbEntity
  8
0
100
AcDbLine
 62
7
  6
CONTINUOUS
 10
16.1444432644
 20
12.8955886615
 11
16.1507369853
 21
12.8964049197
  0
LINE
  5
271
100
AcDbEntity
  8
0
100
AcDbLine
 62
7
  6
CONTINUOUS
 10
16.1362015157
 20
12.8955884822
 11
16.1444355854
 21
12.8955884822
  0
LINE
  5
272
100
AcDbEntity
  8
0
100
AcDbLine
 62
7
  6
CONTINUOUS
 10
15.9735793013
 20
12.2859588898
 11
15.9714607355
 21
12.3325194314
  0
LWPOLYLINE
  5
273
100
AcDbEntity
  8
0
100
AcDbPolyline
 62
7
  6
CONTINUOUS
 90
7
 70
0
 10
15.9714605125
 20
12.332525193
 10
15.9714218522
 20
12.3335030006
 10
15.9714686401
 20
12.342023504
 10
15.9722178337
 20
12.3525707175
 10
15.9736944
 20
12.3639233084
 10
15.9757324784
 20
12.3746993793
 10
15.9779977358
 20
12.3836042144
  0
LINE
  5
274
100
AcDbEntity
  8
0
100
AcDbLine
 62
7
  6
CONTINUOUS
 10
15.6148982506
 20
11.2086138499
 11
15.6153187669
 21
11.210012086
  0
LINE
  5
275
100
AcDbEntity
  8
0
100
AcDbLine
 62
7
  6
CONTINUOUS
 10
15.7359314124
 20
11.6002773048
 11
15.7363519286
 21
11.6016755409
  0
LINE
  5
276
100
AcDbEntity
  8
0
100
AcDbLine
 62
7
  6
CONTINUOUS
 10
15.8569645741
 20
11.9919407596
 11
15.8573850903
 21
11.9933389957
  0
LINE
  5
277
100
AcDbEntity
  8
0
100
AcDbLine
 62
7
  6
CONTINUOUS
 10
15.9779977358
 20
12.3836042144
 11
15.978418252
 21
12.3850024505
  0
LINE
  5
278
100
AcDbEntity
  8
0
100
AcDbLine
 62
7
  6
CONTINUOUS
 10
16.0990308975
 20
12.7752676692
 11
16.0994514137
 21
12.7766659053
  0
LINE
  5
279
100
AcDbEntity
  8
0
100
AcDbLine
 62
7
  6
CONTINUOUS
 10
16.2200640592
 20
13.166931124
 11
16.2204845754
 21
13.1683293601
  0
LINE
  5
27A
100
AcDbEntity
  8
0
100
AcDbLine
 62
7
  6
CONTINUOUS
 10
15.5183615137
 20
10.8962575029
 11
15.540196918
 21
10.9669168972
  0
LINE
  5
27B
100
AcDbEntity
  8
0
100
AcDbLine
 62
7
  6
CONTINUOUS
 10
15.6153208153
 20
11.2100179181
 11
15.6612300797
 21
11.358580352
  0
LINE
  5
27C
100
AcDbEntity
  8
0
100
AcDbLine
 62
7
  6
CONTINUOUS
 10
15.736353977
 20
11.6016813729
 11
15.7822632414
 21
11.7502438069
  0
LINE
  5
27D
100
AcDbEntity
  8
0
100
AcDbLine
 62
7
  6
CONTINUOUS
 10
15.8573871387
 20
11.9933448277
 11
15.9032964031
 21
12.1419072617
  0
LINE
  5
27E
100
AcDbEntity
  8
0
100
AcDbLine
 62
7
  6
CONTINUOUS
 10
15.9784203004
 20
12.3850082826
 11
16.0243295648
 21
12.5335707165
  0
LINE
  5
27F
100
AcDbEntity
  8
0
100
AcDbLine
 62
7
  6
CONTINUOUS
 10
16.0994534621
 20
12.7766717374
 11
16.1453627265
 21
12.9252341713
  0
LINE
  5
280
100
AcDbEntity
  8
0
100
AcDbLine
 62
7
  6
CONTINUOUS
 10
16.2204866238
 20
13.1683351922
 11
16.2663958882
 21
13.3168976261
  0
LINE
  5
281
100
AcDbEntity
  8
0
100
AcDbLine
 62
7
  6
CONTINUOUS
 10
16.3415197855
 20
13.559998647
 11
16.3874290499
 21
13.7085610809
  0
LINE
  5
282
100
AcDbEntity
  8
0
100
AcDbLine
 62
7
  6
CONTINUOUS
 10
16.4625529472
 20
13.9516621018
 11
16.4855075798
 21
14.0259433201
  0
LWPOLYLINE
  5
283
100
AcDbEntity
  8
0
100
AcDbPolyline
 62
7
  6
CONTINUOUS
 90
3
 70
0
 10
16.3874293768
 20
13.7085632573
 10
16.3891783479
 20
13.7136150766
 10
16.3903401674
 20
13.7162674414
  0
LWPOLYLINE
  5
284
100
AcDbEntity
  8
0
100
AcDbPolyline
 62
7
  6
CONTINUOUS
 90
3
 70
0
 10
16.2663962151
 20
13.3168998024
 10
16.2681451862
 20
13.3219516218
 10
16.2693070057
 20
13.3246039865
  0
LWPOLYLINE
  5
285
100
AcDbEntity
  8
0
100
AcDbPolyline
 62
7
  6
CONTINUOUS
 90
3
 70
0
 10
16.1453630534
 20
12.9252363476
 10
16.1471120245
 20
12.9302881669
 10
16.148273844
 20
12.9329405317
  0
LWPOLYLINE
  5
286
100
AcDbEntity
  8
0
100
AcDbPolyline
 62
7
  6
CONTINUOUS
 90
3
 70
0
 10
16.0243298917
 20
12.5335728928
 10
16.0260788628
 20
12.5386247121
 10
16.0272406823
 20
12.5412770769
  0
LINE
  5
287
100
AcDbEntity
  8
0
100
AcDbLine
 62
7
  6
CONTINUOUS
 10
16.0272406823
 20
12.5412770769
 11
16.027556633
 21
12.5418624529
  0
LWPOLYLINE
  5
288
100
AcDbEntity
  8
0
100
AcDbPolyline
 62
7
  6
CONTINUOUS
 90
3
 70
0
 10
15.9086706619
 20
12.1130780101
 10
15.9140494764
 20
12.1150479652
 10
15.9169866923
 20
12.1167303089
  0
LINE
  5
289
100
AcDbEntity
  8
0
100
AcDbLine
 62
7
  6
CONTINUOUS
 10
16.094612463
 20
12.6776223446
 11
16.0924938972
 21
12.7241828862
  0
LWPOLYLINE
  5
28A
100
AcDbEntity
  8
0
100
AcDbPolyline
 62
7
  6
CONTINUOUS
 90
7
 70
0
 10
16.0924936742
 20
12.7241886478
 10
16.0924550139
 20
12.7251664554
 10
16.0925018018
 20
12.7336869588
 10
16.0932509954
 20
12.7442341723
 10
16.0947275617
 20
12.7555867632
 10
16.0967656401
 20
12.7663628341
 10
16.0990308975
 20
12.7752676692
  0
LINE
  5
28B
100
AcDbEntity
  8
0
100
AcDbLine
 62
7
  6
CONTINUOUS
 10
16.3410972209
 20
13.5585945788
 11
16.3415177371
 21
13.5599928149
  0
LINE
  5
28C
100
AcDbEntity
  8
0
100
AcDbLine
 62
7
  6
CONTINUOUS
 10
16.4621303826
 20
13.9502580336
 11
16.4625508988
 21
13.9516562697
  0
LINE
  5
28D
100
AcDbEntity
  8
0
100
AcDbLine
 62
7
  6
CONTINUOUS
 10
15.5638670081
 20
10.9551347201
 11
15.6093911768
 21
11.102450984
  0
LINE
  5
28E
100
AcDbEntity
  8
0
100
AcDbLine
 62
7
  6
CONTINUOUS
 10
15.6849001698
 20
11.3467981749
 11
15.7304243385
 21
11.4941144388
  0
LINE
  5
28F
100
AcDbEntity
  8
0
100
AcDbLine
 62
7
  6
CONTINUOUS
 10
15.8059333315
 20
11.7384616298
 11
15.8514575002
 21
11.8857778936
  0
LINE
  5
290
100
AcDbEntity
  8
0
100
AcDbLine
 62
7
  6
CONTINUOUS
 10
15.9269664932
 20
12.1301250846
 11
15.9724906619
 21
12.2774413485
  0
LINE
  5
291
100
AcDbEntity
  8
0
100
AcDbLine
 62
7
  6
CONTINUOUS
 10
16.0479996549
 20
12.5217885394
 11
16.0935238236
 21
12.6691048033
  0
LINE
  5
292
100
AcDbEntity
  8
0
100
AcDbLine
 62
7
  6
CONTINUOUS
 10
16.1690328166
 20
12.9134519942
 11
16.2145569853
 21
13.0607682581
  0
LINE
  5
293
100
AcDbEntity
  8
0
100
AcDbLine
 62
7
  6
CONTINUOUS
 10
16.2900659783
 20
13.305115449
 11
16.335590147
 21
13.4524317129
  0
LINE
  5
294
100
AcDbEntity
  8
0
100
AcDbLine
 62
7
  6
CONTINUOUS
 10
16.41109914
 20
13.6967789038
 11
16.4566233087
 21
13.8440951677
  0
LWPOLYLINE
  5
295
100
AcDbEntity
  8
0
100
AcDbPolyline
 62
7
  6
CONTINUOUS
 90
3
 70
0
 10
15.90329673
 20
12.141909438
 10
15.9050457011
 20
12.1469612573
 10
15.9062075206
 20
12.1496136221
  0
LWPOLYLINE
  5
296
100
AcDbEntity
  8
0
100
AcDbPolyline
 62
7
  6
CONTINUOUS
 90
3
 70
0
 10
15.7822635683
 20
11.7502459832
 10
15.7840125394
 20
11.7552978025
 10
15.7851743589
 20
11.7579501673
  0
LWPOLYLINE
  5
297
100
AcDbEntity
  8
0
100
AcDbPolyline
 62
7
  6
CONTINUOUS
 90
3
 70
0
 10
15.6612304066
 20
11.3585825284
 10
15.6629793777
 20
11.3636343477
 10
15.6641411971
 20
11.3662867125
  0
LWPOLYLINE
  5
298
100
AcDbEntity
  8
0
100
AcDbPolyline
 62
7
  6
CONTINUOUS
 90
3
 70
0
 10
15.5401972449
 20
10.9669190736
 10
15.541946216
 20
10.9719708929
 10
15.5431080354
 20
10.9746232577
  0
LINE
  5
299
100
AcDbEntity
  8
0
100
AcDbLine
 62
7
  6
CONTINUOUS
 10
15.9062075206
 20
12.1496136221
 11
15.9065234713
 21
12.1501989981
  0
LINE
  5
29A
100
AcDbEntity
  8
0
100
AcDbLine
 62
7
  6
CONTINUOUS
 10
15.7851743589
 20
11.7579501673
 11
15.7854903096
 21
11.7585355432
  0
LINE
  5
29B
100
AcDbEntity
  8
0
100
AcDbLine
 62
7
  6
CONTINUOUS
 10
15.9169308336
 20
12.1166933192
 11
15.9169219535
 21
12.1166873677
  0
LINE
  5
29C
100
AcDbEntity
  8
0
100
AcDbLine
 62
7
  6
CONTINUOUS
 10
16.2156456247
 20
13.0692857995
 11
16.2135270589
 21
13.115846341
  0
LWPOLYLINE
  5
29D
100
AcDbEntity
  8
0
100
AcDbPolyline
 62
7
  6
CONTINUOUS
 90
7
 70
0
 10
16.2135268359
 20
13.1158521026
 10
16.2134881756
 20
13.1168299102
 10
16.2135349635
 20
13.1253504136
 10
16.2142841571
 20
13.1358976272
 10
16.2157607234
 20
13.147250218
 10
16.2177988018
 20
13.1580262889
 10
16.2200640592
 20
13.166931124
  0
LINE
  5
29E
100
AcDbEntity
  8
0
100
AcDbLine
 62
7
  6
CONTINUOUS
 10
15.6641411971
 20
11.3662867125
 11
15.6644571479
 21
11.3668720884
  0
LINE
  5
29F
100
AcDbEntity
  8
0
100
AcDbLine
 62
7
  6
CONTINUOUS
 10
16.2654764261
 20
13.2872521163
 11
16.271770147
 21
13.2880683745
  0
LINE
  5
2A0
100
AcDbEntity
  8
0
100
AcDbLine
 62
7
  6
CONTINUOUS
 10
16.2572346774
 20
13.287251937
 11
16.2654687471
 21
13.287251937
  0
LINE
  5
2A1
100
AcDbEntity
  8
0
100
AcDbLine
 62
7
  6
CONTINUOUS
 10
16.3366787864
 20
13.4609492543
 11
16.3345602206
 21
13.5075097959
  0
LWPOLYLINE
  5
2A2
100
AcDbEntity
  8
0
100
AcDbPolyline
 62
7
  6
CONTINUOUS
 90
7
 70
0
 10
16.3345599976
 20
13.5075155574
 10
16.3345213373
 20
13.508493365
 10
16.3345681252
 20
13.5170138684
 10
16.3353173188
 20
13.527561082
 10
16.3367938851
 20
13.5389136728
 10
16.3388319635
 20
13.5496897438
 10
16.3410972209
 20
13.5585945788
  0
LINE
  5
2A3
100
AcDbEntity
  8
0
100
AcDbLine
 62
7
  6
CONTINUOUS
 10
16.4857739025
 20
14.029828709
 11
16.4855061873
 21
14.025943749
  0
LINE
  5
2A4
100
AcDbEntity
  8
0
100
AcDbLine
 62
7
  6
CONTINUOUS
 10
15.5431080354
 20
10.9746232577
 11
15.5434239862
 21
10.9752086336
  0
LINE
  5
2A5
100
AcDbEntity
  8
0
100
AcDbLine
 62
7
  6
CONTINUOUS
 10
15.7958976719
 20
11.7250298644
 11
15.7958887918
 21
11.7250239129
  0
LWPOLYLINE
  5
2A6
100
AcDbEntity
  8
0
100
AcDbPolyline
 62
7
  6
CONTINUOUS
 90
3
 70
0
 10
15.7876375002
 20
11.7214145553
 10
15.7930163147
 20
11.7233845104
 10
15.7959535306
 20
11.7250668541
  0
LWPOLYLINE
  5
2A7
100
AcDbEntity
  8
0
100
AcDbPolyline
 62
7
  6
CONTINUOUS
 90
7
 70
0
 10
16.4555931593
 20
13.8991790122
 10
16.455554499
 20
13.9001568199
 10
16.4556012869
 20
13.9086773232
 10
16.4563504805
 20
13.9192245368
 10
16.4578270468
 20
13.9305771276
 10
16.4598651252
 20
13.9413531986
 10
16.4621303826
 20
13.9502580336
  0
LINE
  5
2A8
100
AcDbEntity
  8
0
100
AcDbLine
 62
7
  6
CONTINUOUS
 10
16.4577119481
 20
13.8526127091
 11
16.4555933823
 21
13.8991732507
  0
LINE
  5
2A9
100
AcDbEntity
  8
0
100
AcDbLine
 62
7
  6
CONTINUOUS
 10
15.6748645101
 20
11.3333664096
 11
15.6748556301
 21
11.333360458
  0
LINE
  5
2AA
100
AcDbEntity
  8
0
100
AcDbLine
 62
7
  6
CONTINUOUS
 10
16.3865095878
 20
13.6789155711
 11
16.3928033087
 21
13.6797318293
  0
LINE
  5
2AB
100
AcDbEntity
  8
0
100
AcDbLine
 62
7
  6
CONTINUOUS
 10
16.386509588
 20
13.6789153999
 11
16.3865019088
 21
13.6789153918
  0
LWPOLYLINE
  5
2AC
100
AcDbEntity
  8
0
100
AcDbPolyline
 62
7
  6
CONTINUOUS
 90
3
 70
0
 10
15.6666043385
 20
11.3297511004
 10
15.671983153
 20
11.3317210556
 10
15.6749203689
 20
11.3334033992
  0
LINE
  5
2AD
100
AcDbEntity
  8
0
100
AcDbLine
 62
7
  6
CONTINUOUS
 10
16.3782678391
 20
13.6789153918
 11
16.3865019088
 21
13.6789153918
  0
LINE
  5
2AE
100
AcDbEntity
  8
0
100
AcDbLine
 62
7
  6
CONTINUOUS
 10
16.4857739025
 20
14.029828709
 11
16.4775022111
 21
14.0854766206
  0
LINE
  5
2AF
100
AcDbEntity
  8
0
100
AcDbLine
 62
7
  6
CONTINUOUS
 10
15.5538313484
 20
10.9417029548
 11
15.5538224684
 21
10.9416970032
  0
LWPOLYLINE
  5
2B0
100
AcDbEntity
  8
0
100
AcDbPolyline
 62
7
  6
CONTINUOUS
 90
3
 70
0
 10
15.5455711768
 20
10.9380876456
 10
15.5509499913
 20
10.9400576008
 10
15.5538872071
 20
10.9417399444
  0
LINE
  5
2B1
100
AcDbEntity
  8
0
100
AcDbLine
 62
7
  6
CONTINUOUS
 10
16.4314869093
 20
14.1371333691
 11
15.4413463408
 21
14.1371333691
  0
LINE
  5
2B2
100
AcDbEntity
  8
0
100
AcDbLine
 62
7
  6
CONTINUOUS
 10
16.4730009355
 20
14.0994598024
 11
16.4621394808
 21
14.1215931199
  0
ARC
  5
2B3
100
AcDbEntity
  8
0
100
AcDbCircle
 62
7
  6
CONTINUOUS
 10
6.5928672762
 20
5.6035134576
 40
0.1
100
AcDbArc
 50
347.0
 51
360.0
  0
ARC
  5
2B4
100
AcDbEntity
  8
0
100
AcDbCircle
 62
7
  6
CONTINUOUS
 10
5.6678672762
 20
5.6035134576
 40
0.1
100
AcDbArc
 50
180.0
 51
193.0
  0
ARC
  5
2B5
100
AcDbEntity
  8
0
100
AcDbCircle
 62
7
  6
CONTINUOUS
 10
6.6678672762
 20
5.6391198968
 40
0.025
100
AcDbArc
 50
0.0
 51
90.0
  0
ARC
  5
2B6
100
AcDbEntity
  8
0
100
AcDbCircle
 62
7
  6
CONTINUOUS
 10
6.6452771953
 20
5.4971198968
 40
0.025
100
AcDbArc
 50
270.0
 51
347.0
  0
ARC
  5
2B7
100
AcDbEntity
  8
0
100
AcDbCircle
 62
7
  6
CONTINUOUS
 10
5.615457357
 20
5.4971198968
 40
0.025
100
AcDbArc
 50
193.0
 51
270.0
  0
ARC
  5
2B8
100
AcDbEntity
  8
0
100
AcDbCircle
 62
7
  6
CONTINUOUS
 10
5.5928672762
 20
5.6391198968
 40
0.025
100
AcDbArc
 50
90.0
 51
180.0
  0
ARC
  5
2B9
100
AcDbEntity
  8
0
100
AcDbCircle
 62
7
  6
CONTINUOUS
 10
6.623113849
 20
5.4011198968
 40
0.025
100
AcDbArc
 50
270.0
 51
347.0
  0
ARC
  5
2BA
100
AcDbEntity
  8
0
100
AcDbCircle
 62
7
  6
CONTINUOUS
 10
5.6376207034
 20
5.4011198968
 40
0.025
100
AcDbArc
 50
193.0
 51
270.0
  0
ARC
  5
2BB
100
AcDbEntity
  8
0
100
AcDbCircle
 62
7
  6
CONTINUOUS
 10
13.7155273921
 20
5.3406247044
 40
0.024
100
AcDbArc
 50
193.0
 51
270.0
  0
ARC
  5
2BC
100
AcDbEntity
  8
0
100
AcDbCircle
 62
7
  6
CONTINUOUS
 10
13.9051831218
 20
5.3406247044
 40
0.024
100
AcDbArc
 50
270.0
 51
347.0
  0
ARC
  5
2BD
100
AcDbEntity
  8
0
100
AcDbCircle
 62
7
  6
CONTINUOUS
 10
14.2155273921
 20
5.3406247044
 40
0.024
100
AcDbArc
 50
193.0
 51
270.0
  0
ARC
  5
2BE
100
AcDbEntity
  8
0
100
AcDbCircle
 62
7
  6
CONTINUOUS
 10
15.4051831218
 20
5.3406247044
 40
0.024
100
AcDbArc
 50
270.0
 51
347.0
  0
ARC
  5
2BF
100
AcDbEntity
  8
0
100
AcDbCircle
 62
7
  6
CONTINUOUS
 10
15.2155273921
 20
5.3406247044
 40
0.024
100
AcDbArc
 50
193.0
 51
270.0
  0
ARC
  5
2C0
100
AcDbEntity
  8
0
100
AcDbCircle
 62
7
  6
CONTINUOUS
 10
14.4051831218
 20
5.3406247044
 40
0.024
100
AcDbArc
 50
270.0
 51
347.0
  0
ARC
  5
2C1
100
AcDbEntity
  8
0
100
AcDbCircle
 62
7
  6
CONTINUOUS
 10
14.9051831218
 20
5.3406247044
 40
0.024
100
AcDbArc
 50
270.0
 51
347.0
  0
ARC
  5
2C2
100
AcDbEntity
  8
0
100
AcDbCircle
 62
7
  6
CONTINUOUS
 10
14.7155273921
 20
5.3406247044
 40
0.024
100
AcDbArc
 50
193.0
 51
270.0
  0
ARC
  5
2C3
100
AcDbEntity
  8
0
100
AcDbCircle
 62
7
  6
CONTINUOUS
 10
13.6551831218
 20
5.3886247044
 40
0.024
100
AcDbArc
 50
13.0
 51
90.0
  0
ARC
  5
2C4
100
AcDbEntity
  8
0
100
AcDbCircle
 62
7
  6
CONTINUOUS
 10
13.9655273921
 20
5.3886247044
 40
0.024
100
AcDbArc
 50
90.0
 51
167.0
  0
ARC
  5
2C5
100
AcDbEntity
  8
0
100
AcDbCircle
 62
7
  6
CONTINUOUS
 10
14.1551831218
 20
5.3886247044
 40
0.024
100
AcDbArc
 50
13.0
 51
90.0
  0
ARC
  5
2C6
100
AcDbEntity
  8
0
100
AcDbCircle
 62
7
  6
CONTINUOUS
 10
15.4655273921
 20
5.3886247044
 40
0.024
100
AcDbArc
 50
90.0
 51
167.0
  0
ARC
  5
2C7
100
AcDbEntity
  8
0
100
AcDbCircle
 62
7
  6
CONTINUOUS
 10
15.1551831218
 20
5.3886247044
 40
0.024
100
AcDbArc
 50
13.0
 51
90.0
  0
ARC
  5
2C8
100
AcDbEntity
  8
0
100
AcDbCircle
 62
7
  6
CONTINUOUS
 10
14.9655273921
 20
5.3886247044
 40
0.024
100
AcDbArc
 50
90.0
 51
167.0
  0
ARC
  5
2C9
100
AcDbEntity
  8
0
100
AcDbCircle
 62
7
  6
CONTINUOUS
 10
14.4655273921
 20
5.3886247044
 40
0.024
100
AcDbArc
 50
90.0
 51
167.0
  0
ARC
  5
2CA
100
AcDbEntity
  8
0
100
AcDbCircle
 62
7
  6
CONTINUOUS
 10
14.6551831218
 20
5.3886247044
 40
0.024
100
AcDbArc
 50
13.0
 51
90.0
  0
ARC
  5
2CB
100
AcDbEntity
  8
0
100
AcDbCircle
 62
7
  6
CONTINUOUS
 10
17.4051831218
 20
5.3406247044
 40
0.024
100
AcDbArc
 50
270.0
 51
347.0
  0
ARC
  5
2CC
100
AcDbEntity
  8
0
100
AcDbCircle
 62
7
  6
CONTINUOUS
 10
17.2155273921
 20
5.3406247044
 40
0.024
100
AcDbArc
 50
193.0
 51
270.0
  0
ARC
  5
2CD
100
AcDbEntity
  8
0
100
AcDbCircle
 62
7
  6
CONTINUOUS
 10
16.9051831218
 20
5.3406247044
 40
0.024
100
AcDbArc
 50
270.0
 51
347.0
  0
ARC
  5
2CE
100
AcDbEntity
  8
0
100
AcDbCircle
 62
7
  6
CONTINUOUS
 10
16.7155273921
 20
5.3406247044
 40
0.024
100
AcDbArc
 50
193.0
 51
270.0
  0
ARC
  5
2CF
100
AcDbEntity
  8
0
100
AcDbCircle
 62
7
  6
CONTINUOUS
 10
16.4051831218
 20
5.3406247044
 40
0.024
100
AcDbArc
 50
270.0
 51
347.0
  0
ARC
  5
2D0
100
AcDbEntity
  8
0
100
AcDbCircle
 62
7
  6
CONTINUOUS
 10
16.2155273921
 20
5.3406247044
 40
0.024
100
AcDbArc
 50
193.0
 51
270.0
  0
ARC
  5
2D1
100
AcDbEntity
  8
0
100
AcDbCircle
 62
7
  6
CONTINUOUS
 10
15.9051831218
 20
5.3406247044
 40
0.024
100
AcDbArc
 50
270.0
 51
347.0
  0
ARC
  5
2D2
100
AcDbEntity
  8
0
100
AcDbCircle
 62
7
  6
CONTINUOUS
 10
15.7155273921
 20
5.3406247044
 40
0.024
100
AcDbArc
 50
193.0
 51
270.0
  0
ARC
  5
2D3
100
AcDbEntity
  8
0
100
AcDbCircle
 62
7
  6
CONTINUOUS
 10
17.4655273921
 20
5.3886247044
 40
0.024
100
AcDbArc
 50
90.0
 51
167.0
  0
ARC
  5
2D4
100
AcDbEntity
  8
0
100
AcDbCircle
 62
7
  6
CONTINUOUS
 10
17.1551831218
 20
5.3886247044
 40
0.024
100
AcDbArc
 50
13.0
 51
90.0
  0
ARC
  5
2D5
100
AcDbEntity
  8
0
100
AcDbCircle
 62
7
  6
CONTINUOUS
 10
16.9655273921
 20
5.3886247044
 40
0.024
100
AcDbArc
 50
90.0
 51
167.0
  0
ARC
  5
2D6
100
AcDbEntity
  8
0
100
AcDbCircle
 62
7
  6
CONTINUOUS
 10
16.6551831218
 20
5.3886247044
 40
0.024
100
AcDbArc
 50
13.0
 51
90.0
  0
ARC
  5
2D7
100
AcDbEntity
  8
0
100
AcDbCircle
 62
7
  6
CONTINUOUS
 10
16.4655273921
 20
5.3886247044
 40
0.024
100
AcDbArc
 50
90.0
 51
167.0
  0
ARC
  5
2D8
100
AcDbEntity
  8
0
100
AcDbCircle
 62
7
  6
CONTINUOUS
 10
16.1551831218
 20
5.3886247044
 40
0.024
100
AcDbArc
 50
13.0
 51
90.0
  0
ARC
  5
2D9
100
AcDbEntity
  8
0
100
AcDbCircle
 62
7
  6
CONTINUOUS
 10
15.9655273921
 20
5.3886247044
 40
0.024
100
AcDbArc
 50
90.0
 51
167.0
  0
ARC
  5
2DA
100
AcDbEntity
  8
0
100
AcDbCircle
 62
7
  6
CONTINUOUS
 10
15.6551831218
 20
5.3886247044
 40
0.024
100
AcDbArc
 50
13.0
 51
90.0
  0
ARC
  5
2DB
100
AcDbEntity
  8
0
100
AcDbCircle
 62
7
  6
CONTINUOUS
 10
15.5854903543
 20
11.1098354649
 40
0.0250156373
100
AcDbArc
 50
342.8340829188
 51
2.5966531662
  0
ARC
  5
2DC
100
AcDbEntity
  8
0
100
AcDbCircle
 62
7
  6
CONTINUOUS
 10
15.706523516
 20
11.5014989197
 40
0.0250156373
100
AcDbArc
 50
342.8340829188
 51
2.5966531662
  0
ARC
  5
2DD
100
AcDbEntity
  8
0
100
AcDbCircle
 62
7
  6
CONTINUOUS
 10
15.8275566777
 20
11.8931623745
 40
0.0250156373
100
AcDbArc
 50
342.8340829189
 51
2.5966531663
  0
ARC
  5
2DE
100
AcDbEntity
  8
0
100
AcDbCircle
 62
7
  6
CONTINUOUS
 10
15.9485898394
 20
12.2848258293
 40
0.0250156373
100
AcDbArc
 50
342.8340829187
 51
2.5966531663
  0
ARC
  5
2DF
100
AcDbEntity
  8
0
100
AcDbCircle
 62
7
  6
CONTINUOUS
 10
16.0696230011
 20
12.6764892842
 40
0.0250156373
100
AcDbArc
 50
342.8340829188
 51
2.5966531662
  0
ARC
  5
2E0
100
AcDbEntity
  8
0
100
AcDbCircle
 62
7
  6
CONTINUOUS
 10
16.1906561628
 20
13.068152739
 40
0.0250156373
100
AcDbArc
 50
342.8340829187
 51
2.5966531663
  0
ARC
  5
2E1
100
AcDbEntity
  8
0
100
AcDbCircle
 62
7
  6
CONTINUOUS
 10
16.3116893245
 20
13.4598161938
 40
0.0250156373
100
AcDbArc
 50
342.8340829188
 51
2.5966531663
  0
ARC
  5
2E2
100
AcDbEntity
  8
0
100
AcDbCircle
 62
7
  6
CONTINUOUS
 10
16.4327315619
 20
13.8514771705
 40
0.0250062762
100
AcDbArc
 50
342.8399319797
 51
2.5999779298
  0
ARC
  5
2E3
100
AcDbEntity
  8
0
100
AcDbCircle
 62
7
  6
CONTINUOUS
 10
15.5400002669
 20
10.9625016587
 40
0.0249766499
100
AcDbArc
 50
303.7362624456
 51
342.8484797818
  0
ARC
  5
2E4
100
AcDbEntity
  8
0
100
AcDbCircle
 62
7
  6
CONTINUOUS
 10
15.6610334286
 20
11.3541651135
 40
0.0249766499
100
AcDbArc
 50
303.7362624456
 51
342.8484797818
  0
ARC
  5
2E5
100
AcDbEntity
  8
0
100
AcDbCircle
 62
7
  6
CONTINUOUS
 10
15.7820665903
 20
11.7458285683
 40
0.0249766499
100
AcDbArc
 50
303.7362624456
 51
342.848479782
  0
ARC
  5
2E6
100
AcDbEntity
  8
0
100
AcDbCircle
 62
7
  6
CONTINUOUS
 10
15.903099752
 20
12.1374920231
 40
0.0249766499
100
AcDbArc
 50
303.7362624456
 51
342.848479782
  0
ARC
  5
2E7
100
AcDbEntity
  8
0
100
AcDbCircle
 62
7
  6
CONTINUOUS
 10
16.0241329137
 20
12.5291554779
 40
0.0249766499
100
AcDbArc
 50
303.7362624456
 51
342.8484797818
  0
ARC
  5
2E8
100
AcDbEntity
  8
0
100
AcDbCircle
 62
7
  6
CONTINUOUS
 10
16.1451660754
 20
12.9208189327
 40
0.0249766499
100
AcDbArc
 50
303.7362624456
 51
342.848479782
  0
ARC
  5
2E9
100
AcDbEntity
  8
0
100
AcDbCircle
 62
7
  6
CONTINUOUS
 10
16.2661992371
 20
13.3124823876
 40
0.0249766499
100
AcDbArc
 50
303.7362624456
 51
342.848479782
  0
ARC
  5
2EA
100
AcDbEntity
  8
0
100
AcDbCircle
 62
7
  6
CONTINUOUS
 10
16.3872323988
 20
13.7041458424
 40
0.0249766499
100
AcDbArc
 50
303.7362624456
 51
342.8484797818
  0
SPLINE
  5
2EB
100
AcDbEntity
  8
0
100
AcDbSpline
 62
7
  6
CONTINUOUS
 70
0
 71
3
 72
15
 73
11
 74
0
 42
0.0000001
 43
0.0000001
 44
0.0000000001
 40
0.0
 40
0.0
 40
0.0
 40
0.0
 40
0.1295682435
 40
0.2645752357
 40
0.4012659537
 40
0.5362717361
 40
0.666215832
 40
0.7881014873
 40
0.8998146287
 40
1.0
 40
1.0
 40
1.0
 40
1.0
 10
16.4314869093
 20
14.1371333691
 30
0.0
 10
16.4330351646
 20
14.1371333691
 30
0.0
 10
16.4361991116
 20
14.1369181456
 30
0.0
 10
16.4409216257
 20
14.136034249
 30
0.0
 10
16.4455779373
 20
14.1346067983
 30
0.0
 10
16.4499898119
 20
14.13269148
 30
0.0
 10
16.453996004
 20
14.1303627888
 30
0.0
 10
16.4574480856
 20
14.127701451
 30
0.0
 10
16.4602139427
 20
14.1248054103
 30
0.0
 10
16.4616120855
 20
14.1226678387
 30
0.0
 10
16.4621394808
 20
14.1215931199
 30
0.0
  0
SPLINE
  5
2EC
100
AcDbEntity
  8
0
100
AcDbSpline
 62
7
  6
CONTINUOUS
 70
0
 71
3
 72
15
 73
11
 74
0
 42
0.0000001
 43
0.0000001
 44
0.0000000001
 40
0.0
 40
0.0
 40
0.0
 40
0.0
 40
0.0996462736
 40
0.202872222
 40
0.3125945218
 40
0.4308577779
 40
0.558816269
 40
0.6968321213
 40
0.8443986745
 40
1.0
 40
1.0
 40
1.0
 40
1.0
 10
15.4250868539
 20
14.1289743117
 30
0.0
 10
15.4252769691
 20
14.1295895544
 30
0.0
 10
15.4258156064
 20
14.1308004998
 30
0.0
 10
15.4270465946
 20
14.1324214473
 30
0.0
 10
15.428669986
 20
14.1338366135
 30
0.0
 10
15.4306541577
 20
14.13502067
 30
0.0
 10
15.4329617039
 20
14.1359593001
 30
0.0
 10
15.4355533152
 20
14.1366380301
 30
0.0
 10
15.4383801856
 20
14.1370456886
 30
0.0
 10
15.4403407943
 20
14.1371333691
 30
0.0
 10
15.4413463408
 20
14.1371333691
 30
0.0
  0
SPLINE
  5
2ED
100
AcDbEntity
  8
0
100
AcDbSpline
 62
7
  6
CONTINUOUS
 70
0
 71
3
 72
11
 73
7
 74
0
 42
0.0000001
 43
0.0000001
 44
0.0000000001
 40
0.0
 40
0.0
 40
0.0
 40
0.0
 40
0.2336952109
 40
0.4747285566
 40
0.7289544945
 40
1.0
 40
1.0
 40
1.0
 40
1.0
 10
14.4568215603
 20
10.9956666732
 30
0.0
 10
14.4566467055
 20
10.9951008154
 30
0.0
 10
14.456416393
 20
10.9939086669
 30
0.0
 10
14.4564586777
 20
10.9920493881
 30
0.0
 10
14.4568764881
 20
10.9901422149
 30
0.0
 10
14.4573779535
 20
10.988902147
 30
0.0
 10
14.457680569
 20
10.9882854814
 30
0.0
  0
SPLINE
  5
2EE
100
AcDbEntity
  8
0
100
AcDbSpline
 62
7
  6
CONTINUOUS
 70
0
 71
3
 72
9
 73
5
 74
0
 42
0.0000001
 43
0.0000001
 44
0.0000000001
 40
0.0
 40
0.0
 40
0.0
 40
0.0
 40
0.5155721153
 40
1.0
 40
1.0
 40
1.0
 40
1.0
 10
16.4730009355
 20
14.0994598024
 30
0.0
 10
16.4741164244
 20
14.0971866751
 30
0.0
 10
16.4759954504
 20
14.0926292
 30
0.0
 10
16.4771524135
 20
14.0878298883
 30
0.0
 10
16.4775022111
 20
14.0854766206
 30
0.0
  0
SPLINE
  5
2EF
100
AcDbEntity
  8
0
100
AcDbSpline
 62
7
  6
CONTINUOUS
 70
0
 71
3
 72
14
 73
10
 74
0
 42
0.0000001
 43
0.0000001
 44
0.0000000001
 40
0.0
 40
0.0
 40
0.0
 40
0.0
 40
0.1556082587
 40
0.3032493744
 40
0.5688432099
 40
0.6871577655
 40
0.7968877355
 40
0.9001725564
 40
1.0
 40
1.0
 40
1.0
 40
1.0
 10
15.5009828118
 20
10.8844766167
 30
0.0
 10
15.5019878248
 20
10.8844766167
 30
0.0
 10
15.5039487062
 20
10.8845645128
 30
0.0
 10
15.5075866694
 20
10.8850892224
 30
0.0
 10
15.5109075788
 20
10.8861333509
 30
0.0
 10
15.5136580245
 20
10.8877720625
 30
0.0
 10
15.5152817626
 20
10.8891865054
 30
0.0
 10
15.5165127451
 20
10.8908079297
 30
0.0
 10
15.5170516886
 20
10.89201975
 30
0.0
 10
15.5172413656
 20
10.8926359648
 30
0.0
  0
SPLINE
  5
2F0
100
AcDbEntity
  8
0
100
AcDbSpline
 62
7
  6
CONTINUOUS
 70
0
 71
3
 72
15
 73
11
 74
0
 42
0.0000001
 43
0.0000001
 44
0.0000000001
 40
0.0
 40
0.0
 40
0.0
 40
0.0
 40
0.1089080809
 40
0.226616608
 40
0.3512070071
 40
0.4806317429
 40
0.6126742094
 40
0.7449591697
 40
0.8750052597
 40
1.0
 40
1.0
 40
1.0
 40
1.0
 10
14.5241090119
 20
10.8965210705
 30
0.0
 10
14.5248446179
 20
10.8956377929
 30
0.0
 10
14.5265252489
 20
10.8939225
 30
0.0
 10
14.5294425506
 20
10.8916224013
 30
0.0
 10
14.5327881292
 20
10.8895578781
 30
0.0
 10
14.5364628226
 20
10.8877819333
 30
0.0
 10
14.5403693021
 20
10.8863453897
 30
0.0
 10
14.5444008902
 20
10.885283865
 30
0.0
 10
14.5484432708
 20
10.8846339313
 30
0.0
 10
14.5511366642
 20
10.8844766167
 30
0.0
 10
14.5524559279
 20
10.8844766167
 30
0.0
  0
SPLINE
  5
2F1
100
AcDbEntity
  8
0
100
AcDbSpline
 62
7
  6
CONTINUOUS
 70
0
 71
3
 72
9
 73
5
 74
0
 42
0.0000001
 43
0.0000001
 44
0.0000000001
 40
0.0
 40
0.0
 40
0.0
 40
0.0
 40
0.2380066516
 40
1.0
 40
1.0
 40
1.0
 40
1.0
 10
14.4685420236
 20
10.9661521639
 30
0.0
 10
14.4691282726
 20
10.9649575141
 30
0.0
 10
14.4717642804
 20
10.9600232758
 30
0.0
 10
14.4750381713
 20
10.9554427915
 30
0.0
 10
14.4777646459
 20
10.9521689821
 30
0.0
  0
SPLINE
  5
2F2
100
AcDbEntity
  8
0
100
AcDbSpline
 62
7
  6
CONTINUOUS
 70
0
 71
3
 72
15
 73
11
 74
0
 42
0.0000001
 43
0.0000001
 44
0.0000000001
 40
0.0
 40
0.0
 40
0.0
 40
0.0
 40
0.1556013255
 40
0.3031678787
 40
0.441183731
 40
0.5691422221
 40
0.6874054782
 40
0.797127778
 40
0.9003537264
 40
1.0
 40
1.0
 40
1.0
 40
1.0
 10
14.4730810471
 20
11.0038257306
 30
0.0
 10
14.4720755007
 20
11.0038257306
 30
0.0
 10
14.4701148919
 20
11.0037380501
 30
0.0
 10
14.4672880215
 20
11.0033303916
 30
0.0
 10
14.4646964103
 20
11.0026516616
 30
0.0
 10
14.4623888641
 20
11.0017130315
 30
0.0
 10
14.4604046924
 20
11.000528975
 30
0.0
 10
14.458781301
 20
10.9991138088
 30
0.0
 10
14.4575503128
 20
10.9974928613
 30
0.0
 10
14.4570116755
 20
10.9962819159
 30
0.0
 10
14.4568215603
 20
10.9956666732
 30
0.0
  0
SPLINE
  5
2F3
100
AcDbEntity
  8
0
100
AcDbSpline
 62
7
  6
CONTINUOUS
 70
0
 71
3
 72
9
 73
5
 74
0
 42
0.0000001
 43
0.0000001
 44
0.0000000001
 40
0.0
 40
0.0
 40
0.0
 40
0.0
 40
0.4844278847
 40
1.0
 40
1.0
 40
1.0
 40
1.0
 10
15.5092369175
 20
10.9521689821
 30
0.0
 10
15.5088871199
 20
10.9545222498
 30
0.0
 10
15.5077301568
 20
10.9593215615
 30
0.0
 10
15.5058511307
 20
10.9638790366
 30
0.0
 10
15.5047356419
 20
10.9661521639
 30
0.0
  0
SPLINE
  5
2F4
100
AcDbEntity
  8
0
100
AcDbSpline
 62
7
  6
CONTINUOUS
 70
0
 71
3
 72
15
 73
11
 74
0
 42
0.0000001
 43
0.0000001
 44
0.0000000001
 40
0.0
 40
0.0
 40
0.0
 40
0.0
 40
0.1001853713
 40
0.2118985127
 40
0.333784168
 40
0.4637282639
 40
0.5987340463
 40
0.7354247643
 40
0.8704317565
 40
1.0
 40
1.0
 40
1.0
 40
1.0
 10
15.4938741872
 20
10.9882854814
 30
0.0
 10
15.4933467918
 20
10.9893602002
 30
0.0
 10
15.4919486491
 20
10.9914977718
 30
0.0
 10
15.4891827919
 20
10.9943938125
 30
0.0
 10
15.4857307103
 20
10.9970551503
 30
0.0
 10
15.4817245183
 20
10.9993838415
 30
0.0
 10
15.4773126437
 20
11.0012991598
 30
0.0
 10
15.4726563321
 20
11.0027266105
 30
0.0
 10
15.4679338179
 20
11.0036105071
 30
0.0
 10
15.4647698709
 20
11.0038257306
 30
0.0
 10
15.4632216157
 20
11.0038257306
 30
0.0
  0
ENDSEC
  0
SECTION
  2
OBJECTS
  0
DICTIONARY
  5
C
100
AcDbDictionary
280
0
281
1
  3
ACAD_GROUP
350
D
  3
ACAD_MLINESTYLE
350
17
  3
ACAD_LAYOUT
350
1A
  3
ACAD_PLOTSETTINGS
350
19
  3
ACAD_PLOTSTYLENAME
350
E
  0
DICTIONARY
  5
D
102
{ACAD_REACTORS
330
C
102
}
100
AcDbDictionary
280
0
281
1
  0
ACDBDICTIONARYWDFLT
  5
E
102
{ACAD_REACTORS
330
C
102
}
100
AcDbDictionary
281
1
  3
Normal
350
F
100
AcDbDictionaryWithDefault
340
F
  0
DICTIONARY
  5
17
102
{ACAD_REACTORS
330
C
102
}
100
AcDbDictionary
280
0
281
1
  3
Standard
350
18
  0
DICTIONARY
  5
19
102
{ACAD_REACTORS
330
C
102
}
100
AcDbDictionary
281
1
  0
DICTIONARY
  5
1A
102
{ACAD_REACTORS
330
C
102
}
100
AcDbDictionary
281
1
  3
Model
350
2F5
  3
Layout1
350
2F6
  0
ACDBPLACEHOLDER
  5
F
102
{ACAD_REACTORS
330
E
102
}
  0
MLINESTYLE
  5
18
102
{ACAD_REACTORS
330
17
102
}
100
AcDbMlineStyle
  2
STANDARD
 70
0
  3

 62
256
 51
90.0
 52
90.0
 71
2
 49
0.5
 62
256
  6
BYLAYER
 49
-0.5
 62
256
  6
BYLAYER
  0
LAYOUT
  5
2F5
102
{ACAD_REACTORS
330
1A
102
}
100
AcDbPlotSettings
  1

  2
none_device
  4
ANSI_C_(22.00_x_17.00_Inches)
  6

 40
0.0
 41
0.0
 42
0.0
 43
0.0
 44
558.8
 45
431.8
 46
0.0
 47
0.0
 48
0.0
 49
0.0
140
0.0
141
0.0
142
1.0
143
1.0
 70
1024
 72
0
 73
0
 74
0
  7

 75
0
147
1.0
148
0.0
149
0.0
100
AcDbLayout
  1
Model
 70
0
 71
0
 10
0.0
 20
0.0
 11
22.0
 21
17.0
 12
0.0
 22
0.0
 32
0.0
 14
0.0
 24
0.0
 34
0.0
 15
0.0
 25
0.0
 35
0.0
146
0.0
 13
0.0
 23
0.0
 33
0.0
 16
1.0
 26
0.0
 36
0.0
 17
0.0
 27
1.0
 37
0.0
 76
0
330
216
345
0
346
0
  0
LAYOUT
  5
2F6
102
{ACAD_REACTORS
330
1A
102
}
100
AcDbPlotSettings
  1

  2
none_device
  4
ANSI_C_(22.00_x_17.00_Inches)
  6

 40
0.0
 41
0.0
 42
0.0
 43
0.0
 44
558.8
 45
431.8
 46
0.0
 47
0.0
 48
0.0
 49
0.0
140
0.0
141
0.0
142
1.0
143
1.0
 70
0
 72
0
 73
0
 74
0
  7

 75
0
147
1.0
148
0.0
149
0.0
100
AcDbLayout
  1
Layout1
 70
0
 71
1
 10
0.0
 20
0.0
 11
22.0
 21
17.0
 12
0.0
 22
0.0
 32
0.0
 14
0.0
 24
0.0
 34
0.0
 15
0.0
 25
0.0
 35
0.0
146
0.0
 13
0.0
 23
0.0
 33
0.0
 16
1.0
 26
0.0
 36
0.0
 17
0.0
 27
1.0
 37
0.0
 76
0
330
217
345
0
346
0
  0
ENDSEC
  0
EOF