999
DXF file: _cgs_temp_output.dxf
999
Pro/ENGINEER 2016360 by Parametric Technology Corporation
  0
SECTION
  2
HEADER
  9
$ACADVER
  1
AC1021
  9
$DWGCODEPAGE
  3
ANSI_1252
  9
$EXTMAX
 10
22.0
 20
17.0
 30
0.0
  9
$EXTMIN
 10
0.0
 20
0.0
 30
0.0
  9
$LIMMIN
 10
0.0
 20
0.0
  9
$LIMMAX
 10
22.0
 20
17.0
  9
$VIEWCTR
 10
11.0
 20
8.5
  9
$VIEWSIZE
 40
17.0
  9
$CLAYER
  8
0
  9
$LTSCALE
 40
1.21
  9
$CELTYPE
  6
BYLAYER
  9
$DIMSCALE
 40
1.0
  9
$DIMASZ
 40
0.1875
  9
$DIMEXO
 40
0.0625
  9
$DIMDLI
 40
0.836
  9
$DIMEXE
 40
0.125
  9
$DIMCEN
 40
0.198
  9
$DIMLFAC
 40
1.0
  9
$DIMBLK
  1
_CLOSED
  9
$DIMALT
 70
0
  9
$DIMALTF
 40
25.4
  9
$DIMTXT
 40
0.15625
  9
$DIMTOL
 70
0
  9
$DIMLIM
 70
0
  9
$DIMTFAC
 40
1.0
  9
$DIMGAP
 40
0.09
  9
$DIMDSEP
 70
46
  9
$AUNITS
 70
0
  9
$PDMODE
 70
3
  9
$PDSIZE
 40
0.3125
  9
$HANDSEED
  5
30E
  9
$TILEMODE
 70
1
  9
$MEASUREMENT
 70
0
  9
$INSUNITS
 70
1
  0
ENDSEC
  0
SECTION
  2
CLASSES
  0
CLASS
  1
ACDBDICTIONARYWDFLT
  2
AcDbDictionaryWithDefault
  3
AutoCAD 2000
 90
0
 91
1
280
0
281
0
  0
CLASS
  1
ACDBPLACEHOLDER
  2
AcDbPlaceHolder
  3
AutoCAD 2000
 90
0
 91
1
280
0
281
0
  0
CLASS
  1
LAYOUT
  2
AcDbLayout
  3
AutoCAD 2000
 90
0
 91
0
280
0
281
0
  0
ENDSEC
  0
SECTION
  2
TABLES
  0
TABLE
  2
VPORT
  5
8
100
AcDbSymbolTable
 70
2
  0
VPORT
  5
1F4
100
AcDbSymbolTableRecord
100
AcDbViewportTableRecord
  2
*ACTIVE
 70
0
 10
0.0
 20
0.0
 11
1.0
 21
1.0
 12
11.0
 22
8.5
 13
0.0
 23
0.0
 14
1.0
 24
1.0
 15
0.0
 25
0.0
 16
0.0
 26
0.0
 36
1.0
 17
0.0
 27
0.0
 37
0.0
 40
17.0
 41
1.2941176471
 42
50.0
 43
0.0
 44
0.0
 50
0.0
 51
0.0
 71
0
 72
100
 73
1
 74
1
 75
0
 76
0
 77
0
 78
0
  0
ENDTAB
  0
TABLE
  2
LTYPE
  5
5
100
AcDbSymbolTable
 70
6
  0
LTYPE
  5
14
100
AcDbSymbolTableRecord
100
AcDbLinetypeTableRecord
  2
BYBLOCK
 70
0
  3

 72
65
 73
0
 40
0.0
  0
LTYPE
  5
15
100
AcDbSymbolTableRecord
100
AcDbLinetypeTableRecord
  2
BYLAYER
 70
0
  3

 72
65
 73
0
 40
0.0
  0
LTYPE
  5
16
100
AcDbSymbolTableRecord
100
AcDbLinetypeTableRecord
  2
CONTINUOUS
 70
64
  3
Solid line
 72
65
 73
0
 40
0.0
  0
LTYPE
  5
1F5
100
AcDbSymbolTableRecord
100
AcDbLinetypeTableRecord
  2
CENTER
 70
64
  3
____ _ ____ _ ____ _ ____ _ ____ _ ____ _ ____
 72
65
 73
4
 40
0.6
 49
0.375
 74
0
 49
-0.075
 74
0
 49
0.075
 74
0
 49
-0.075
 74
0
  0
LTYPE
  5
1F6
100
AcDbSymbolTableRecord
100
AcDbLinetypeTableRecord
  2
HIDDEN
 70
64
  3
- - - - - - - - - - - - - - - - - - - -
 72
65
 73
2
 40
0.2
 49
0.1
 74
0
 49
-0.1
 74
0
  0
LTYPE
  5
1F7
100
AcDbSymbolTableRecord
100
AcDbLinetypeTableRecord
  2
PHANTOM
 70
64
  3
_____ _ _ _____ _ _ _____ _ _ _____
 72
65
 73
6
 40
0.8
 49
0.45
 74
0
 49
-0.05
 74
0
 49
0.1
 74
0
 49
-0.05
 74
0
 49
0.1
 74
0
 49
-0.05
 74
0
  0
LTYPE
  5
1F8
100
AcDbSymbolTableRecord
100
AcDbLinetypeTableRecord
  2
DOT
 70
64
  3
. . . . . . . . . . . . . . . . . . . .
 72
65
 73
2
 40
0.2
 49
0.1
 74
0
 49
-0.1
 74
0
  0
LTYPE
  5
1F9
100
AcDbSymbolTableRecord
100
AcDbLinetypeTableRecord
  2
DASHED
 70
64
  3
- - - - - - - - - - - - - - - - - - - -
 72
65
 73
2
 40
0.2
 49
0.1
 74
0
 49
-0.1
 74
0
  0
ENDTAB
  0
TABLE
  2
LAYER
  5
2
100
AcDbSymbolTable
 70
36
  0
LAYER
  5
10
100
AcDbSymbolTableRecord
100
AcDbLayerTableRecord
  2
0
 70
0
 62
7
  6
CONTINUOUS
370
-3
390
F
  0
LAYER
  5
1FA
100
AcDbSymbolTableRecord
100
AcDbLayerTableRecord
  2
DEFAULT_1
 70
0
 62
7
  6
CENTER
370
-3
390
F
  0
LAYER
  5
1FB
100
AcDbSymbolTableRecord
100
AcDbLayerTableRecord
  2
DEFAULT_2
 70
0
 62
8
  6
HIDDEN
370
-3
390
F
  0
LAYER
  5
1FC
100
AcDbSymbolTableRecord
100
AcDbLayerTableRecord
  2
DEFAULT_3
 70
0
 62
7
  6
PHANTOM
370
-3
390
F
  0
LAYER
  5
1FD
100
AcDbSymbolTableRecord
100
AcDbLayerTableRecord
  2
01_ALL_DTM_PLN
 70
0
 62
7
  6
CONTINUOUS
370
-3
390
F
  0
LAYER
  5
1FE
100
AcDbSymbolTableRecord
100
AcDbLayerTableRecord
  2
01__ASM_ALL_DTM_PLN
 70
0
 62
7
  6
CONTINUOUS
370
-3
390
F
  0
LAYER
  5
1FF
100
AcDbSymbolTableRecord
100
AcDbLayerTableRecord
  2
01__ASM_DEF_DTM_PLN
 70
0
 62
7
  6
CONTINUOUS
370
-3
390
F
  0
LAYER
  5
200
100
AcDbSymbolTableRecord
100
AcDbLayerTableRecord
  2
01___PRT_ALL_DTM_PLN
 70
0
 62
7
  6
CONTINUOUS
370
-3
390
F
  0
LAYER
  5
201
100
AcDbSymbolTableRecord
100
AcDbLayerTableRecord
  2
01___PRT_DEF_DTM_PLN
 70
0
 62
7
  6
CONTINUOUS
370
-3
390
F
  0
LAYER
  5
202
100
AcDbSymbolTableRecord
100
AcDbLayerTableRecord
  2
02_ALL_AXES
 70
0
 62
7
  6
CONTINUOUS
370
-3
390
F
  0
LAYER
  5
203
100
AcDbSymbolTableRecord
100
AcDbLayerTableRecord
  2
02__ASM_ALL_AXES
 70
0
 62
7
  6
CONTINUOUS
370
-3
390
F
  0
LAYER
  5
204
100
AcDbSymbolTableRecord
100
AcDbLayerTableRecord
  2
02___PRT_ALL_AXES
 70
0
 62
7
  6
CONTINUOUS
370
-3
390
F
  0
LAYER
  5
205
100
AcDbSymbolTableRecord
100
AcDbLayerTableRecord
  2
03_ALL_CURVES
 70
0
 62
7
  6
CONTINUOUS
370
-3
390
F
  0
LAYER
  5
206
100
AcDbSymbolTableRecord
100
AcDbLayerTableRecord
  2
03__ASM_ALL_CURVES
 70
0
 62
7
  6
CONTINUOUS
370
-3
390
F
  0
LAYER
  5
207
100
AcDbSymbolTableRecord
100
AcDbLayerTableRecord
  2
03___PRT_ALL_CURVES
 70
0
 62
7
  6
CONTINUOUS
370
-3
390
F
  0
LAYER
  5
208
100
AcDbSymbolTableRecord
100
AcDbLayerTableRecord
  2
04_ALL_DTM_PNT
 70
0
 62
7
  6
CONTINUOUS
370
-3
390
F
  0
LAYER
  5
209
100
AcDbSymbolTableRecord
100
AcDbLayerTableRecord
  2
04__ASM_ALL_DTM_PNT
 70
0
 62
7
  6
CONTINUOUS
370
-3
390
F
  0
LAYER
  5
20A
100
AcDbSymbolTableRecord
100
AcDbLayerTableRecord
  2
04___PRT_ALL_DTM_PNT
 70
0
 62
7
  6
CONTINUOUS
370
-3
390
F
  0
LAYER
  5
20B
100
AcDbSymbolTableRecord
100
AcDbLayerTableRecord
  2
05_ALL_DTM_CSYS
 70
0
 62
7
  6
CONTINUOUS
370
-3
390
F
  0
LAYER
  5
20C
100
AcDbSymbolTableRecord
100
AcDbLayerTableRecord
  2
05__ASM_ALL_DTM_CSYS
 70
0
 62
7
  6
CONTINUOUS
370
-3
390
F
  0
LAYER
  5
20D
100
AcDbSymbolTableRecord
100
AcDbLayerTableRecord
  2
05__ASM_DEF_DTM_CSYS
 70
0
 62
7
  6
CONTINUOUS
370
-3
390
F
  0
LAYER
  5
20E
100
AcDbSymbolTableRecord
100
AcDbLayerTableRecord
  2
05___PRT_ALL_DTM_CSYS
 70
0
 62
7
  6
CONTINUOUS
370
-3
390
F
  0
LAYER
  5
20F
100
AcDbSymbolTableRecord
100
AcDbLayerTableRecord
  2
05___PRT_DEF_DTM_CSYS
 70
0
 62
7
  6
CONTINUOUS
370
-3
390
F
  0
LAYER
  5
210
100
AcDbSymbolTableRecord
100
AcDbLayerTableRecord
  2
06_ALL_SURFS
 70
0
 62
7
  6
CONTINUOUS
370
-3
390
F
  0
LAYER
  5
211
100
AcDbSymbolTableRecord
100
AcDbLayerTableRecord
  2
06__ASM_ALL_SURFS
 70
0
 62
7
  6
CONTINUOUS
370
-3
390
F
  0
LAYER
  5
212
100
AcDbSymbolTableRecord
100
AcDbLayerTableRecord
  2
06___PRT_ALL_SURFS
 70
0
 62
7
  6
CONTINUOUS
370
-3
390
F
  0
LAYER
  5
213
100
AcDbSymbolTableRecord
100
AcDbLayerTableRecord
  2
07__ASM_ALL_SKELETONS
 70
0
 62
7
  6
CONTINUOUS
370
-3
390
F
  0
ENDTAB
  0
TABLE
  2
STYLE
  5
3
100
AcDbSymbolTable
 70
1
  0
STYLE
  5
11
100
AcDbSymbolTableRecord
100
AcDbTextStyleTableRecord
  2
STANDARD
 70
0
 40
0.0
 41
0.8
 50
0.0
 71
0
 42
0.2
  3
txt
  4

  0
STYLE
  5
214
100
AcDbSymbolTableRecord
100
AcDbTextStyleTableRecord
  2
TEXTSTYLE_1
 70
0
 40
0.0
 41
0.8
 50
0.0
 71
0
 42
0.2
  3
gdt
  4

  0
ENDTAB
  0
TABLE
  2
VIEW
  5
6
100
AcDbSymbolTable
 70
0
  0
ENDTAB
  0
TABLE
  2
UCS
  5
7
100
AcDbSymbolTable
 70
0
  0
ENDTAB
  0
TABLE
  2
APPID
  5
9
100
AcDbSymbolTable
 70
1
  0
APPID
  5
215
100
AcDbSymbolTableRecord
100
AcDbRegAppTableRecord
  2
ACAD
 70
0
  0
ENDTAB
  0
TABLE
  2
BLOCK_RECORD
  5
1
100
AcDbSymbolTable
 70
0
  0
BLOCK_RECORD
  5
216
100
AcDbSymbolTableRecord
100
AcDbBlockTableRecord
  2
*Model_Space
  0
BLOCK_RECORD
  5
217
100
AcDbSymbolTableRecord
100
AcDbBlockTableRecord
  2
*Paper_Space
  0
ENDTAB
  0
TABLE
  2
DIMSTYLE
  5
A
100
AcDbSymbolTable
 70
1
100
AcDbDimStyleTable
 71
0
  0
DIMSTYLE
105
218
100
AcDbSymbolTableRecord
100
AcDbDimStyleTableRecord
  2
STANDARD
 70
0
  3

  4

 40
1.0
 41
0.1875
 42
0.0625
 43
0.38
 44
0.125
 45
0.0
 46
0.0
 47
0.0001
 48
0.0001
140
0.15625
141
0.09
142
0.0
143
25.4
144
1.0
145
0.0
146
1.0
147
0.09
 71
0.0
 72
0.0
 73
1
 74
1
 75
0
 76
0
 77
0
 78
4
 79
1
170
0
171
3
172
0
173
0
174
0
175
0
176
0
177
0
178
0
270
2
179
4
271
4
272
4
273
2
274
2
275
0
280
0
281
0
282
0
283
1
284
4
285
0
286
0
287
3
288
0
340
11
278
46
  0
ENDTAB
  0
ENDSEC
  0
SECTION
  2
BLOCKS
  0
BLOCK
  5
20
100
AcDbEntity
  8
0
100
AcDbBlockBegin
  2
*Model_Space
 70
0
 10
0.0
 20
0.0
 30
0.0
  3
*Model_Space
  1

  0
ENDBLK
  5
21
100
AcDbEntity
  8
0
100
AcDbBlockEnd
  0
BLOCK
  5
1C
100
AcDbEntity
  8
0
100
AcDbBlockBegin
  2
*Paper_Space
 70
0
 10
0.0
 20
0.0
 30
0.0
  3
*Paper_Space
  1

  0
ENDBLK
  5
1D
100
AcDbEntity
  8
0
100
AcDbBlockEnd
  0
ENDSEC
  0
SECTION
  2
ENTITIES
  0
MTEXT
  5
219
100
AcDbEntity
  8
0
100
AcDbMText
 62
7
  6
CONTINUOUS
  7
STANDARD
 71
1
 72
1
 10
15.9560215477
 20
0.9479130325
 30
0.0
 11
1.0
 21
0.0
 31
0.0
 44
0.9
  1
SCALE: 1:1.000
 40
0.3
 41
3.36
  0
LINE
  5
21A
100
AcDbEntity
  8
0
100
AcDbLine
 62
7
  6
CONTINUOUS
 10
0.0
 20
0.0
 11
0.0
 21
17.0
  0
LINE
  5
21B
100
AcDbEntity
  8
0
100
AcDbLine
 62
7
  6
CONTINUOUS
 10
0.0
 20
0.0
 11
22.0
 21
0.0
  0
LINE
  5
21C
100
AcDbEntity
  8
0
100
AcDbLine
 62
7
  6
CONTINUOUS
 10
0.0
 20
17.0
 11
22.0
 21
17.0
  0
LINE
  5
21D
100
AcDbEntity
  8
0
100
AcDbLine
 62
7
  6
CONTINUOUS
 10
22.0
 20
0.0
 11
22.0
 21
17.0
  0
LINE
  5
21E
100
AcDbEntity
  8
0
100
AcDbLine
 62
7
  6
CONTINUOUS
 10
5.5678672762
 20
5.6791198968
 11
5.5678672762
 21
5.6261739802
  0
LINE
  5
21F
100
AcDbEntity
  8
0
100
AcDbLine
 62
7
  6
CONTINUOUS
 10
5.6418163115
 20
5.3542289629
 11
5.5717411066
 21
5.5986102446
  0
LINE
  5
220
100
AcDbEntity
  8
0
100
AcDbLine
 62
7
  6
CONTINUOUS
 10
5.6658478539
 20
5.3361198968
 11
6.5948866984
 21
5.3361198968
  0
LINE
  5
221
100
AcDbEntity
  8
0
100
AcDbLine
 62
7
  6
CONTINUOUS
 10
5.6306737532
 20
5.4587865634
 11
6.6300607991
 21
5.4587865634
  0
LINE
  5
222
100
AcDbEntity
  8
0
100
AcDbLine
 62
7
  6
CONTINUOUS
 10
6.6678672762
 20
5.7041198968
 11
5.5928672762
 21
5.7041198968
  0
LINE
  5
223
100
AcDbEntity
  8
0
100
AcDbLine
 62
7
  6
CONTINUOUS
 10
6.6189182408
 20
5.3542289629
 11
6.6889934458
 21
5.5986102446
  0
LINE
  5
224
100
AcDbEntity
  8
0
100
AcDbLine
 62
7
  6
CONTINUOUS
 10
6.6928672762
 20
5.6261739802
 11
6.6928672762
 21
5.6791198968
  0
LINE
  5
225
100
AcDbEntity
  8
0
100
AcDbLine
 62
7
  6
CONTINUOUS
 10
6.6333720839
 20
10.6000477814
 11
5.5083720839
 21
10.6000477814
  0
LINE
  5
226
100
AcDbEntity
  8
0
100
AcDbLine
 62
7
  6
CONTINUOUS
 10
5.5083720839
 20
10.6000477814
 11
5.5083720839
 21
14.6000477814
  0
LINE
  5
227
100
AcDbEntity
  8
0
100
AcDbLine
 62
7
  6
CONTINUOUS
 10
6.6333720839
 20
10.6000477814
 11
6.6333720839
 21
14.6000477814
  0
LINE
  5
228
100
AcDbEntity
  8
0
100
AcDbLine
 62
7
  6
CONTINUOUS
 10
5.5083720839
 20
14.6000477814
 11
6.6333720839
 21
14.6000477814
  0
LINE
  5
229
100
AcDbEntity
  8
0
100
AcDbLine
 62
7
  6
CONTINUOUS
 10
13.5603552569
 20
5.3992913711
 11
13.5603552569
 21
5.6446247044
  0
LINE
  5
22A
100
AcDbEntity
  8
0
100
AcDbLine
 62
7
  6
CONTINUOUS
 10
13.6766826551
 20
5.3755232034
 11
13.6940278588
 21
5.3003928721
  0
LINE
  5
22B
100
AcDbEntity
  8
0
100
AcDbLine
 62
7
  6
CONTINUOUS
 10
13.9266826551
 20
5.3003928721
 11
13.9440278588
 21
5.3755232034
  0
LINE
  5
22C
100
AcDbEntity
  8
0
100
AcDbLine
 62
7
  6
CONTINUOUS
 10
14.1766826551
 20
5.3755232034
 11
14.1940278588
 21
5.3003928721
  0
LINE
  5
22D
100
AcDbEntity
  8
0
100
AcDbLine
 62
7
  6
CONTINUOUS
 10
14.4266826551
 20
5.3003928721
 11
14.4440278588
 21
5.3755232034
  0
LINE
  5
22E
100
AcDbEntity
  8
0
100
AcDbLine
 62
7
  6
CONTINUOUS
 10
14.6766826551
 20
5.3755232034
 11
14.6940278588
 21
5.3003928721
  0
LINE
  5
22F
100
AcDbEntity
  8
0
100
AcDbLine
 62
7
  6
CONTINUOUS
 10
14.9266826551
 20
5.3003928721
 11
14.9440278588
 21
5.3755232034
  0
LINE
  5
230
100
AcDbEntity
  8
0
100
AcDbLine
 62
7
  6
CONTINUOUS
 10
15.1766826551
 20
5.3755232034
 11
15.1940278588
 21
5.3003928721
  0
LINE
  5
231
100
AcDbEntity
  8
0
100
AcDbLine
 62
7
  6
CONTINUOUS
 10
13.7239085408
 20
5.2766247044
 11
13.8968019731
 21
5.2766247044
  0
LINE
  5
232
100
AcDbEntity
  8
0
100
AcDbLine
 62
7
  6
CONTINUOUS
 10
14.2239085408
 20
5.2766247044
 11
14.3968019731
 21
5.2766247044
  0
LINE
  5
233
100
AcDbEntity
  8
0
100
AcDbLine
 62
7
  6
CONTINUOUS
 10
14.7239085408
 20
5.2766247044
 11
14.8968019731
 21
5.2766247044
  0
LINE
  5
234
100
AcDbEntity
  8
0
100
AcDbLine
 62
7
  6
CONTINUOUS
 10
15.2239085408
 20
5.2766247044
 11
15.3968019731
 21
5.2766247044
  0
LINE
  5
235
100
AcDbEntity
  8
0
100
AcDbLine
 62
7
  6
CONTINUOUS
 10
15.7239085408
 20
5.2766247044
 11
15.8968019731
 21
5.2766247044
  0
LINE
  5
236
100
AcDbEntity
  8
0
100
AcDbLine
 62
7
  6
CONTINUOUS
 10
16.2239085408
 20
5.2766247044
 11
16.3968019731
 21
5.2766247044
  0
LINE
  5
237
100
AcDbEntity
  8
0
100
AcDbLine
 62
7
  6
CONTINUOUS
 10
16.7239085408
 20
5.2766247044
 11
16.8968019731
 21
5.2766247044
  0
LINE
  5
238
100
AcDbEntity
  8
0
100
AcDbLine
 62
7
  6
CONTINUOUS
 10
17.2239085408
 20
5.2766247044
 11
17.3968019731
 21
5.2766247044
  0
LINE
  5
239
100
AcDbEntity
  8
0
100
AcDbLine
 62
7
  6
CONTINUOUS
 10
15.4266826551
 20
5.3003928721
 11
15.4440278588
 21
5.3755232034
  0
LINE
  5
23A
100
AcDbEntity
  8
0
100
AcDbLine
 62
7
  6
CONTINUOUS
 10
13.5603552569
 20
5.3992913711
 11
13.6468019731
 21
5.3992913711
  0
LINE
  5
23B
100
AcDbEntity
  8
0
100
AcDbLine
 62
7
  6
CONTINUOUS
 10
13.9739085408
 20
5.3992913711
 11
14.1468019731
 21
5.3992913711
  0
LINE
  5
23C
100
AcDbEntity
  8
0
100
AcDbLine
 62
7
  6
CONTINUOUS
 10
14.4739085408
 20
5.3992913711
 11
14.6468019731
 21
5.3992913711
  0
LINE
  5
23D
100
AcDbEntity
  8
0
100
AcDbLine
 62
7
  6
CONTINUOUS
 10
14.9739085408
 20
5.3992913711
 11
15.1468019731
 21
5.3992913711
  0
LINE
  5
23E
100
AcDbEntity
  8
0
100
AcDbLine
 62
7
  6
CONTINUOUS
 10
15.4739085408
 20
5.3992913711
 11
15.6468019731
 21
5.3992913711
  0
LINE
  5
23F
100
AcDbEntity
  8
0
100
AcDbLine
 62
7
  6
CONTINUOUS
 10
15.9739085408
 20
5.3992913711
 11
16.1468019731
 21
5.3992913711
  0
LINE
  5
240
100
AcDbEntity
  8
0
100
AcDbLine
 62
7
  6
CONTINUOUS
 10
16.4739085408
 20
5.3992913711
 11
16.6468019731
 21
5.3992913711
  0
LINE
  5
241
100
AcDbEntity
  8
0
100
AcDbLine
 62
7
  6
CONTINUOUS
 10
16.9739085408
 20
5.3992913711
 11
17.1468019731
 21
5.3992913711
  0
LINE
  5
242
100
AcDbEntity
  8
0
100
AcDbLine
 62
7
  6
CONTINUOUS
 10
17.4739085408
 20
5.3992913711
 11
17.5603552569
 21
5.3992913711
  0
LINE
  5
243
100
AcDbEntity
  8
0
100
AcDbLine
 62
7
  6
CONTINUOUS
 10
15.6766826551
 20
5.3755232034
 11
15.6940278588
 21
5.3003928721
  0
LINE
  5
244
100
AcDbEntity
  8
0
100
AcDbLine
 62
7
  6
CONTINUOUS
 10
13.5603552569
 20
5.6446247044
 11
17.5603552569
 21
5.6446247044
  0
LINE
  5
245
100
AcDbEntity
  8
0
100
AcDbLine
 62
7
  6
CONTINUOUS
 10
15.9266826551
 20
5.3003928721
 11
15.9440278588
 21
5.3755232034
  0
LINE
  5
246
100
AcDbEntity
  8
0
100
AcDbLine
 62
7
  6
CONTINUOUS
 10
16.1766826551
 20
5.3755232034
 11
16.1940278588
 21
5.3003928721
  0
LINE
  5
247
100
AcDbEntity
  8
0
100
AcDbLine
 62
7
  6
CONTINUOUS
 10
16.4266826551
 20
5.3003928721
 11
16.4440278588
 21
5.3755232034
  0
LINE
  5
248
100
AcDbEntity
  8
0
100
AcDbLine
 62
7
  6
CONTINUOUS
 10
16.6766826551
 20
5.3755232034
 11
16.6940278588
 21
5.3003928721
  0
LINE
  5
249
100
AcDbEntity
  8
0
100
AcDbLine
 62
7
  6
CONTINUOUS
 10
16.9266826551
 20
5.3003928721
 11
16.9440278588
 21
5.3755232034
  0
LINE
  5
24A
100
AcDbEntity
  8
0
100
AcDbLine
 62
7
  6
CONTINUOUS
 10
17.1766826551
 20
5.3755232034
 11
17.1940278588
 21
5.3003928721
  0
LINE
  5
24B
100
AcDbEntity
  8
0
100
AcDbLine
 62
7
  6
CONTINUOUS
 10
17.5603552569
 20
5.3992913711
 11
17.5603552569
 21
5.6446247044
  0
LINE
  5
24C
100
AcDbEntity
  8
0
100
AcDbLine
 62
7
  6
CONTINUOUS
 10
17.4266826551
 20
5.3003928721
 11
17.4440278588
 21
5.3755232034
  0
LINE
  5
24D
100
AcDbEntity
  8
0
100
AcDbLine
 62
7
  6
CONTINUOUS
 10
14.4846382347
 20
10.9548161449
 11
14.5539123339
 21
10.8791571269
  0
LWPOLYLINE
  5
24E
100
AcDbEntity
  8
0
100
AcDbPolyline
 62
7
  6
CONTINUOUS
 90
5
 70
0
 10
15.5378866229
 20
10.9081615387
 10
15.5445040191
 20
10.9090451485
 10
15.5510230586
 20
10.9118496598
 10
15.5561699692
 20
10.9159808966
 10
15.5599819266
 20
10.9210471708
  0
LINE
  5
24F
100
AcDbEntity
  8
0
100
AcDbLine
 62
7
  6
CONTINUOUS
 10
14.5815708736
 20
10.8679003509
 11
15.5020672994
 21
10.8679003509
  0
LINE
  5
250
100
AcDbEntity
  8
0
100
AcDbLine
 62
7
  6
CONTINUOUS
 10
15.5282469926
 20
10.9081612555
 11
15.5378924241
 21
10.9081612555
  0
LINE
  5
251
100
AcDbEntity
  8
0
100
AcDbLine
 62
7
  6
CONTINUOUS
 10
14.4565113861
 20
11.0048617472
 11
14.4726621073
 21
10.9719500377
  0
LINE
  5
252
100
AcDbEntity
  8
0
100
AcDbLine
 62
7
  6
CONTINUOUS
 10
15.4620524328
 20
11.0204019964
 11
14.4719118643
 21
11.0204019964
  0
LWPOLYLINE
  5
253
100
AcDbEntity
  8
0
100
AcDbPolyline
 62
7
  6
CONTINUOUS
 90
5
 70
0
 10
15.6589197846
 20
11.2998249935
 10
15.6655371808
 20
11.3007086033
 10
15.6720562203
 20
11.3035131147
 10
15.6772031309
 20
11.3076443514
 10
15.6810150883
 20
11.3127106256
  0
LINE
  5
254
100
AcDbEntity
  8
0
100
AcDbLine
 62
7
  6
CONTINUOUS
 10
15.6492801543
 20
11.2998247103
 11
15.6589255858
 21
11.2998247103
  0
LWPOLYLINE
  5
255
100
AcDbEntity
  8
0
100
AcDbPolyline
 62
7
  6
CONTINUOUS
 90
5
 70
0
 10
15.7799529463
 20
11.6914884483
 10
15.7865703425
 20
11.6923720581
 10
15.793089382
 20
11.6951765695
 10
15.7982362926
 20
11.6993078062
 10
15.80204825
 20
11.7043740804
  0
LINE
  5
256
100
AcDbEntity
  8
0
100
AcDbLine
 62
7
  6
CONTINUOUS
 10
15.770313316
 20
11.6914881651
 11
15.7799587475
 21
11.6914881651
  0
LINE
  5
257
100
AcDbEntity
  8
0
100
AcDbLine
 62
7
  6
CONTINUOUS
 10
15.5088557255
 20
10.9719500377
 11
15.4927050043
 21
11.0048617472
  0
LINE
  5
258
100
AcDbEntity
  8
0
100
AcDbLine
 62
7
  6
CONTINUOUS
 10
14.4556523898
 20
11.0122429315
 11
15.4239176835
 21
14.14555057
  0
LWPOLYLINE
  5
259
100
AcDbEntity
  8
0
100
AcDbPolyline
 62
7
  6
CONTINUOUS
 90
5
 70
0
 10
15.900986108
 20
12.0831519032
 10
15.9076035042
 20
12.0840355129
 10
15.9141225437
 20
12.0868400243
 10
15.9192694543
 20
12.090971261
 10
15.9230814117
 20
12.0960375352
  0
LINE
  5
25A
100
AcDbEntity
  8
0
100
AcDbLine
 62
7
  6
CONTINUOUS
 10
15.8913464777
 20
12.08315162
 11
15.9009919092
 21
12.08315162
  0
LINE
  5
25B
100
AcDbEntity
  8
0
100
AcDbLine
 62
7
  6
CONTINUOUS
 10
15.5186777924
 20
10.8791571269
 11
15.5136957848
 21
10.9548161449
  0
LWPOLYLINE
  5
25C
100
AcDbEntity
  8
0
100
AcDbPolyline
 62
7
  6
CONTINUOUS
 90
5
 70
0
 10
16.0220192697
 20
12.474815358
 10
16.0286366659
 20
12.4756989677
 10
16.0351557054
 20
12.4785034791
 10
16.040302616
 20
12.4826347158
 10
16.0441145734
 20
12.4877009901
  0
LINE
  5
25D
100
AcDbEntity
  8
0
100
AcDbLine
 62
7
  6
CONTINUOUS
 10
16.0123796394
 20
12.4748150748
 11
16.0220250709
 21
12.4748150748
  0
LINE
  5
25E
100
AcDbEntity
  8
0
100
AcDbLine
 62
7
  6
CONTINUOUS
 10
15.6070570915
 20
11.0773269175
 11
15.6081805558
 21
11.1376156457
  0
LINE
  5
25F
100
AcDbEntity
  8
0
100
AcDbLine
 62
7
  6
CONTINUOUS
 10
15.6070359642
 20
11.0765708561
 11
15.6070572981
 21
11.0773385322
  0
LINE
  5
260
100
AcDbEntity
  8
0
100
AcDbLine
 62
7
  6
CONTINUOUS
 10
15.608180992
 20
11.1376350612
 11
15.6083183007
 21
11.1416738083
  0
LWPOLYLINE
  5
261
100
AcDbEntity
  8
0
100
AcDbPolyline
 62
7
  6
CONTINUOUS
 90
5
 70
0
 10
15.6083183007
 20
11.1416738083
 10
15.6093487688
 20
11.1543332413
 10
15.6113398385
 20
11.1687609332
 10
15.6140702057
 20
11.183106383
 10
15.617152481
 20
11.1956348282
  0
LINE
  5
262
100
AcDbEntity
  8
0
100
AcDbLine
 62
7
  6
CONTINUOUS
 10
15.6066670115
 20
11.0721969277
 11
15.6070359642
 21
11.0765708561
  0
LINE
  5
263
100
AcDbEntity
  8
0
100
AcDbLine
 62
7
  6
CONTINUOUS
 10
15.5183234261
 20
10.8760604457
 11
15.5186777924
 21
10.8791571269
  0
LWPOLYLINE
  5
264
100
AcDbEntity
  8
0
100
AcDbPolyline
 62
7
  6
CONTINUOUS
 90
5
 70
0
 10
16.1430524314
 20
12.8664788128
 10
16.1496698276
 20
12.8673624225
 10
16.1561888671
 20
12.8701669339
 10
16.1613357777
 20
12.8742981707
 10
16.1651477351
 20
12.8793644449
  0
LINE
  5
265
100
AcDbEntity
  8
0
100
AcDbLine
 62
7
  6
CONTINUOUS
 10
15.7280902532
 20
11.4689903723
 11
15.7292137175
 21
11.5292791005
  0
LINE
  5
266
100
AcDbEntity
  8
0
100
AcDbLine
 62
7
  6
CONTINUOUS
 10
15.8491234149
 20
11.8606538271
 11
15.8502468792
 21
11.9209425553
  0
LINE
  5
267
100
AcDbEntity
  8
0
100
AcDbLine
 62
7
  6
CONTINUOUS
 10
15.7280691259
 20
11.4682343109
 11
15.7280904598
 21
11.469001987
  0
LINE
  5
268
100
AcDbEntity
  8
0
100
AcDbLine
 62
7
  6
CONTINUOUS
 10
15.8491022876
 20
11.8598977657
 11
15.8491236215
 21
11.8606654418
  0
LINE
  5
269
100
AcDbEntity
  8
0
100
AcDbLine
 62
7
  6
CONTINUOUS
 10
15.7292141537
 20
11.529298516
 11
15.7293514624
 21
11.5333372631
  0
LINE
  5
26A
100
AcDbEntity
  8
0
100
AcDbLine
 62
7
  6
CONTINUOUS
 10
15.8502473154
 20
11.9209619708
 11
15.8503846242
 21
11.9250007179
  0
LWPOLYLINE
  5
26B
100
AcDbEntity
  8
0
100
AcDbPolyline
 62
7
  6
CONTINUOUS
 90
5
 70
0
 10
15.7293514624
 20
11.5333372631
 10
15.7303819305
 20
11.5459966961
 10
15.7323730002
 20
11.560424388
 10
15.7351033674
 20
11.5747698378
 10
15.7381856427
 20
11.5872982831
  0
LINE
  5
26C
100
AcDbEntity
  8
0
100
AcDbLine
 62
7
  6
CONTINUOUS
 10
15.7277001733
 20
11.4638603826
 11
15.7280691259
 21
11.4682343109
  0
LINE
  5
26D
100
AcDbEntity
  8
0
100
AcDbLine
 62
7
  6
CONTINUOUS
 10
15.6059317146
 20
11.0678187178
 11
15.6066670115
 21
11.0721969277
  0
LWPOLYLINE
  5
26E
100
AcDbEntity
  8
0
100
AcDbPolyline
 62
7
  6
CONTINUOUS
 90
3
 70
0
 10
16.4072140585
 20
13.6626913545
 10
16.4095378607
 20
13.6676876749
 10
16.4101813781
 20
13.6696035387
  0
LINE
  5
26F
100
AcDbEntity
  8
0
100
AcDbLine
 62
7
  6
CONTINUOUS
 10
16.3899230738
 20
13.6948868809
 11
16.3905395699
 21
13.696171252
  0
LINE
  5
270
100
AcDbEntity
  8
0
100
AcDbLine
 62
7
  6
CONTINUOUS
 10
16.2688899121
 20
13.3032234261
 11
16.2695064082
 21
13.3045077972
  0
LINE
  5
271
100
AcDbEntity
  8
0
100
AcDbLine
 62
7
  6
CONTINUOUS
 10
16.1334128011
 20
12.8664785296
 11
16.1430582326
 21
12.8664785296
  0
LINE
  5
272
100
AcDbEntity
  8
0
100
AcDbLine
 62
7
  6
CONTINUOUS
 10
15.9701565766
 20
12.2523172819
 11
15.9712800409
 21
12.3126060101
  0
LINE
  5
273
100
AcDbEntity
  8
0
100
AcDbLine
 62
7
  6
CONTINUOUS
 10
15.9701354493
 20
12.2515612205
 11
15.9701567832
 21
12.2523288966
  0
LINE
  5
274
100
AcDbEntity
  8
0
100
AcDbLine
 62
7
  6
CONTINUOUS
 10
15.9712804771
 20
12.3126254257
 11
15.9714177859
 21
12.3166641727
  0
LWPOLYLINE
  5
275
100
AcDbEntity
  8
0
100
AcDbPolyline
 62
7
  6
CONTINUOUS
 90
5
 70
0
 10
15.8503846242
 20
11.9250007179
 10
15.8514150922
 20
11.9376601509
 10
15.8534061619
 20
11.9520878428
 10
15.8561365291
 20
11.9664332926
 10
15.8592188044
 20
11.9789617379
  0
LWPOLYLINE
  5
276
100
AcDbEntity
  8
0
100
AcDbPolyline
 62
7
  6
CONTINUOUS
 90
5
 70
0
 10
15.9714177859
 20
12.3166641727
 10
15.9724482539
 20
12.3293236057
 10
15.9744393236
 20
12.3437512976
 10
15.9771696908
 20
12.3580967474
 10
15.9802519661
 20
12.3706251927
  0
LINE
  5
277
100
AcDbEntity
  8
0
100
AcDbLine
 62
7
  6
CONTINUOUS
 10
15.848733335
 20
11.8555238374
 11
15.8491022876
 21
11.8598977657
  0
LINE
  5
278
100
AcDbEntity
  8
0
100
AcDbLine
 62
7
  6
CONTINUOUS
 10
15.9697664967
 20
12.2471872922
 11
15.9701354493
 21
12.2515612205
  0
LINE
  5
279
100
AcDbEntity
  8
0
100
AcDbLine
 62
7
  6
CONTINUOUS
 10
15.7269648763
 20
11.4594821726
 11
15.7277001733
 21
11.4638603826
  0
LINE
  5
27A
100
AcDbEntity
  8
0
100
AcDbLine
 62
7
  6
CONTINUOUS
 10
15.847998038
 20
11.8511456274
 11
15.848733335
 21
11.8555238374
  0
LINE
  5
27B
100
AcDbEntity
  8
0
100
AcDbLine
 62
7
  6
CONTINUOUS
 10
15.6047890294
 20
11.0633528841
 11
15.6059317146
 21
11.0678187178
  0
LINE
  5
27C
100
AcDbEntity
  8
0
100
AcDbLine
 62
7
  6
CONTINUOUS
 10
15.7258221911
 20
11.455016339
 11
15.7269648763
 21
11.4594821726
  0
LINE
  5
27D
100
AcDbEntity
  8
0
100
AcDbLine
 62
7
  6
CONTINUOUS
 10
15.8468553528
 20
11.8466797938
 11
15.847998038
 21
11.8511456274
  0
LINE
  5
27E
100
AcDbEntity
  8
0
100
AcDbLine
 62
7
  6
CONTINUOUS
 10
15.617152481
 20
11.1956348282
 11
15.618429072
 21
11.1999926904
  0
LINE
  5
27F
100
AcDbEntity
  8
0
100
AcDbLine
 62
7
  6
CONTINUOUS
 10
15.7381856427
 20
11.5872982831
 11
15.7394622337
 21
11.5916561453
  0
LINE
  5
280
100
AcDbEntity
  8
0
100
AcDbLine
 62
7
  6
CONTINUOUS
 10
15.8592188044
 20
11.9789617379
 11
15.8604953954
 21
11.9833196001
  0
LINE
  5
281
100
AcDbEntity
  8
0
100
AcDbLine
 62
7
  6
CONTINUOUS
 10
15.9802519661
 20
12.3706251927
 11
15.9815285571
 21
12.3749830549
  0
LINE
  5
282
100
AcDbEntity
  8
0
100
AcDbLine
 62
7
  6
CONTINUOUS
 10
15.5192311919
 20
10.8789861135
 11
15.5392526119
 21
10.9437754527
  0
LINE
  5
283
100
AcDbEntity
  8
0
100
AcDbLine
 62
7
  6
CONTINUOUS
 10
15.6184340968
 20
11.2000068316
 11
15.6602857737
 21
11.3354389075
  0
LINE
  5
284
100
AcDbEntity
  8
0
100
AcDbLine
 62
7
  6
CONTINUOUS
 10
15.7394672585
 20
11.5916702864
 11
15.7813189354
 21
11.7271023623
  0
LINE
  5
285
100
AcDbEntity
  8
0
100
AcDbLine
 62
7
  6
CONTINUOUS
 10
15.8605004202
 20
11.9833337412
 11
15.9023520971
 21
12.1187658171
  0
LINE
  5
286
100
AcDbEntity
  8
0
100
AcDbLine
 62
7
  6
CONTINUOUS
 10
15.9815335819
 20
12.374997196
 11
16.0233852588
 21
12.5104292719
  0
LINE
  5
287
100
AcDbEntity
  8
0
100
AcDbLine
 62
7
  6
CONTINUOUS
 10
16.1025667436
 20
12.7666606508
 11
16.1444184205
 21
12.9020927267
  0
LINE
  5
288
100
AcDbEntity
  8
0
100
AcDbLine
 62
7
  6
CONTINUOUS
 10
16.2235999053
 20
13.1583241056
 11
16.2654515822
 21
13.2937561816
  0
LINE
  5
289
100
AcDbEntity
  8
0
100
AcDbLine
 62
7
  6
CONTINUOUS
 10
16.344633067
 20
13.5499875605
 11
16.3864847439
 21
13.6854196364
  0
LINE
  5
28A
100
AcDbEntity
  8
0
100
AcDbLine
 62
7
  6
CONTINUOUS
 10
16.4656662287
 20
13.9416510153
 11
16.4865920675
 21
14.0093670543
  0
LINE
  5
28B
100
AcDbEntity
  8
0
100
AcDbLine
 62
7
  6
CONTINUOUS
 10
16.3864854714
 20
13.6854220482
 11
16.3884625848
 21
13.6912866049
  0
LINE
  5
28C
100
AcDbEntity
  8
0
100
AcDbLine
 62
7
  6
CONTINUOUS
 10
16.2654523097
 20
13.2937585934
 11
16.2674294231
 21
13.2996231501
  0
LINE
  5
28D
100
AcDbEntity
  8
0
100
AcDbLine
 62
7
  6
CONTINUOUS
 10
16.144419148
 20
12.9020951386
 11
16.1463962614
 21
12.9079596953
  0
LINE
  5
28E
100
AcDbEntity
  8
0
100
AcDbLine
 62
7
  6
CONTINUOUS
 10
16.0233859863
 20
12.5104316838
 11
16.0253630997
 21
12.5162962405
  0
LINE
  5
28F
100
AcDbEntity
  8
0
100
AcDbLine
 62
7
  6
CONTINUOUS
 10
16.3884625848
 20
13.6912866049
 11
16.3899230738
 21
13.6948868809
  0
LINE
  5
290
100
AcDbEntity
  8
0
100
AcDbLine
 62
7
  6
CONTINUOUS
 10
16.2674294231
 20
13.2996231501
 11
16.2688899121
 21
13.3032234261
  0
LINE
  5
291
100
AcDbEntity
  8
0
100
AcDbLine
 62
7
  6
CONTINUOUS
 10
16.1463962614
 20
12.9079596953
 11
16.1478567504
 21
12.9115599713
  0
LINE
  5
292
100
AcDbEntity
  8
0
100
AcDbLine
 62
7
  6
CONTINUOUS
 10
16.0253630997
 20
12.5162962405
 11
16.0268235887
 21
12.5198965165
  0
LWPOLYLINE
  5
293
100
AcDbEntity
  8
0
100
AcDbPolyline
 62
7
  6
CONTINUOUS
 90
3
 70
0
 10
16.2861808968
 20
13.2710278997
 10
16.288504699
 20
13.2760242201
 10
16.2891482164
 20
13.2779400839
  0
LWPOLYLINE
  5
294
100
AcDbEntity
  8
0
100
AcDbPolyline
 62
7
  6
CONTINUOUS
 90
3
 70
0
 10
16.1651477351
 20
12.8793644449
 10
16.1674715373
 20
12.8843607653
 10
16.1681150547
 20
12.8862766291
  0
LWPOLYLINE
  5
295
100
AcDbEntity
  8
0
100
AcDbPolyline
 62
7
  6
CONTINUOUS
 90
3
 70
0
 10
16.0441145734
 20
12.4877009901
 10
16.0464383756
 20
12.4926973105
 10
16.047081893
 20
12.4946131743
  0
LINE
  5
296
100
AcDbEntity
  8
0
100
AcDbLine
 62
7
  6
CONTINUOUS
 10
16.1478567504
 20
12.9115599713
 11
16.1484732465
 21
12.9128443424
  0
LINE
  5
297
100
AcDbEntity
  8
0
100
AcDbLine
 62
7
  6
CONTINUOUS
 10
16.0268235887
 20
12.5198965165
 11
16.0274400848
 21
12.5211808876
  0
LINE
  5
298
100
AcDbEntity
  8
0
100
AcDbLine
 62
7
  6
CONTINUOUS
 10
16.0911897383
 20
12.6439807368
 11
16.0923132026
 21
12.7042694649
  0
LINE
  5
299
100
AcDbEntity
  8
0
100
AcDbLine
 62
7
  6
CONTINUOUS
 10
16.091168611
 20
12.6432246753
 11
16.0911899449
 21
12.6439923514
  0
LINE
  5
29A
100
AcDbEntity
  8
0
100
AcDbLine
 62
7
  6
CONTINUOUS
 10
16.0923136388
 20
12.7042888805
 11
16.0924509476
 21
12.7083276276
  0
LWPOLYLINE
  5
29B
100
AcDbEntity
  8
0
100
AcDbPolyline
 62
7
  6
CONTINUOUS
 90
5
 70
0
 10
16.0924509476
 20
12.7083276276
 10
16.0934814156
 20
12.7209870606
 10
16.0954724853
 20
12.7354147524
 10
16.0982028525
 20
12.7497602023
 10
16.1012851278
 20
12.7622886475
  0
LINE
  5
29C
100
AcDbEntity
  8
0
100
AcDbLine
 62
7
  6
CONTINUOUS
 10
16.0907996584
 20
12.638850747
 11
16.091168611
 21
12.6432246753
  0
LINE
  5
29D
100
AcDbEntity
  8
0
100
AcDbLine
 62
7
  6
CONTINUOUS
 10
15.9690311997
 20
12.2428090822
 11
15.9697664967
 21
12.2471872922
  0
LINE
  5
29E
100
AcDbEntity
  8
0
100
AcDbLine
 62
7
  6
CONTINUOUS
 10
16.0900643614
 20
12.6344725371
 11
16.0907996584
 21
12.638850747
  0
LINE
  5
29F
100
AcDbEntity
  8
0
100
AcDbLine
 62
7
  6
CONTINUOUS
 10
16.2110975231
 20
13.0261359919
 11
16.2118328201
 21
13.0305142018
  0
LINE
  5
2A0
100
AcDbEntity
  8
0
100
AcDbLine
 62
7
  6
CONTINUOUS
 10
15.9678885145
 20
12.2383432486
 11
15.9690311997
 21
12.2428090822
  0
LINE
  5
2A1
100
AcDbEntity
  8
0
100
AcDbLine
 62
7
  6
CONTINUOUS
 10
16.0889216762
 20
12.6300067034
 11
16.0900643614
 21
12.6344725371
  0
LINE
  5
2A2
100
AcDbEntity
  8
0
100
AcDbLine
 62
7
  6
CONTINUOUS
 10
16.2099548379
 20
13.0216701582
 11
16.2110975231
 21
13.0261359919
  0
LINE
  5
2A3
100
AcDbEntity
  8
0
100
AcDbLine
 62
7
  6
CONTINUOUS
 10
16.3309879997
 20
13.413333613
 11
16.3321306848
 21
13.4177994467
  0
LINE
  5
2A4
100
AcDbEntity
  8
0
100
AcDbLine
 62
7
  6
CONTINUOUS
 10
16.4520211614
 20
13.8049970678
 11
16.4531638465
 21
13.8094629015
  0
LINE
  5
2A5
100
AcDbEntity
  8
0
100
AcDbLine
 62
7
  6
CONTINUOUS
 10
16.1012851278
 20
12.7622886475
 11
16.1025617188
 21
12.7666465097
  0
LINE
  5
2A6
100
AcDbEntity
  8
0
100
AcDbLine
 62
7
  6
CONTINUOUS
 10
16.2223182895
 20
13.1539521023
 11
16.2235948805
 21
13.1583099645
  0
LINE
  5
2A7
100
AcDbEntity
  8
0
100
AcDbLine
 62
7
  6
CONTINUOUS
 10
16.3433514512
 20
13.5456155571
 11
16.3446280422
 21
13.5499734193
  0
LINE
  5
2A8
100
AcDbEntity
  8
0
100
AcDbLine
 62
7
  6
CONTINUOUS
 10
16.4643846129
 20
13.9372790119
 11
16.4656612039
 21
13.9416368741
  0
LINE
  5
2A9
100
AcDbEntity
  8
0
100
AcDbLine
 62
7
  6
CONTINUOUS
 10
15.5629384928
 20
10.9279242814
 11
15.6047901764
 21
11.063356379
  0
LINE
  5
2AA
100
AcDbEntity
  8
0
100
AcDbLine
 62
7
  6
CONTINUOUS
 10
15.6839716545
 20
11.3195877362
 11
15.7258233381
 21
11.4550198338
  0
LINE
  5
2AB
100
AcDbEntity
  8
0
100
AcDbLine
 62
7
  6
CONTINUOUS
 10
15.8050048162
 20
11.711251191
 11
15.8468564998
 21
11.8466832886
  0
LINE
  5
2AC
100
AcDbEntity
  8
0
100
AcDbLine
 62
7
  6
CONTINUOUS
 10
15.9260379779
 20
12.1029146458
 11
15.9678896615
 21
12.2383467434
  0
LINE
  5
2AD
100
AcDbEntity
  8
0
100
AcDbLine
 62
7
  6
CONTINUOUS
 10
16.0470711396
 20
12.4945781007
 11
16.0889228232
 21
12.6300101983
  0
LINE
  5
2AE
100
AcDbEntity
  8
0
100
AcDbLine
 62
7
  6
CONTINUOUS
 10
16.1681043013
 20
12.8862415555
 11
16.2099559849
 21
13.0216736531
  0
LINE
  5
2AF
100
AcDbEntity
  8
0
100
AcDbLine
 62
7
  6
CONTINUOUS
 10
16.289137463
 20
13.2779050103
 11
16.3309891466
 21
13.4133371079
  0
LINE
  5
2B0
100
AcDbEntity
  8
0
100
AcDbLine
 62
7
  6
CONTINUOUS
 10
16.4101706247
 20
13.6695684651
 11
16.4520223083
 21
13.8050005627
  0
LINE
  5
2B1
100
AcDbEntity
  8
0
100
AcDbLine
 62
7
  6
CONTINUOUS
 10
15.9023528246
 20
12.1187682289
 11
15.904329938
 21
12.1246327857
  0
LINE
  5
2B2
100
AcDbEntity
  8
0
100
AcDbLine
 62
7
  6
CONTINUOUS
 10
15.7813196629
 20
11.7271047741
 11
15.7832967763
 21
11.7329693308
  0
LINE
  5
2B3
100
AcDbEntity
  8
0
100
AcDbLine
 62
7
  6
CONTINUOUS
 10
15.6602865012
 20
11.3354413193
 11
15.6622636146
 21
11.341305876
  0
LINE
  5
2B4
100
AcDbEntity
  8
0
100
AcDbLine
 62
7
  6
CONTINUOUS
 10
15.5392533395
 20
10.9437778645
 11
15.5412304529
 21
10.9496424212
  0
LINE
  5
2B5
100
AcDbEntity
  8
0
100
AcDbLine
 62
7
  6
CONTINUOUS
 10
15.904329938
 20
12.1246327857
 11
15.905790427
 21
12.1282330616
  0
LINE
  5
2B6
100
AcDbEntity
  8
0
100
AcDbLine
 62
7
  6
CONTINUOUS
 10
15.7832967763
 20
11.7329693308
 11
15.7847572653
 21
11.7365696068
  0
LINE
  5
2B7
100
AcDbEntity
  8
0
100
AcDbLine
 62
7
  6
CONTINUOUS
 10
15.6622636146
 20
11.341305876
 11
15.6637241036
 21
11.344906152
  0
LINE
  5
2B8
100
AcDbEntity
  8
0
100
AcDbLine
 62
7
  6
CONTINUOUS
 10
15.5412304529
 20
10.9496424212
 11
15.5426909419
 21
10.9532426972
  0
LWPOLYLINE
  5
2B9
100
AcDbEntity
  8
0
100
AcDbPolyline
 62
7
  6
CONTINUOUS
 90
3
 70
0
 10
15.9230814117
 20
12.0960375352
 10
15.9254052139
 20
12.1010338557
 10
15.9260487313
 20
12.1029497195
  0
LWPOLYLINE
  5
2BA
100
AcDbEntity
  8
0
100
AcDbPolyline
 62
7
  6
CONTINUOUS
 90
3
 70
0
 10
15.80204825
 20
11.7043740804
 10
15.8043720522
 20
11.7093704009
 10
15.8050155696
 20
11.7112862647
  0
LINE
  5
2BB
100
AcDbEntity
  8
0
100
AcDbLine
 62
7
  6
CONTINUOUS
 10
15.905790427
 20
12.1282330616
 11
15.9064069231
 21
12.1295174328
  0
LINE
  5
2BC
100
AcDbEntity
  8
0
100
AcDbLine
 62
7
  6
CONTINUOUS
 10
15.7847572653
 20
11.7365696068
 11
15.7853737614
 21
11.737853978
  0
LWPOLYLINE
  5
2BD
100
AcDbEntity
  8
0
100
AcDbPolyline
 62
7
  6
CONTINUOUS
 90
5
 70
0
 10
16.2640855931
 20
13.2581422676
 10
16.2707029894
 20
13.2590258773
 10
16.2772220288
 20
13.2618303887
 10
16.2823689394
 20
13.2659616255
 10
16.2861808968
 20
13.2710278997
  0
LINE
  5
2BE
100
AcDbEntity
  8
0
100
AcDbLine
 62
7
  6
CONTINUOUS
 10
16.2122229
 20
13.0356441916
 11
16.2133463643
 21
13.0959329198
  0
LINE
  5
2BF
100
AcDbEntity
  8
0
100
AcDbLine
 62
7
  6
CONTINUOUS
 10
16.2122017727
 20
13.0348881302
 11
16.2122231066
 21
13.0356558062
  0
LINE
  5
2C0
100
AcDbEntity
  8
0
100
AcDbLine
 62
7
  6
CONTINUOUS
 10
16.2133468005
 20
13.0959523353
 11
16.2134841093
 21
13.0999910824
  0
LWPOLYLINE
  5
2C1
100
AcDbEntity
  8
0
100
AcDbPolyline
 62
7
  6
CONTINUOUS
 90
5
 70
0
 10
16.2134841093
 20
13.0999910824
 10
16.2145145773
 20
13.1126505154
 10
16.216505647
 20
13.1270782072
 10
16.2192360142
 20
13.1414236571
 10
16.2223182895
 20
13.1539521023
  0
LWPOLYLINE
  5
2C2
100
AcDbEntity
  8
0
100
AcDbPolyline
 62
7
  6
CONTINUOUS
 90
5
 70
0
 10
16.334517271
 20
13.4916545372
 10
16.335547739
 20
13.5043139702
 10
16.3375388087
 20
13.518741662
 10
16.3402691759
 20
13.5330871119
 10
16.3433514512
 20
13.5456155571
  0
LINE
  5
2C3
100
AcDbEntity
  8
0
100
AcDbLine
 62
7
  6
CONTINUOUS
 10
16.2118328201
 20
13.0305142018
 11
16.2122017727
 21
13.0348881302
  0
LINE
  5
2C4
100
AcDbEntity
  8
0
100
AcDbLine
 62
7
  6
CONTINUOUS
 10
16.3328659818
 20
13.4221776566
 11
16.3332349344
 21
13.426551585
  0
LINE
  5
2C5
100
AcDbEntity
  8
0
100
AcDbLine
 62
7
  6
CONTINUOUS
 10
16.3321306848
 20
13.4177994467
 11
16.3328659818
 21
13.4221776566
  0
LINE
  5
2C6
100
AcDbEntity
  8
0
100
AcDbLine
 62
7
  6
CONTINUOUS
 10
16.4531638465
 20
13.8094629015
 11
16.4538991435
 21
13.8138411114
  0
LWPOLYLINE
  5
2C7
100
AcDbEntity
  8
0
100
AcDbPolyline
 62
7
  6
CONTINUOUS
 90
3
 70
0
 10
15.6810150883
 20
11.3127106256
 10
15.6833388905
 20
11.317706946
 10
15.6839824079
 20
11.3196228099
  0
LWPOLYLINE
  5
2C8
100
AcDbEntity
  8
0
100
AcDbPolyline
 62
7
  6
CONTINUOUS
 90
3
 70
0
 10
15.5599819266
 20
10.9210471708
 10
15.5623057287
 20
10.9260434912
 10
15.5629492462
 20
10.927959355
  0
LINE
  5
2C9
100
AcDbEntity
  8
0
100
AcDbLine
 62
7
  6
CONTINUOUS
 10
15.6637241036
 20
11.344906152
 11
15.6643405997
 21
11.3461905232
  0
LINE
  5
2CA
100
AcDbEntity
  8
0
100
AcDbLine
 62
7
  6
CONTINUOUS
 10
15.5426909419
 20
10.9532426972
 11
15.543307438
 21
10.9545270683
  0
LINE
  5
2CB
100
AcDbEntity
  8
0
100
AcDbLine
 62
7
  6
CONTINUOUS
 10
16.2544459629
 20
13.2581419844
 11
16.2640913943
 21
13.2581419844
  0
LINE
  5
2CC
100
AcDbEntity
  8
0
100
AcDbLine
 62
7
  6
CONTINUOUS
 10
16.3332560617
 20
13.4273076464
 11
16.334379526
 21
13.4875963746
  0
LINE
  5
2CD
100
AcDbEntity
  8
0
100
AcDbLine
 62
7
  6
CONTINUOUS
 10
16.3332349344
 20
13.426551585
 11
16.3332562683
 21
13.427319261
  0
LINE
  5
2CE
100
AcDbEntity
  8
0
100
AcDbLine
 62
7
  6
CONTINUOUS
 10
16.3343799622
 20
13.4876157901
 11
16.334517271
 21
13.4916545372
  0
LWPOLYLINE
  5
2CF
100
AcDbEntity
  8
0
100
AcDbPolyline
 62
7
  6
CONTINUOUS
 90
5
 70
0
 10
16.4555504327
 20
13.883317992
 10
16.4565809007
 20
13.895977425
 10
16.4585719704
 20
13.9104051169
 10
16.4613023376
 20
13.9247505667
 10
16.4643846129
 20
13.9372790119
  0
LINE
  5
2D0
100
AcDbEntity
  8
0
100
AcDbLine
 62
7
  6
CONTINUOUS
 10
16.4538991435
 20
13.8138411114
 11
16.4542680962
 21
13.8182150398
  0
LINE
  5
2D1
100
AcDbEntity
  8
0
100
AcDbLine
 62
7
  6
CONTINUOUS
 10
16.486943086
 20
14.0124647654
 11
16.4865887197
 21
14.0093680842
  0
LINE
  5
2D2
100
AcDbEntity
  8
0
100
AcDbLine
 62
7
  6
CONTINUOUS
 10
16.4542892234
 20
13.8189711012
 11
16.4554126877
 21
13.8792598294
  0
LINE
  5
2D3
100
AcDbEntity
  8
0
100
AcDbLine
 62
7
  6
CONTINUOUS
 10
16.4542680962
 20
13.8182150398
 11
16.45428943
 21
13.8189827159
  0
LINE
  5
2D4
100
AcDbEntity
  8
0
100
AcDbLine
 62
7
  6
CONTINUOUS
 10
16.4554131239
 20
13.8792792449
 11
16.4555504327
 21
13.883317992
  0
LWPOLYLINE
  5
2D5
100
AcDbEntity
  8
0
100
AcDbPolyline
 62
7
  6
CONTINUOUS
 90
5
 70
0
 10
16.3851187548
 20
13.6498057224
 10
16.3917361511
 20
13.6506893322
 10
16.3982551905
 20
13.6534938435
 10
16.4034021012
 20
13.6576250803
 10
16.4072140585
 20
13.6626913545
  0
LINE
  5
2D6
100
AcDbEntity
  8
0
100
AcDbLine
 62
7
  6
CONTINUOUS
 10
16.486943086
 20
14.0124647654
 11
16.4819610784
 21
14.0881237834
  0
LINE
  5
2D7
100
AcDbEntity
  8
0
100
AcDbLine
 62
7
  6
CONTINUOUS
 10
16.3754791246
 20
13.6498054392
 11
16.385124556
 21
13.6498054392
  0
LINE
  5
2D8
100
AcDbEntity
  8
0
100
AcDbLine
 62
7
  6
CONTINUOUS
 10
16.4303177264
 20
14.1537096349
 11
15.4401771579
 21
14.1537096349
  0
LINE
  5
2D9
100
AcDbEntity
  8
0
100
AcDbLine
 62
7
  6
CONTINUOUS
 10
16.4771210192
 20
14.1052576762
 11
16.460970298
 21
14.1381693857
  0
ARC
  5
2DA
100
AcDbEntity
  8
0
100
AcDbCircle
 62
7
  6
CONTINUOUS
 10
5.6306737532
 20
5.4837865634
 40
0.025
100
AcDbArc
 50
196.0
 51
270.0
  0
ARC
  5
2DB
100
AcDbEntity
  8
0
100
AcDbCircle
 62
7
  6
CONTINUOUS
 10
5.6658478561
 20
5.361119889
 40
0.025
100
AcDbArc
 50
195.999981454
 51
269.999994888
  0
ARC
  5
2DC
100
AcDbEntity
  8
0
100
AcDbCircle
 62
7
  6
CONTINUOUS
 10
5.6678672762
 20
5.6261739802
 40
0.1
100
AcDbArc
 50
180.0
 51
196.0
  0
ARC
  5
2DD
100
AcDbEntity
  8
0
100
AcDbCircle
 62
7
  6
CONTINUOUS
 10
5.5928672762
 20
5.6791198968
 40
0.025
100
AcDbArc
 50
90.0
 51
180.0
  0
ARC
  5
2DE
100
AcDbEntity
  8
0
100
AcDbCircle
 62
7
  6
CONTINUOUS
 10
6.5948866984
 20
5.3611198968
 40
0.025
100
AcDbArc
 50
270.0
 51
344.0
  0
ARC
  5
2DF
100
AcDbEntity
  8
0
100
AcDbCircle
 62
7
  6
CONTINUOUS
 10
6.6300607991
 20
5.4837865634
 40
0.025
100
AcDbArc
 50
270.0
 51
344.0
  0
ARC
  5
2E0
100
AcDbEntity
  8
0
100
AcDbCircle
 62
7
  6
CONTINUOUS
 10
6.5928672762
 20
5.6261739802
 40
0.1
100
AcDbArc
 50
344.0
 51
360.0
  0
ARC
  5
2E1
100
AcDbEntity
  8
0
100
AcDbCircle
 62
7
  6
CONTINUOUS
 10
6.6678672762
 20
5.6791198968
 40
0.025
100
AcDbArc
 50
0.0
 51
90.0
  0
ARC
  5
2E2
100
AcDbEntity
  8
0
100
AcDbCircle
 62
7
  6
CONTINUOUS
 10
13.7239085408
 20
5.3072913711
 40
0.0306666667
100
AcDbArc
 50
193.0
 51
270.0
  0
ARC
  5
2E3
100
AcDbEntity
  8
0
100
AcDbCircle
 62
7
  6
CONTINUOUS
 10
13.8968019731
 20
5.3072913711
 40
0.0306666667
100
AcDbArc
 50
270.0
 51
347.0
  0
ARC
  5
2E4
100
AcDbEntity
  8
0
100
AcDbCircle
 62
7
  6
CONTINUOUS
 10
14.2239085408
 20
5.3072913711
 40
0.0306666667
100
AcDbArc
 50
193.0
 51
270.0
  0
ARC
  5
2E5
100
AcDbEntity
  8
0
100
AcDbCircle
 62
7
  6
CONTINUOUS
 10
14.3968019731
 20
5.3072913711
 40
0.0306666667
100
AcDbArc
 50
270.0
 51
347.0
  0
ARC
  5
2E6
100
AcDbEntity
  8
0
100
AcDbCircle
 62
7
  6
CONTINUOUS
 10
14.7239085408
 20
5.3072913711
 40
0.0306666667
100
AcDbArc
 50
193.0
 51
270.0
  0
ARC
  5
2E7
100
AcDbEntity
  8
0
100
AcDbCircle
 62
7
  6
CONTINUOUS
 10
14.8968019731
 20
5.3072913711
 40
0.0306666667
100
AcDbArc
 50
270.0
 51
347.0
  0
ARC
  5
2E8
100
AcDbEntity
  8
0
100
AcDbCircle
 62
7
  6
CONTINUOUS
 10
15.2239085408
 20
5.3072913711
 40
0.0306666667
100
AcDbArc
 50
193.0
 51
270.0
  0
ARC
  5
2E9
100
AcDbEntity
  8
0
100
AcDbCircle
 62
7
  6
CONTINUOUS
 10
15.3968019731
 20
5.3072913711
 40
0.0306666667
100
AcDbArc
 50
270.0
 51
347.0
  0
ARC
  5
2EA
100
AcDbEntity
  8
0
100
AcDbCircle
 62
7
  6
CONTINUOUS
 10
13.6468019731
 20
5.3686247044
 40
0.0306666667
100
AcDbArc
 50
13.0
 51
90.0
  0
ARC
  5
2EB
100
AcDbEntity
  8
0
100
AcDbCircle
 62
7
  6
CONTINUOUS
 10
13.9739085408
 20
5.3686247044
 40
0.0306666667
100
AcDbArc
 50
90.0
 51
167.0
  0
ARC
  5
2EC
100
AcDbEntity
  8
0
100
AcDbCircle
 62
7
  6
CONTINUOUS
 10
14.1468019731
 20
5.3686247044
 40
0.0306666667
100
AcDbArc
 50
13.0
 51
90.0
  0
ARC
  5
2ED
100
AcDbEntity
  8
0
100
AcDbCircle
 62
7
  6
CONTINUOUS
 10
14.4739085408
 20
5.3686247044
 40
0.0306666667
100
AcDbArc
 50
90.0
 51
167.0
  0
ARC
  5
2EE
100
AcDbEntity
  8
0
100
AcDbCircle
 62
7
  6
CONTINUOUS
 10
14.6468019731
 20
5.3686247044
 40
0.0306666667
100
AcDbArc
 50
13.0
 51
90.0
  0
ARC
  5
2EF
100
AcDbEntity
  8
0
100
AcDbCircle
 62
7
  6
CONTINUOUS
 10
14.9739085408
 20
5.3686247044
 40
0.0306666667
100
AcDbArc
 50
90.0
 51
167.0
  0
ARC
  5
2F0
100
AcDbEntity
  8
0
100
AcDbCircle
 62
7
  6
CONTINUOUS
 10
15.1468019731
 20
5.3686247044
 40
0.0306666667
100
AcDbArc
 50
13.0
 51
90.0
  0
ARC
  5
2F1
100
AcDbEntity
  8
0
100
AcDbCircle
 62
7
  6
CONTINUOUS
 10
15.4739085408
 20
5.3686247044
 40
0.0306666667
100
AcDbArc
 50
90.0
 51
167.0
  0
ARC
  5
2F2
100
AcDbEntity
  8
0
100
AcDbCircle
 62
7
  6
CONTINUOUS
 10
17.3968019731
 20
5.3072913711
 40
0.0306666667
100
AcDbArc
 50
270.0
 51
347.0
  0
ARC
  5
2F3
100
AcDbEntity
  8
0
100
AcDbCircle
 62
7
  6
CONTINUOUS
 10
17.2239085408
 20
5.3072913711
 40
0.0306666667
100
AcDbArc
 50
193.0
 51
270.0
  0
ARC
  5
2F4
100
AcDbEntity
  8
0
100
AcDbCircle
 62
7
  6
CONTINUOUS
 10
16.8968019731
 20
5.3072913711
 40
0.0306666667
100
AcDbArc
 50
270.0
 51
347.0
  0
ARC
  5
2F5
100
AcDbEntity
  8
0
100
AcDbCircle
 62
7
  6
CONTINUOUS
 10
16.7239085408
 20
5.3072913711
 40
0.0306666667
100
AcDbArc
 50
193.0
 51
270.0
  0
ARC
  5
2F6
100
AcDbEntity
  8
0
100
AcDbCircle
 62
7
  6
CONTINUOUS
 10
16.3968019731
 20
5.3072913711
 40
0.0306666667
100
AcDbArc
 50
270.0
 51
347.0
  0
ARC
  5
2F7
100
AcDbEntity
  8
0
100
AcDbCircle
 62
7
  6
CONTINUOUS
 10
16.2239085408
 20
5.3072913711
 40
0.0306666667
100
AcDbArc
 50
193.0
 51
270.0
  0
ARC
  5
2F8
100
AcDbEntity
  8
0
100
AcDbCircle
 62
7
  6
CONTINUOUS
 10
15.8968019731
 20
5.3072913711
 40
0.0306666667
100
AcDbArc
 50
270.0
 51
347.0
  0
ARC
  5
2F9
100
AcDbEntity
  8
0
100
AcDbCircle
 62
7
  6
CONTINUOUS
 10
15.7239085408
 20
5.3072913711
 40
0.0306666667
100
AcDbArc
 50
193.0
 51
270.0
  0
ARC
  5
2FA
100
AcDbEntity
  8
0
100
AcDbCircle
 62
7
  6
CONTINUOUS
 10
17.4739085408
 20
5.3686247044
 40
0.0306666667
100
AcDbArc
 50
90.0
 51
167.0
  0
ARC
  5
2FB
100
AcDbEntity
  8
0
100
AcDbCircle
 62
7
  6
CONTINUOUS
 10
17.1468019731
 20
5.3686247044
 40
0.0306666667
100
AcDbArc
 50
13.0
 51
90.0
  0
ARC
  5
2FC
100
AcDbEntity
  8
0
100
AcDbCircle
 62
7
  6
CONTINUOUS
 10
16.9739085408
 20
5.3686247044
 40
0.0306666667
100
AcDbArc
 50
90.0
 51
167.0
  0
ARC
  5
2FD
100
AcDbEntity
  8
0
100
AcDbCircle
 62
7
  6
CONTINUOUS
 10
16.6468019731
 20
5.3686247044
 40
0.0306666667
100
AcDbArc
 50
13.0
 51
90.0
  0
ARC
  5
2FE
100
AcDbEntity
  8
0
100
AcDbCircle
 62
7
  6
CONTINUOUS
 10
16.4739085408
 20
5.3686247044
 40
0.0306666667
100
AcDbArc
 50
90.0
 51
167.0
  0
ARC
  5
2FF
100
AcDbEntity
  8
0
100
AcDbCircle
 62
7
  6
CONTINUOUS
 10
16.1468019731
 20
5.3686247044
 40
0.0306666667
100
AcDbArc
 50
13.0
 51
90.0
  0
ARC
  5
300
100
AcDbEntity
  8
0
100
AcDbCircle
 62
7
  6
CONTINUOUS
 10
15.9739085408
 20
5.3686247044
 40
0.0306666667
100
AcDbArc
 50
90.0
 51
167.0
  0
ARC
  5
301
100
AcDbEntity
  8
0
100
AcDbCircle
 62
7
  6
CONTINUOUS
 10
15.6468019731
 20
5.3686247044
 40
0.0306666667
100
AcDbArc
 50
13.0
 51
90.0
  0
SPLINE
  5
302
100
AcDbEntity
  8
0
100
AcDbSpline
 62
7
  6
CONTINUOUS
 70
0
 71
3
 72
15
 73
11
 74
0
 42
0.0000001
 43
0.0000001
 44
0.0000000001
 40
0.0
 40
0.0
 40
0.0
 40
0.0
 40
0.1295682579
 40
0.2645752583
 40
0.4012659565
 40
0.5362717341
 40
0.6662158274
 40
0.7881014668
 40
0.8998146148
 40
1.0
 40
1.0
 40
1.0
 40
1.0
 10
16.4303177264
 20
14.1537096349
 30
0.0
 10
16.4318659819
 20
14.1537096349
 30
0.0
 10
16.4350299291
 20
14.1534944112
 30
0.0
 10
16.4397524434
 20
14.1526105148
 30
0.0
 10
16.4444087547
 20
14.1511830641
 30
0.0
 10
16.4488206289
 20
14.1492677457
 30
0.0
 10
16.4528268208
 20
14.1469390548
 30
0.0
 10
16.4562789025
 20
14.1442777173
 30
0.0
 10
16.4590447593
 20
14.1413816763
 30
0.0
 10
16.4604429025
 20
14.1392441047
 30
0.0
 10
16.460970298
 20
14.1381693857
 30
0.0
  0
SPLINE
  5
303
100
AcDbEntity
  8
0
100
AcDbSpline
 62
7
  6
CONTINUOUS
 70
0
 71
3
 72
15
 73
11
 74
0
 42
0.0000001
 43
0.0000001
 44
0.0000000001
 40
0.0
 40
0.0
 40
0.0
 40
0.0
 40
0.0996462622
 40
0.2028722116
 40
0.3125945115
 40
0.4308577514
 40
0.5588162228
 40
0.6968320845
 40
0.8443986615
 40
1.0
 40
1.0
 40
1.0
 40
1.0
 10
15.4239176709
 20
14.1455505776
 30
0.0
 10
15.424107786
 20
14.1461658202
 30
0.0
 10
15.4246464235
 20
14.1473767655
 30
0.0
 10
15.4258774117
 20
14.1489977129
 30
0.0
 10
15.4275008029
 20
14.1504128791
 30
0.0
 10
15.4294849742
 20
14.1515969357
 30
0.0
 10
15.4317925203
 20
14.1525355658
 30
0.0
 10
15.4343841317
 20
14.1532142956
 30
0.0
 10
15.4372110024
 20
14.1536219543
 30
0.0
 10
15.4391716113
 20
14.1537096349
 30
0.0
 10
15.4401771579
 20
14.1537096349
 30
0.0
  0
SPLINE
  5
304
100
AcDbEntity
  8
0
100
AcDbSpline
 62
7
  6
CONTINUOUS
 70
0
 71
3
 72
11
 73
7
 74
0
 42
0.0000001
 43
0.0000001
 44
0.0000000001
 40
0.0
 40
0.0
 40
0.0
 40
0.0
 40
0.2336951737
 40
0.4747285296
 40
0.728954491
 40
1.0
 40
1.0
 40
1.0
 40
1.0
 10
14.4556523773
 20
11.0122429391
 30
0.0
 10
14.4554775224
 20
11.0116770814
 30
0.0
 10
14.45524721
 20
11.010484933
 30
0.0
 10
14.4552894951
 20
11.0086256541
 30
0.0
 10
14.4557073052
 20
11.0067184809
 30
0.0
 10
14.4562087706
 20
11.0054784128
 30
0.0
 10
14.4565113861
 20
11.0048617472
 30
0.0
  0
SPLINE
  5
305
100
AcDbEntity
  8
0
100
AcDbSpline
 62
7
  6
CONTINUOUS
 70
0
 71
3
 72
9
 73
5
 74
0
 42
0.0000001
 43
0.0000001
 44
0.0000000001
 40
0.0
 40
0.0
 40
0.0
 40
0.0
 40
0.5185569446
 40
1.0
 40
1.0
 40
1.0
 40
1.0
 10
16.4771210192
 20
14.1052576762
 30
0.0
 10
16.4784832874
 20
14.1024816654
 30
0.0
 10
16.4806908952
 20
14.0969047718
 30
0.0
 10
16.4817724413
 20
14.0909885126
 30
0.0
 10
16.4819610784
 20
14.0881237834
 30
0.0
  0
SPLINE
  5
306
100
AcDbEntity
  8
0
100
AcDbSpline
 62
7
  6
CONTINUOUS
 70
0
 71
3
 72
14
 73
10
 74
0
 42
0.0000001
 43
0.0000001
 44
0.0000000001
 40
0.0
 40
0.0
 40
0.0
 40
0.0
 40
0.155639491
 40
0.3032709267
 40
0.5688133554
 40
0.6871191788
 40
0.7968593341
 40
0.9001602886
 40
1.0
 40
1.0
 40
1.0
 40
1.0
 10
15.5020672994
 20
10.8679003509
 30
0.0
 10
15.5030725164
 20
10.8679003509
 30
0.0
 10
15.5050335473
 20
10.8679881201
 30
0.0
 10
15.5086713343
 20
10.8685128039
 30
0.0
 10
15.5119918022
 20
10.8695568456
 30
0.0
 10
15.5147419253
 20
10.871195484
 30
0.0
 10
15.5163658838
 20
10.8726097645
 30
0.0
 10
15.5175974263
 20
10.8742312582
 30
0.0
 10
15.5181355124
 20
10.8754436017
 30
0.0
 10
15.5183255017
 20
10.8760598047
 30
0.0
  0
SPLINE
  5
307
100
AcDbEntity
  8
0
100
AcDbSpline
 62
7
  6
CONTINUOUS
 70
0
 71
3
 72
15
 73
11
 74
0
 42
0.0000001
 43
0.0000001
 44
0.0000000001
 40
0.0
 40
0.0
 40
0.0
 40
0.0
 40
0.1108459597
 40
0.2297524895
 40
0.3548139501
 40
0.4840804418
 40
0.6154840888
 40
0.7468378489
 40
0.8758674349
 40
1.0
 40
1.0
 40
1.0
 40
1.0
 10
14.5539123339
 20
10.8791571269
 30
0.0
 10
14.5546763388
 20
10.8783227045
 30
0.0
 10
14.5563879286
 20
10.8767082743
 30
0.0
 10
14.5593030267
 20
10.8745478714
 30
0.0
 10
14.5625951621
 20
10.8726176688
 30
0.0
 10
14.5661743392
 20
10.8709637095
 30
0.0
 10
14.5699526272
 20
10.8696297886
 30
0.0
 10
14.5738346838
 20
10.8686465442
 30
0.0
 10
14.5777185868
 20
10.8680452943
 30
0.0
 10
14.5803039081
 20
10.8679003509
 30
0.0
 10
14.5815708736
 20
10.8679003509
 30
0.0
  0
SPLINE
  5
308
100
AcDbEntity
  8
0
100
AcDbSpline
 62
7
  6
CONTINUOUS
 70
0
 71
3
 72
9
 73
5
 74
0
 42
0.0000001
 43
0.0000001
 44
0.0000000001
 40
0.0
 40
0.0
 40
0.0
 40
0.0
 40
0.4802064323
 40
1.0
 40
1.0
 40
1.0
 40
1.0
 10
14.4726621073
 20
10.9719500377
 30
0.0
 10
14.4741399475
 20
10.968938516
 30
0.0
 10
14.4777625079
 20
10.9629279094
 30
0.0
 10
14.4821861266
 20
10.9574942612
 30
0.0
 10
14.4846382347
 20
10.9548161449
 30
0.0
  0
SPLINE
  5
309
100
AcDbEntity
  8
0
100
AcDbSpline
 62
7
  6
CONTINUOUS
 70
0
 71
3
 72
15
 73
11
 74
0
 42
0.0000001
 43
0.0000001
 44
0.0000000001
 40
0.0
 40
0.0
 40
0.0
 40
0.0
 40
0.1556013385
 40
0.3031679155
 40
0.4411837772
 40
0.5691422486
 40
0.6874054885
 40
0.7971277884
 40
0.9003537378
 40
1.0
 40
1.0
 40
1.0
 40
1.0
 10
14.4719118643
 20
11.0204019964
 30
0.0
 10
14.4709063177
 20
11.0204019964
 30
0.0
 10
14.4689457087
 20
11.0203143158
 30
0.0
 10
14.4661188381
 20
11.0199066571
 30
0.0
 10
14.4635272266
 20
11.0192279273
 30
0.0
 10
14.4612196806
 20
11.0182892972
 30
0.0
 10
14.4592355093
 20
11.0171052406
 30
0.0
 10
14.4576121181
 20
11.0156900744
 30
0.0
 10
14.4563811298
 20
11.014069127
 30
0.0
 10
14.4558424924
 20
11.0128581817
 30
0.0
 10
14.4556523773
 20
11.0122429391
 30
0.0
  0
SPLINE
  5
30A
100
AcDbEntity
  8
0
100
AcDbSpline
 62
7
  6
CONTINUOUS
 70
0
 71
3
 72
9
 73
5
 74
0
 42
0.0000001
 43
0.0000001
 44
0.0000000001
 40
0.0
 40
0.0
 40
0.0
 40
0.0
 40
0.4814430554
 40
1.0
 40
1.0
 40
1.0
 40
1.0
 10
15.5136957848
 20
10.9548161449
 30
0.0
 10
15.5135071476
 20
10.9576808741
 30
0.0
 10
15.5124256016
 20
10.9635971333
 30
0.0
 10
15.5102179938
 20
10.9691740269
 30
0.0
 10
15.5088557255
 20
10.9719500377
 30
0.0
  0
SPLINE
  5
30B
100
AcDbEntity
  8
0
100
AcDbSpline
 62
7
  6
CONTINUOUS
 70
0
 71
3
 72
15
 73
11
 74
0
 42
0.0000001
 43
0.0000001
 44
0.0000000001
 40
0.0
 40
0.0
 40
0.0
 40
0.0
 40
0.1001853852
 40
0.2118985332
 40
0.3337841726
 40
0.4637282659
 40
0.5987340435
 40
0.7354247417
 40
0.8704317421
 40
1.0
 40
1.0
 40
1.0
 40
1.0
 10
15.4927050043
 20
11.0048617472
 30
0.0
 10
15.4921776089
 20
11.0059364661
 30
0.0
 10
15.4907794657
 20
11.0080740378
 30
0.0
 10
15.4880136088
 20
11.0109700788
 30
0.0
 10
15.4845615272
 20
11.0136314163
 30
0.0
 10
15.4805553353
 20
11.0159601072
 30
0.0
 10
15.4761434611
 20
11.0178754256
 30
0.0
 10
15.4714871497
 20
11.0193028763
 30
0.0
 10
15.4667646355
 20
11.0201867727
 30
0.0
 10
15.4636006882
 20
11.0204019964
 30
0.0
 10
15.4620524328
 20
11.0204019964
 30
0.0
  0
ENDSEC
  0
SECTION
  2
OBJECTS
  0
DICTIONARY
  5
C
100
AcDbDictionary
280
0
281
1
  3
ACAD_GROUP
350
D
  3
ACAD_MLINESTYLE
350
17
  3
ACAD_LAYOUT
350
1A
  3
ACAD_PLOTSETTINGS
350
19
  3
ACAD_PLOTSTYLENAME
350
E
  0
DICTIONARY
  5
D
102
{ACAD_REACTORS
330
C
102
}
100
AcDbDictionary
280
0
281
1
  0
ACDBDICTIONARYWDFLT
  5
E
102
{ACAD_REACTORS
330
C
102
}
100
AcDbDictionary
281
1
  3
Normal
350
F
100
AcDbDictionaryWithDefault
340
F
  0
DICTIONARY
  5
17
102
{ACAD_REACTORS
330
C
102
}
100
AcDbDictionary
280
0
281
1
  3
Standard
350
18
  0
DICTIONARY
  5
19
102
{ACAD_REACTORS
330
C
102
}
100
AcDbDictionary
281
1
  0
DICTIONARY
  5
1A
102
{ACAD_REACTORS
330
C
102
}
100
AcDbDictionary
281
1
  3
Model
350
30C
  3
Layout1
350
30D
  0
ACDBPLACEHOLDER
  5
F
102
{ACAD_REACTORS
330
E
102
}
  0
MLINESTYLE
  5
18
102
{ACAD_REACTORS
330
17
102
}
100
AcDbMlineStyle
  2
STANDARD
 70
0
  3

 62
256
 51
90.0
 52
90.0
 71
2
 49
0.5
 62
256
  6
BYLAYER
 49
-0.5
 62
256
  6
BYLAYER
  0
LAYOUT
  5
30C
102
{ACAD_REACTORS
330
1A
102
}
100
AcDbPlotSettings
  1

  2
none_device
  4
ANSI_C_(22.00_x_17.00_Inches)
  6

 40
0.0
 41
0.0
 42
0.0
 43
0.0
 44
558.8
 45
431.8
 46
0.0
 47
0.0
 48
0.0
 49
0.0
140
0.0
141
0.0
142
1.0
143
1.0
 70
1024
 72
0
 73
0
 74
0
  7

 75
0
147
1.0
148
0.0
149
0.0
100
AcDbLayout
  1
Model
 70
0
 71
0
 10
0.0
 20
0.0
 11
22.0
 21
17.0
 12
0.0
 22
0.0
 32
0.0
 14
0.0
 24
0.0
 34
0.0
 15
0.0
 25
0.0
 35
0.0
146
0.0
 13
0.0
 23
0.0
 33
0.0
 16
1.0
 26
0.0
 36
0.0
 17
0.0
 27
1.0
 37
0.0
 76
0
330
216
345
0
346
0
  0
LAYOUT
  5
30D
102
{ACAD_REACTORS
330
1A
102
}
100
AcDbPlotSettings
  1

  2
none_device
  4
ANSI_C_(22.00_x_17.00_Inches)
  6

 40
0.0
 41
0.0
 42
0.0
 43
0.0
 44
558.8
 45
431.8
 46
0.0
 47
0.0
 48
0.0
 49
0.0
140
0.0
141
0.0
142
1.0
143
1.0
 70
0
 72
0
 73
0
 74
0
  7

 75
0
147
1.0
148
0.0
149
0.0
100
AcDbLayout
  1
Layout1
 70
0
 71
1
 10
0.0
 20
0.0
 11
22.0
 21
17.0
 12
0.0
 22
0.0
 32
0.0
 14
0.0
 24
0.0
 34
0.0
 15
0.0
 25
0.0
 35
0.0
146
0.0
 13
0.0
 23
0.0
 33
0.0
 16
1.0
 26
0.0
 36
0.0
 17
0.0
 27
1.0
 37
0.0
 76
0
330
217
345
0
346
0
  0
ENDSEC
  0
EOF