999
DXF file: _cgs_temp_output.dxf
999
Pro/ENGINEER 2016360 by Parametric Technology Corporation
  0
SECTION
  2
HEADER
  9
$ACADVER
  1
AC1021
  9
$DWGCODEPAGE
  3
ANSI_1252
  9
$EXTMAX
 10
22.0
 20
17.0
 30
0.0
  9
$EXTMIN
 10
0.0
 20
0.0
 30
0.0
  9
$LIMMIN
 10
0.0
 20
0.0
  9
$LIMMAX
 10
22.0
 20
17.0
  9
$VIEWCTR
 10
11.0
 20
8.5
  9
$VIEWSIZE
 40
17.0
  9
$CLAYER
  8
0
  9
$LTSCALE
 40
1.21
  9
$CELTYPE
  6
BYLAYER
  9
$DIMSCALE
 40
1.0
  9
$DIMASZ
 40
0.1875
  9
$DIMEXO
 40
0.0625
  9
$DIMDLI
 40
0.836
  9
$DIMEXE
 40
0.125
  9
$DIMCEN
 40
0.198
  9
$DIMLFAC
 40
1.0
  9
$DIMBLK
  1
_CLOSED
  9
$DIMALT
 70
0
  9
$DIMALTF
 40
25.4
  9
$DIMTXT
 40
0.15625
  9
$DIMTOL
 70
0
  9
$DIMLIM
 70
0
  9
$DIMTFAC
 40
1.0
  9
$DIMGAP
 40
0.09
  9
$DIMDSEP
 70
46
  9
$AUNITS
 70
0
  9
$PDMODE
 70
3
  9
$PDSIZE
 40
0.3125
  9
$HANDSEED
  5
316
  9
$TILEMODE
 70
1
  9
$MEASUREMENT
 70
0
  9
$INSUNITS
 70
1
  0
ENDSEC
  0
SECTION
  2
CLASSES
  0
CLASS
  1
ACDBDICTIONARYWDFLT
  2
AcDbDictionaryWithDefault
  3
AutoCAD 2000
 90
0
 91
1
280
0
281
0
  0
CLASS
  1
ACDBPLACEHOLDER
  2
AcDbPlaceHolder
  3
AutoCAD 2000
 90
0
 91
1
280
0
281
0
  0
CLASS
  1
LAYOUT
  2
AcDbLayout
  3
AutoCAD 2000
 90
0
 91
0
280
0
281
0
  0
ENDSEC
  0
SECTION
  2
TABLES
  0
TABLE
  2
VPORT
  5
8
100
AcDbSymbolTable
 70
2
  0
VPORT
  5
1F4
100
AcDbSymbolTableRecord
100
AcDbViewportTableRecord
  2
*ACTIVE
 70
0
 10
0.0
 20
0.0
 11
1.0
 21
1.0
 12
11.0
 22
8.5
 13
0.0
 23
0.0
 14
1.0
 24
1.0
 15
0.0
 25
0.0
 16
0.0
 26
0.0
 36
1.0
 17
0.0
 27
0.0
 37
0.0
 40
17.0
 41
1.2941176471
 42
50.0
 43
0.0
 44
0.0
 50
0.0
 51
0.0
 71
0
 72
100
 73
1
 74
1
 75
0
 76
0
 77
0
 78
0
  0
ENDTAB
  0
TABLE
  2
LTYPE
  5
5
100
AcDbSymbolTable
 70
6
  0
LTYPE
  5
14
100
AcDbSymbolTableRecord
100
AcDbLinetypeTableRecord
  2
BYBLOCK
 70
0
  3

 72
65
 73
0
 40
0.0
  0
LTYPE
  5
15
100
AcDbSymbolTableRecord
100
AcDbLinetypeTableRecord
  2
BYLAYER
 70
0
  3

 72
65
 73
0
 40
0.0
  0
LTYPE
  5
16
100
AcDbSymbolTableRecord
100
AcDbLinetypeTableRecord
  2
CONTINUOUS
 70
64
  3
Solid line
 72
65
 73
0
 40
0.0
  0
LTYPE
  5
1F5
100
AcDbSymbolTableRecord
100
AcDbLinetypeTableRecord
  2
CENTER
 70
64
  3
____ _ ____ _ ____ _ ____ _ ____ _ ____ _ ____
 72
65
 73
4
 40
0.6
 49
0.375
 74
0
 49
-0.075
 74
0
 49
0.075
 74
0
 49
-0.075
 74
0
  0
LTYPE
  5
1F6
100
AcDbSymbolTableRecord
100
AcDbLinetypeTableRecord
  2
HIDDEN
 70
64
  3
- - - - - - - - - - - - - - - - - - - -
 72
65
 73
2
 40
0.2
 49
0.1
 74
0
 49
-0.1
 74
0
  0
LTYPE
  5
1F7
100
AcDbSymbolTableRecord
100
AcDbLinetypeTableRecord
  2
PHANTOM
 70
64
  3
_____ _ _ _____ _ _ _____ _ _ _____
 72
65
 73
6
 40
0.8
 49
0.45
 74
0
 49
-0.05
 74
0
 49
0.1
 74
0
 49
-0.05
 74
0
 49
0.1
 74
0
 49
-0.05
 74
0
  0
LTYPE
  5
1F8
100
AcDbSymbolTableRecord
100
AcDbLinetypeTableRecord
  2
DOT
 70
64
  3
. . . . . . . . . . . . . . . . . . . .
 72
65
 73
2
 40
0.2
 49
0.1
 74
0
 49
-0.1
 74
0
  0
LTYPE
  5
1F9
100
AcDbSymbolTableRecord
100
AcDbLinetypeTableRecord
  2
DASHED
 70
64
  3
- - - - - - - - - - - - - - - - - - - -
 72
65
 73
2
 40
0.2
 49
0.1
 74
0
 49
-0.1
 74
0
  0
ENDTAB
  0
TABLE
  2
LAYER
  5
2
100
AcDbSymbolTable
 70
36
  0
LAYER
  5
10
100
AcDbSymbolTableRecord
100
AcDbLayerTableRecord
  2
0
 70
0
 62
7
  6
CONTINUOUS
370
-3
390
F
  0
LAYER
  5
1FA
100
AcDbSymbolTableRecord
100
AcDbLayerTableRecord
  2
DEFAULT_1
 70
0
 62
7
  6
CENTER
370
-3
390
F
  0
LAYER
  5
1FB
100
AcDbSymbolTableRecord
100
AcDbLayerTableRecord
  2
DEFAULT_2
 70
0
 62
8
  6
HIDDEN
370
-3
390
F
  0
LAYER
  5
1FC
100
AcDbSymbolTableRecord
100
AcDbLayerTableRecord
  2
DEFAULT_3
 70
0
 62
7
  6
PHANTOM
370
-3
390
F
  0
LAYER
  5
1FD
100
AcDbSymbolTableRecord
100
AcDbLayerTableRecord
  2
01_ALL_DTM_PLN
 70
0
 62
7
  6
CONTINUOUS
370
-3
390
F
  0
LAYER
  5
1FE
100
AcDbSymbolTableRecord
100
AcDbLayerTableRecord
  2
01__ASM_ALL_DTM_PLN
 70
0
 62
7
  6
CONTINUOUS
370
-3
390
F
  0
LAYER
  5
1FF
100
AcDbSymbolTableRecord
100
AcDbLayerTableRecord
  2
01__ASM_DEF_DTM_PLN
 70
0
 62
7
  6
CONTINUOUS
370
-3
390
F
  0
LAYER
  5
200
100
AcDbSymbolTableRecord
100
AcDbLayerTableRecord
  2
01___PRT_ALL_DTM_PLN
 70
0
 62
7
  6
CONTINUOUS
370
-3
390
F
  0
LAYER
  5
201
100
AcDbSymbolTableRecord
100
AcDbLayerTableRecord
  2
01___PRT_DEF_DTM_PLN
 70
0
 62
7
  6
CONTINUOUS
370
-3
390
F
  0
LAYER
  5
202
100
AcDbSymbolTableRecord
100
AcDbLayerTableRecord
  2
02_ALL_AXES
 70
0
 62
7
  6
CONTINUOUS
370
-3
390
F
  0
LAYER
  5
203
100
AcDbSymbolTableRecord
100
AcDbLayerTableRecord
  2
02__ASM_ALL_AXES
 70
0
 62
7
  6
CONTINUOUS
370
-3
390
F
  0
LAYER
  5
204
100
AcDbSymbolTableRecord
100
AcDbLayerTableRecord
  2
02___PRT_ALL_AXES
 70
0
 62
7
  6
CONTINUOUS
370
-3
390
F
  0
LAYER
  5
205
100
AcDbSymbolTableRecord
100
AcDbLayerTableRecord
  2
03_ALL_CURVES
 70
0
 62
7
  6
CONTINUOUS
370
-3
390
F
  0
LAYER
  5
206
100
AcDbSymbolTableRecord
100
AcDbLayerTableRecord
  2
03__ASM_ALL_CURVES
 70
0
 62
7
  6
CONTINUOUS
370
-3
390
F
  0
LAYER
  5
207
100
AcDbSymbolTableRecord
100
AcDbLayerTableRecord
  2
03___PRT_ALL_CURVES
 70
0
 62
7
  6
CONTINUOUS
370
-3
390
F
  0
LAYER
  5
208
100
AcDbSymbolTableRecord
100
AcDbLayerTableRecord
  2
04_ALL_DTM_PNT
 70
0
 62
7
  6
CONTINUOUS
370
-3
390
F
  0
LAYER
  5
209
100
AcDbSymbolTableRecord
100
AcDbLayerTableRecord
  2
04__ASM_ALL_DTM_PNT
 70
0
 62
7
  6
CONTINUOUS
370
-3
390
F
  0
LAYER
  5
20A
100
AcDbSymbolTableRecord
100
AcDbLayerTableRecord
  2
04___PRT_ALL_DTM_PNT
 70
0
 62
7
  6
CONTINUOUS
370
-3
390
F
  0
LAYER
  5
20B
100
AcDbSymbolTableRecord
100
AcDbLayerTableRecord
  2
05_ALL_DTM_CSYS
 70
0
 62
7
  6
CONTINUOUS
370
-3
390
F
  0
LAYER
  5
20C
100
AcDbSymbolTableRecord
100
AcDbLayerTableRecord
  2
05__ASM_ALL_DTM_CSYS
 70
0
 62
7
  6
CONTINUOUS
370
-3
390
F
  0
LAYER
  5
20D
100
AcDbSymbolTableRecord
100
AcDbLayerTableRecord
  2
05__ASM_DEF_DTM_CSYS
 70
0
 62
7
  6
CONTINUOUS
370
-3
390
F
  0
LAYER
  5
20E
100
AcDbSymbolTableRecord
100
AcDbLayerTableRecord
  2
05___PRT_ALL_DTM_CSYS
 70
0
 62
7
  6
CONTINUOUS
370
-3
390
F
  0
LAYER
  5
20F
100
AcDbSymbolTableRecord
100
AcDbLayerTableRecord
  2
05___PRT_DEF_DTM_CSYS
 70
0
 62
7
  6
CONTINUOUS
370
-3
390
F
  0
LAYER
  5
210
100
AcDbSymbolTableRecord
100
AcDbLayerTableRecord
  2
06_ALL_SURFS
 70
0
 62
7
  6
CONTINUOUS
370
-3
390
F
  0
LAYER
  5
211
100
AcDbSymbolTableRecord
100
AcDbLayerTableRecord
  2
06__ASM_ALL_SURFS
 70
0
 62
7
  6
CONTINUOUS
370
-3
390
F
  0
LAYER
  5
212
100
AcDbSymbolTableRecord
100
AcDbLayerTableRecord
  2
06___PRT_ALL_SURFS
 70
0
 62
7
  6
CONTINUOUS
370
-3
390
F
  0
LAYER
  5
213
100
AcDbSymbolTableRecord
100
AcDbLayerTableRecord
  2
07__ASM_ALL_SKELETONS
 70
0
 62
7
  6
CONTINUOUS
370
-3
390
F
  0
ENDTAB
  0
TABLE
  2
STYLE
  5
3
100
AcDbSymbolTable
 70
1
  0
STYLE
  5
11
100
AcDbSymbolTableRecord
100
AcDbTextStyleTableRecord
  2
STANDARD
 70
0
 40
0.0
 41
0.8
 50
0.0
 71
0
 42
0.2
  3
txt
  4

  0
STYLE
  5
214
100
AcDbSymbolTableRecord
100
AcDbTextStyleTableRecord
  2
TEXTSTYLE_1
 70
0
 40
0.0
 41
0.8
 50
0.0
 71
0
 42
0.2
  3
gdt
  4

  0
ENDTAB
  0
TABLE
  2
VIEW
  5
6
100
AcDbSymbolTable
 70
0
  0
ENDTAB
  0
TABLE
  2
UCS
  5
7
100
AcDbSymbolTable
 70
0
  0
ENDTAB
  0
TABLE
  2
APPID
  5
9
100
AcDbSymbolTable
 70
1
  0
APPID
  5
215
100
AcDbSymbolTableRecord
100
AcDbRegAppTableRecord
  2
ACAD
 70
0
  0
ENDTAB
  0
TABLE
  2
BLOCK_RECORD
  5
1
100
AcDbSymbolTable
 70
0
  0
BLOCK_RECORD
  5
216
100
AcDbSymbolTableRecord
100
AcDbBlockTableRecord
  2
*Model_Space
  0
BLOCK_RECORD
  5
217
100
AcDbSymbolTableRecord
100
AcDbBlockTableRecord
  2
*Paper_Space
  0
ENDTAB
  0
TABLE
  2
DIMSTYLE
  5
A
100
AcDbSymbolTable
 70
1
100
AcDbDimStyleTable
 71
0
  0
DIMSTYLE
105
218
100
AcDbSymbolTableRecord
100
AcDbDimStyleTableRecord
  2
STANDARD
 70
0
  3

  4

 40
1.0
 41
0.1875
 42
0.0625
 43
0.38
 44
0.125
 45
0.0
 46
0.0
 47
0.0001
 48
0.0001
140
0.15625
141
0.09
142
0.0
143
25.4
144
1.0
145
0.0
146
1.0
147
0.09
 71
0.0
 72
0.0
 73
1
 74
1
 75
0
 76
0
 77
0
 78
4
 79
1
170
0
171
3
172
0
173
0
174
0
175
0
176
0
177
0
178
0
270
2
179
4
271
4
272
4
273
2
274
2
275
0
280
0
281
0
282
0
283
1
284
4
285
0
286
0
287
3
288
0
340
11
278
46
  0
ENDTAB
  0
ENDSEC
  0
SECTION
  2
BLOCKS
  0
BLOCK
  5
20
100
AcDbEntity
  8
0
100
AcDbBlockBegin
  2
*Model_Space
 70
0
 10
0.0
 20
0.0
 30
0.0
  3
*Model_Space
  1

  0
ENDBLK
  5
21
100
AcDbEntity
  8
0
100
AcDbBlockEnd
  0
BLOCK
  5
1C
100
AcDbEntity
  8
0
100
AcDbBlockBegin
  2
*Paper_Space
 70
0
 10
0.0
 20
0.0
 30
0.0
  3
*Paper_Space
  1

  0
ENDBLK
  5
1D
100
AcDbEntity
  8
0
100
AcDbBlockEnd
  0
ENDSEC
  0
SECTION
  2
ENTITIES
  0
MTEXT
  5
219
100
AcDbEntity
  8
0
100
AcDbMText
 62
7
  6
CONTINUOUS
  7
STANDARD
 71
1
 72
1
 10
15.9560215477
 20
0.9479130325
 30
0.0
 11
1.0
 21
0.0
 31
0.0
 44
0.9
  1
SCALE: 1:1.000
 40
0.3
 41
3.36
  0
LINE
  5
21A
100
AcDbEntity
  8
0
100
AcDbLine
 62
7
  6
CONTINUOUS
 10
0.0
 20
0.0
 11
0.0
 21
17.0
  0
LINE
  5
21B
100
AcDbEntity
  8
0
100
AcDbLine
 62
7
  6
CONTINUOUS
 10
0.0
 20
0.0
 11
22.0
 21
0.0
  0
LINE
  5
21C
100
AcDbEntity
  8
0
100
AcDbLine
 62
7
  6
CONTINUOUS
 10
0.0
 20
17.0
 11
22.0
 21
17.0
  0
LINE
  5
21D
100
AcDbEntity
  8
0
100
AcDbLine
 62
7
  6
CONTINUOUS
 10
22.0
 20
0.0
 11
22.0
 21
17.0
  0
LINE
  5
21E
100
AcDbEntity
  8
0
100
AcDbLine
 62
7
  6
CONTINUOUS
 10
5.5366172762
 20
5.7006198968
 11
5.5366172762
 21
5.6360351465
  0
LINE
  5
21F
100
AcDbEntity
  8
0
100
AcDbLine
 62
7
  6
CONTINUOUS
 10
5.6142476438
 20
5.3331494206
 11
5.5400246935
 21
5.610153242
  0
LINE
  5
220
100
AcDbEntity
  8
0
100
AcDbLine
 62
7
  6
CONTINUOUS
 10
5.6383957894
 20
5.3146198968
 11
6.6223387629
 21
5.3146198968
  0
LINE
  5
221
100
AcDbEntity
  8
0
100
AcDbLine
 62
7
  6
CONTINUOUS
 10
5.6016867501
 20
5.4516198968
 11
6.6590478023
 21
5.4516198968
  0
LINE
  5
222
100
AcDbEntity
  8
0
100
AcDbLine
 62
7
  6
CONTINUOUS
 10
6.6991172762
 20
5.7256198968
 11
5.5616172762
 21
5.7256198968
  0
LINE
  5
223
100
AcDbEntity
  8
0
100
AcDbLine
 62
7
  6
CONTINUOUS
 10
6.6464869086
 20
5.3331494206
 11
6.7207098588
 21
5.610153242
  0
LINE
  5
224
100
AcDbEntity
  8
0
100
AcDbLine
 62
7
  6
CONTINUOUS
 10
6.7241172762
 20
5.6360351465
 11
6.7241172762
 21
5.7006198968
  0
LINE
  5
225
100
AcDbEntity
  8
0
100
AcDbLine
 62
7
  6
CONTINUOUS
 10
6.6646220839
 20
10.6000477814
 11
5.4771220839
 21
10.6000477814
  0
LINE
  5
226
100
AcDbEntity
  8
0
100
AcDbLine
 62
7
  6
CONTINUOUS
 10
5.4771220839
 20
10.6000477814
 11
5.4771220839
 21
14.6000477814
  0
LINE
  5
227
100
AcDbEntity
  8
0
100
AcDbLine
 62
7
  6
CONTINUOUS
 10
6.6646220839
 20
10.6000477814
 11
6.6646220839
 21
14.6000477814
  0
LINE
  5
228
100
AcDbEntity
  8
0
100
AcDbLine
 62
7
  6
CONTINUOUS
 10
5.4771220839
 20
14.6000477814
 11
6.6646220839
 21
14.6000477814
  0
LINE
  5
229
100
AcDbEntity
  8
0
100
AcDbLine
 62
7
  6
CONTINUOUS
 10
13.5603552569
 20
5.3921247044
 11
13.5603552569
 21
5.6661247044
  0
LINE
  5
22A
100
AcDbEntity
  8
0
100
AcDbLine
 62
7
  6
CONTINUOUS
 10
13.6756692804
 20
5.3655792781
 11
13.6950412335
 21
5.2816701308
  0
LINE
  5
22B
100
AcDbEntity
  8
0
100
AcDbLine
 62
7
  6
CONTINUOUS
 10
13.9256692804
 20
5.2816701308
 11
13.9450412335
 21
5.3655792781
  0
LINE
  5
22C
100
AcDbEntity
  8
0
100
AcDbLine
 62
7
  6
CONTINUOUS
 10
14.1756692804
 20
5.3655792781
 11
14.1950412335
 21
5.2816701308
  0
LINE
  5
22D
100
AcDbEntity
  8
0
100
AcDbLine
 62
7
  6
CONTINUOUS
 10
14.4256692804
 20
5.2816701308
 11
14.4450412335
 21
5.3655792781
  0
LINE
  5
22E
100
AcDbEntity
  8
0
100
AcDbLine
 62
7
  6
CONTINUOUS
 10
14.6756692804
 20
5.3655792781
 11
14.6950412335
 21
5.2816701308
  0
LINE
  5
22F
100
AcDbEntity
  8
0
100
AcDbLine
 62
7
  6
CONTINUOUS
 10
14.9256692804
 20
5.2816701308
 11
14.9450412335
 21
5.3655792781
  0
LINE
  5
230
100
AcDbEntity
  8
0
100
AcDbLine
 62
7
  6
CONTINUOUS
 10
15.1756692804
 20
5.3655792781
 11
15.1950412335
 21
5.2816701308
  0
LINE
  5
231
100
AcDbEntity
  8
0
100
AcDbLine
 62
7
  6
CONTINUOUS
 10
13.7284134082
 20
5.2551247044
 11
13.8922971057
 21
5.2551247044
  0
LINE
  5
232
100
AcDbEntity
  8
0
100
AcDbLine
 62
7
  6
CONTINUOUS
 10
14.2284134082
 20
5.2551247044
 11
14.3922971057
 21
5.2551247044
  0
LINE
  5
233
100
AcDbEntity
  8
0
100
AcDbLine
 62
7
  6
CONTINUOUS
 10
14.7284134082
 20
5.2551247044
 11
14.8922971057
 21
5.2551247044
  0
LINE
  5
234
100
AcDbEntity
  8
0
100
AcDbLine
 62
7
  6
CONTINUOUS
 10
15.2284134082
 20
5.2551247044
 11
15.3922971057
 21
5.2551247044
  0
LINE
  5
235
100
AcDbEntity
  8
0
100
AcDbLine
 62
7
  6
CONTINUOUS
 10
15.7284134082
 20
5.2551247044
 11
15.8922971057
 21
5.2551247044
  0
LINE
  5
236
100
AcDbEntity
  8
0
100
AcDbLine
 62
7
  6
CONTINUOUS
 10
16.2284134082
 20
5.2551247044
 11
16.3922971057
 21
5.2551247044
  0
LINE
  5
237
100
AcDbEntity
  8
0
100
AcDbLine
 62
7
  6
CONTINUOUS
 10
16.7284134082
 20
5.2551247044
 11
16.8922971057
 21
5.2551247044
  0
LINE
  5
238
100
AcDbEntity
  8
0
100
AcDbLine
 62
7
  6
CONTINUOUS
 10
17.2284134082
 20
5.2551247044
 11
17.3922971057
 21
5.2551247044
  0
LINE
  5
239
100
AcDbEntity
  8
0
100
AcDbLine
 62
7
  6
CONTINUOUS
 10
15.4256692804
 20
5.2816701308
 11
15.4450412335
 21
5.3655792781
  0
LINE
  5
23A
100
AcDbEntity
  8
0
100
AcDbLine
 62
7
  6
CONTINUOUS
 10
13.5603552569
 20
5.3921247044
 11
13.6422971057
 21
5.3921247044
  0
LINE
  5
23B
100
AcDbEntity
  8
0
100
AcDbLine
 62
7
  6
CONTINUOUS
 10
13.9784134082
 20
5.3921247044
 11
14.1422971057
 21
5.3921247044
  0
LINE
  5
23C
100
AcDbEntity
  8
0
100
AcDbLine
 62
7
  6
CONTINUOUS
 10
14.4784134082
 20
5.3921247044
 11
14.6422971057
 21
5.3921247044
  0
LINE
  5
23D
100
AcDbEntity
  8
0
100
AcDbLine
 62
7
  6
CONTINUOUS
 10
14.9784134082
 20
5.3921247044
 11
15.1422971057
 21
5.3921247044
  0
LINE
  5
23E
100
AcDbEntity
  8
0
100
AcDbLine
 62
7
  6
CONTINUOUS
 10
15.4784134082
 20
5.3921247044
 11
15.6422971057
 21
5.3921247044
  0
LINE
  5
23F
100
AcDbEntity
  8
0
100
AcDbLine
 62
7
  6
CONTINUOUS
 10
15.9784134082
 20
5.3921247044
 11
16.1422971057
 21
5.3921247044
  0
LINE
  5
240
100
AcDbEntity
  8
0
100
AcDbLine
 62
7
  6
CONTINUOUS
 10
16.4784134082
 20
5.3921247044
 11
16.6422971057
 21
5.3921247044
  0
LINE
  5
241
100
AcDbEntity
  8
0
100
AcDbLine
 62
7
  6
CONTINUOUS
 10
16.9784134082
 20
5.3921247044
 11
17.1422971057
 21
5.3921247044
  0
LINE
  5
242
100
AcDbEntity
  8
0
100
AcDbLine
 62
7
  6
CONTINUOUS
 10
17.4784134082
 20
5.3921247044
 11
17.5603552569
 21
5.3921247044
  0
LINE
  5
243
100
AcDbEntity
  8
0
100
AcDbLine
 62
7
  6
CONTINUOUS
 10
15.6756692804
 20
5.3655792781
 11
15.6950412335
 21
5.2816701308
  0
LINE
  5
244
100
AcDbEntity
  8
0
100
AcDbLine
 62
7
  6
CONTINUOUS
 10
13.5603552569
 20
5.6661247044
 11
17.5603552569
 21
5.6661247044
  0
LINE
  5
245
100
AcDbEntity
  8
0
100
AcDbLine
 62
7
  6
CONTINUOUS
 10
15.9256692804
 20
5.2816701308
 11
15.9450412335
 21
5.3655792781
  0
LINE
  5
246
100
AcDbEntity
  8
0
100
AcDbLine
 62
7
  6
CONTINUOUS
 10
16.1756692804
 20
5.3655792781
 11
16.1950412335
 21
5.2816701308
  0
LINE
  5
247
100
AcDbEntity
  8
0
100
AcDbLine
 62
7
  6
CONTINUOUS
 10
16.4256692804
 20
5.2816701308
 11
16.4450412335
 21
5.3655792781
  0
LINE
  5
248
100
AcDbEntity
  8
0
100
AcDbLine
 62
7
  6
CONTINUOUS
 10
16.6756692804
 20
5.3655792781
 11
16.6950412335
 21
5.2816701308
  0
LINE
  5
249
100
AcDbEntity
  8
0
100
AcDbLine
 62
7
  6
CONTINUOUS
 10
16.9256692804
 20
5.2816701308
 11
16.9450412335
 21
5.3655792781
  0
LINE
  5
24A
100
AcDbEntity
  8
0
100
AcDbLine
 62
7
  6
CONTINUOUS
 10
17.1756692804
 20
5.3655792781
 11
17.1950412335
 21
5.2816701308
  0
LINE
  5
24B
100
AcDbEntity
  8
0
100
AcDbLine
 62
7
  6
CONTINUOUS
 10
17.5603552569
 20
5.3921247044
 11
17.5603552569
 21
5.6661247044
  0
LINE
  5
24C
100
AcDbEntity
  8
0
100
AcDbLine
 62
7
  6
CONTINUOUS
 10
17.4256692804
 20
5.2816701308
 11
17.4450412335
 21
5.3655792781
  0
LINE
  5
24D
100
AcDbEntity
  8
0
100
AcDbLine
 62
7
  6
CONTINUOUS
 10
14.4551431293
 20
10.9575365157
 11
14.5324027563
 21
10.8705087447
  0
LWPOLYLINE
  5
24E
100
AcDbEntity
  8
0
100
AcDbPolyline
 62
7
  6
CONTINUOUS
 90
6
 70
0
 10
15.5732683726
 20
10.8925152508
 10
15.5808849431
 20
10.8936849437
 10
15.5875819548
 20
10.8969245648
 10
15.5927178959
 20
10.9015030423
 10
15.5963484868
 20
10.9068401996
 10
15.5985422245
 20
10.9119073865
  0
LINE
  5
24F
100
AcDbEntity
  8
0
100
AcDbLine
 62
7
  6
CONTINUOUS
 10
14.5602969519
 20
10.858990608
 11
15.5341909737
 21
10.858990608
  0
LINE
  5
250
100
AcDbEntity
  8
0
100
AcDbLine
 62
7
  6
CONTINUOUS
 10
15.5582888207
 20
10.892514656
 11
15.5732680794
 21
10.892514656
  0
LINE
  5
251
100
AcDbEntity
  8
0
100
AcDbLine
 62
7
  6
CONTINUOUS
 10
14.4244085728
 20
11.0137714901
 11
14.4441096256
 21
10.9736249655
  0
LINE
  5
252
100
AcDbEntity
  8
0
100
AcDbLine
 62
7
  6
CONTINUOUS
 10
15.4875159317
 20
11.0293117393
 11
14.439809051
 21
11.0293117393
  0
LWPOLYLINE
  5
253
100
AcDbEntity
  8
0
100
AcDbPolyline
 62
7
  6
CONTINUOUS
 90
6
 70
0
 10
15.6943015343
 20
11.2841787056
 10
15.7019181048
 20
11.2853483985
 10
15.7086151165
 20
11.2885880196
 10
15.7137510576
 20
11.2931664971
 10
15.7173816485
 20
11.2985036545
 10
15.7195753862
 20
11.3035708413
  0
LINE
  5
254
100
AcDbEntity
  8
0
100
AcDbLine
 62
7
  6
CONTINUOUS
 10
15.6793219824
 20
11.2841781108
 11
15.6943012411
 21
11.2841781108
  0
LWPOLYLINE
  5
255
100
AcDbEntity
  8
0
100
AcDbPolyline
 62
7
  6
CONTINUOUS
 90
6
 70
0
 10
15.815334696
 20
11.6758421604
 10
15.8229512665
 20
11.6770118534
 10
15.8296482782
 20
11.6802514744
 10
15.8347842193
 20
11.6848299519
 10
15.8384148103
 20
11.6901671093
 10
15.8406085479
 20
11.6952342962
  0
LINE
  5
256
100
AcDbEntity
  8
0
100
AcDbLine
 62
7
  6
CONTINUOUS
 10
15.8003551441
 20
11.6758415656
 11
15.8153344028
 21
11.6758415656
  0
LINE
  5
257
100
AcDbEntity
  8
0
100
AcDbLine
 62
7
  6
CONTINUOUS
 10
14.4235495765
 20
11.0211526744
 11
15.3918148702
 21
14.1544603129
  0
LWPOLYLINE
  5
258
100
AcDbEntity
  8
0
100
AcDbPolyline
 62
7
  6
CONTINUOUS
 90
6
 70
0
 10
15.9363678577
 20
12.0675056152
 10
15.9439844282
 20
12.0686753082
 10
15.9506814399
 20
12.0719149292
 10
15.955817381
 20
12.0764934067
 10
15.959447972
 20
12.0818305641
 10
15.9616417096
 20
12.086897751
  0
LINE
  5
259
100
AcDbEntity
  8
0
100
AcDbLine
 62
7
  6
CONTINUOUS
 10
15.537869556
 20
10.9736249655
 11
15.5181685032
 21
11.0137714901
  0
LINE
  5
25A
100
AcDbEntity
  8
0
100
AcDbLine
 62
7
  6
CONTINUOUS
 10
15.9213883058
 20
12.0675050204
 11
15.9363675645
 21
12.0675050204
  0
LWPOLYLINE
  5
25B
100
AcDbEntity
  8
0
100
AcDbPolyline
 62
7
  6
CONTINUOUS
 90
6
 70
0
 10
16.0574010194
 20
12.45916907
 10
16.0650175899
 20
12.460338763
 10
16.0717146016
 20
12.463578384
 10
16.0768505427
 20
12.4681568615
 10
16.0804811337
 20
12.4734940189
 10
16.0826748713
 20
12.4785612058
  0
LINE
  5
25C
100
AcDbEntity
  8
0
100
AcDbLine
 62
7
  6
CONTINUOUS
 10
15.5507806082
 20
10.8705087447
 11
15.5426261812
 21
10.9575365157
  0
LINE
  5
25D
100
AcDbEntity
  8
0
100
AcDbLine
 62
7
  6
CONTINUOUS
 10
16.0424214675
 20
12.4591684753
 11
16.0574007262
 21
12.4591684753
  0
LINE
  5
25E
100
AcDbEntity
  8
0
100
AcDbLine
 62
7
  6
CONTINUOUS
 10
15.6416603932
 20
11.0609792771
 11
15.6414624596
 21
11.1283126108
  0
LINE
  5
25F
100
AcDbEntity
  8
0
100
AcDbLine
 62
7
  6
CONTINUOUS
 10
15.6414620193
 20
11.1283334839
 11
15.6415301955
 21
11.1329458964
  0
LINE
  5
260
100
AcDbEntity
  8
0
100
AcDbLine
 62
7
  6
CONTINUOUS
 10
15.6415956494
 20
11.0582635433
 11
15.6416601486
 21
11.0610269591
  0
LWPOLYLINE
  5
261
100
AcDbEntity
  8
0
100
AcDbPolyline
 62
7
  6
CONTINUOUS
 90
5
 70
0
 10
15.6415301955
 20
11.1329458964
 10
15.6424092393
 20
11.1462938938
 10
15.644311536
 20
11.1614233193
 10
15.6470340453
 20
11.1764519547
 10
15.6501965544
 20
11.1896329663
  0
LINE
  5
262
100
AcDbEntity
  8
0
100
AcDbLine
 62
7
  6
CONTINUOUS
 10
15.5504477477
 20
10.8671505038
 11
15.5507806082
 21
10.8705087447
  0
LWPOLYLINE
  5
263
100
AcDbEntity
  8
0
100
AcDbPolyline
 62
7
  6
CONTINUOUS
 90
6
 70
0
 10
16.1784341811
 20
12.8508325248
 10
16.1860507516
 20
12.8520022178
 10
16.1927477633
 20
12.8552418389
 10
16.1978837044
 20
12.8598203163
 10
16.2015142954
 20
12.8651574737
 10
16.203708033
 20
12.8702246606
  0
LINE
  5
264
100
AcDbEntity
  8
0
100
AcDbLine
 62
7
  6
CONTINUOUS
 10
15.7626935549
 20
11.4526427319
 11
15.7624956214
 21
11.5199760656
  0
LINE
  5
265
100
AcDbEntity
  8
0
100
AcDbLine
 62
7
  6
CONTINUOUS
 10
15.762495181
 20
11.5199969387
 11
15.7625633572
 21
11.5246093512
  0
LINE
  5
266
100
AcDbEntity
  8
0
100
AcDbLine
 62
7
  6
CONTINUOUS
 10
15.7626288111
 20
11.4499269981
 11
15.7626933103
 21
11.4526904139
  0
LWPOLYLINE
  5
267
100
AcDbEntity
  8
0
100
AcDbPolyline
 62
7
  6
CONTINUOUS
 90
5
 70
0
 10
15.7625633572
 20
11.5246093512
 10
15.763442401
 20
11.5379573486
 10
15.7653446977
 20
11.5530867741
 10
15.768067207
 20
11.5681154095
 10
15.7712297161
 20
11.5812964211
  0
LINE
  5
268
100
AcDbEntity
  8
0
100
AcDbLine
 62
7
  6
CONTINUOUS
 10
15.640885813
 20
11.0513710513
 11
15.6415956494
 21
11.0582635433
  0
LINE
  5
269
100
AcDbEntity
  8
0
100
AcDbLine
 62
7
  6
CONTINUOUS
 10
15.7619189748
 20
11.4430345061
 11
15.7626288111
 21
11.4499269981
  0
LINE
  5
26A
100
AcDbEntity
  8
0
100
AcDbLine
 62
7
  6
CONTINUOUS
 10
16.4211744646
 20
13.6829581888
 11
16.4218670146
 21
13.6843744892
  0
LINE
  5
26B
100
AcDbEntity
  8
0
100
AcDbLine
 62
7
  6
CONTINUOUS
 10
16.3001413029
 20
13.291294734
 11
16.3008338529
 21
13.2927110344
  0
LINE
  5
26C
100
AcDbEntity
  8
0
100
AcDbLine
 62
7
  6
CONTINUOUS
 10
16.1634546292
 20
12.8508319301
 11
16.1784338879
 21
12.8508319301
  0
LINE
  5
26D
100
AcDbEntity
  8
0
100
AcDbLine
 62
7
  6
CONTINUOUS
 10
15.8837267166
 20
11.8443061867
 11
15.8835287831
 21
11.9116395205
  0
LINE
  5
26E
100
AcDbEntity
  8
0
100
AcDbLine
 62
7
  6
CONTINUOUS
 10
16.0047598783
 20
12.2359696415
 11
16.0045619448
 21
12.3033029753
  0
LINE
  5
26F
100
AcDbEntity
  8
0
100
AcDbLine
 62
7
  6
CONTINUOUS
 10
15.8835283427
 20
11.9116603935
 11
15.8835965189
 21
11.916272806
  0
LINE
  5
270
100
AcDbEntity
  8
0
100
AcDbLine
 62
7
  6
CONTINUOUS
 10
16.0045615044
 20
12.3033238483
 11
16.0046296807
 21
12.3079362608
  0
LINE
  5
271
100
AcDbEntity
  8
0
100
AcDbLine
 62
7
  6
CONTINUOUS
 10
15.8836619728
 20
11.841590453
 11
15.883726472
 21
11.8443538687
  0
LWPOLYLINE
  5
272
100
AcDbEntity
  8
0
100
AcDbPolyline
 62
7
  6
CONTINUOUS
 90
5
 70
0
 10
15.8835965189
 20
11.916272806
 10
15.8844755627
 20
11.9296208034
 10
15.8863778594
 20
11.9447502289
 10
15.8891003687
 20
11.9597788643
 10
15.8922628778
 20
11.9729598759
  0
LINE
  5
273
100
AcDbEntity
  8
0
100
AcDbLine
 62
7
  6
CONTINUOUS
 10
15.8829521365
 20
11.8346979609
 11
15.8836619728
 21
11.841590453
  0
LINE
  5
274
100
AcDbEntity
  8
0
100
AcDbLine
 62
7
  6
CONTINUOUS
 10
15.6394865753
 20
11.0444982202
 11
15.640885813
 21
11.0513710513
  0
LINE
  5
275
100
AcDbEntity
  8
0
100
AcDbLine
 62
7
  6
CONTINUOUS
 10
15.760519737
 20
11.436161675
 11
15.7619189748
 21
11.4430345061
  0
LINE
  5
276
100
AcDbEntity
  8
0
100
AcDbLine
 62
7
  6
CONTINUOUS
 10
15.8815528987
 20
11.8278251298
 11
15.8829521365
 21
11.8346979609
  0
LINE
  5
277
100
AcDbEntity
  8
0
100
AcDbLine
 62
7
  6
CONTINUOUS
 10
16.4175168862
 20
13.6729790512
 11
16.4195640047
 21
13.6790336979
  0
LINE
  5
278
100
AcDbEntity
  8
0
100
AcDbLine
 62
7
  6
CONTINUOUS
 10
16.2964837245
 20
13.2813155963
 11
16.298530843
 21
13.2873702431
  0
LINE
  5
279
100
AcDbEntity
  8
0
100
AcDbLine
 62
7
  6
CONTINUOUS
 10
16.4195640047
 20
13.6790336979
 11
16.4211744646
 21
13.6829581888
  0
LINE
  5
27A
100
AcDbEntity
  8
0
100
AcDbLine
 62
7
  6
CONTINUOUS
 10
16.298530843
 20
13.2873702431
 11
16.3001413029
 21
13.291294734
  0
LINE
  5
27B
100
AcDbEntity
  8
0
100
AcDbLine
 62
7
  6
CONTINUOUS
 10
16.1774976813
 20
12.8957067883
 11
16.1791081412
 21
12.8996312792
  0
LINE
  5
27C
100
AcDbEntity
  8
0
100
AcDbLine
 62
7
  6
CONTINUOUS
 10
16.1791081412
 20
12.8996312792
 11
16.1798006912
 21
12.9010475796
  0
LINE
  5
27D
100
AcDbEntity
  8
0
100
AcDbLine
 62
7
  6
CONTINUOUS
 10
16.0580749794
 20
12.5079678243
 11
16.0587675295
 21
12.5093841248
  0
LINE
  5
27E
100
AcDbEntity
  8
0
100
AcDbLine
 62
7
  6
CONTINUOUS
 10
16.12579304
 20
12.6276330963
 11
16.1255951065
 21
12.6949664301
  0
LINE
  5
27F
100
AcDbEntity
  8
0
100
AcDbLine
 62
7
  6
CONTINUOUS
 10
16.1255946661
 20
12.6949873031
 11
16.1256628424
 21
12.6995997156
  0
LINE
  5
280
100
AcDbEntity
  8
0
100
AcDbLine
 62
7
  6
CONTINUOUS
 10
16.0046951345
 20
12.2332539078
 11
16.0047596337
 21
12.2360173235
  0
LINE
  5
281
100
AcDbEntity
  8
0
100
AcDbLine
 62
7
  6
CONTINUOUS
 10
16.1257282962
 20
12.6249173626
 11
16.1257927954
 21
12.6276807783
  0
LWPOLYLINE
  5
282
100
AcDbEntity
  8
0
100
AcDbPolyline
 62
7
  6
CONTINUOUS
 90
5
 70
0
 10
16.0046296807
 20
12.3079362608
 10
16.0055087244
 20
12.3212842582
 10
16.0074110211
 20
12.3364136837
 10
16.0101335304
 20
12.3514423191
 10
16.0132960395
 20
12.3646233307
  0
LWPOLYLINE
  5
283
100
AcDbEntity
  8
0
100
AcDbPolyline
 62
7
  6
CONTINUOUS
 90
5
 70
0
 10
16.1256628424
 20
12.6995997156
 10
16.1265418861
 20
12.7129477131
 10
16.1284441828
 20
12.7280771385
 10
16.1311666921
 20
12.7431057739
 10
16.1343292012
 20
12.7562867855
  0
LINE
  5
284
100
AcDbEntity
  8
0
100
AcDbLine
 62
7
  6
CONTINUOUS
 10
16.0039852982
 20
12.2263614157
 11
16.0046951345
 21
12.2332539078
  0
LINE
  5
285
100
AcDbEntity
  8
0
100
AcDbLine
 62
7
  6
CONTINUOUS
 10
16.1250184599
 20
12.6180248705
 11
16.1257282962
 21
12.6249173626
  0
LINE
  5
286
100
AcDbEntity
  8
0
100
AcDbLine
 62
7
  6
CONTINUOUS
 10
16.0025860604
 20
12.2194885846
 11
16.0039852982
 21
12.2263614157
  0
LINE
  5
287
100
AcDbEntity
  8
0
100
AcDbLine
 62
7
  6
CONTINUOUS
 10
16.1236192221
 20
12.6111520394
 11
16.1250184599
 21
12.6180248705
  0
LINE
  5
288
100
AcDbEntity
  8
0
100
AcDbLine
 62
7
  6
CONTINUOUS
 10
16.2446523838
 20
13.0028154942
 11
16.2460516216
 21
13.0096883253
  0
LINE
  5
289
100
AcDbEntity
  8
0
100
AcDbLine
 62
7
  6
CONTINUOUS
 10
15.6387704366
 20
11.0419714235
 11
15.6394865753
 21
11.0444982202
  0
LINE
  5
28A
100
AcDbEntity
  8
0
100
AcDbLine
 62
7
  6
CONTINUOUS
 10
15.7598035983
 20
11.4336348784
 11
15.760519737
 21
11.436161675
  0
LINE
  5
28B
100
AcDbEntity
  8
0
100
AcDbLine
 62
7
  6
CONTINUOUS
 10
15.88083676
 20
11.8252983332
 11
15.8815528987
 21
11.8278251298
  0
LINE
  5
28C
100
AcDbEntity
  8
0
100
AcDbLine
 62
7
  6
CONTINUOUS
 10
16.0018699217
 20
12.216961788
 11
16.0025860604
 21
12.2194885846
  0
LINE
  5
28D
100
AcDbEntity
  8
0
100
AcDbLine
 62
7
  6
CONTINUOUS
 10
16.1229030834
 20
12.6086252428
 11
16.1236192221
 21
12.6111520394
  0
LINE
  5
28E
100
AcDbEntity
  8
0
100
AcDbLine
 62
7
  6
CONTINUOUS
 10
16.2439362451
 20
13.0002886976
 11
16.2446523838
 21
13.0028154942
  0
LINE
  5
28F
100
AcDbEntity
  8
0
100
AcDbLine
 62
7
  6
CONTINUOUS
 10
16.3649694068
 20
13.3919521524
 11
16.3656855455
 21
13.394478949
  0
LINE
  5
290
100
AcDbEntity
  8
0
100
AcDbLine
 62
7
  6
CONTINUOUS
 10
16.4860025685
 20
13.7836156072
 11
16.4867187072
 21
13.7861424039
  0
LINE
  5
291
100
AcDbEntity
  8
0
100
AcDbLine
 62
7
  6
CONTINUOUS
 10
15.6501965544
 20
11.1896329663
 11
15.6516419968
 21
11.1946113931
  0
LINE
  5
292
100
AcDbEntity
  8
0
100
AcDbLine
 62
7
  6
CONTINUOUS
 10
15.7712297161
 20
11.5812964211
 11
15.7726751585
 21
11.5862748479
  0
LINE
  5
293
100
AcDbEntity
  8
0
100
AcDbLine
 62
7
  6
CONTINUOUS
 10
15.8922628778
 20
11.9729598759
 11
15.8937083202
 21
11.9779383027
  0
LINE
  5
294
100
AcDbEntity
  8
0
100
AcDbLine
 62
7
  6
CONTINUOUS
 10
16.0132960395
 20
12.3646233307
 11
16.0147414819
 21
12.3696017575
  0
LINE
  5
295
100
AcDbEntity
  8
0
100
AcDbLine
 62
7
  6
CONTINUOUS
 10
16.1343292012
 20
12.7562867855
 11
16.1357746437
 21
12.7612652123
  0
LINE
  5
296
100
AcDbEntity
  8
0
100
AcDbLine
 62
7
  6
CONTINUOUS
 10
16.2553623629
 20
13.1479502403
 11
16.2568078054
 21
13.1529286672
  0
LINE
  5
297
100
AcDbEntity
  8
0
100
AcDbLine
 62
7
  6
CONTINUOUS
 10
16.3763955246
 20
13.5396136951
 11
16.3778409671
 21
13.544592122
  0
LINE
  5
298
100
AcDbEntity
  8
0
100
AcDbLine
 62
7
  6
CONTINUOUS
 10
16.4974286863
 20
13.93127715
 11
16.4988741288
 21
13.9362555768
  0
LINE
  5
299
100
AcDbEntity
  8
0
100
AcDbLine
 62
7
  6
CONTINUOUS
 10
15.5514267739
 20
10.8703090644
 11
15.5702858111
 21
10.9313369313
  0
LINE
  5
29A
100
AcDbEntity
  8
0
100
AcDbLine
 62
7
  6
CONTINUOUS
 10
15.6516482477
 20
11.1946258726
 11
15.6913189728
 21
11.3230003861
  0
LINE
  5
29B
100
AcDbEntity
  8
0
100
AcDbLine
 62
7
  6
CONTINUOUS
 10
15.7726814094
 20
11.5862893274
 11
15.8123521346
 21
11.7146638409
  0
LINE
  5
29C
100
AcDbEntity
  8
0
100
AcDbLine
 62
7
  6
CONTINUOUS
 10
15.8937145711
 20
11.9779527822
 11
15.9333852963
 21
12.1063272957
  0
LINE
  5
29D
100
AcDbEntity
  8
0
100
AcDbLine
 62
7
  6
CONTINUOUS
 10
16.0147477328
 20
12.369616237
 11
16.054418458
 21
12.4979907505
  0
LINE
  5
29E
100
AcDbEntity
  8
0
100
AcDbLine
 62
7
  6
CONTINUOUS
 10
16.1357808945
 20
12.7612796918
 11
16.1754516197
 21
12.8896542053
  0
LINE
  5
29F
100
AcDbEntity
  8
0
100
AcDbLine
 62
7
  6
CONTINUOUS
 10
16.2568140563
 20
13.1529431466
 11
16.2964847814
 21
13.2813176601
  0
LINE
  5
2A0
100
AcDbEntity
  8
0
100
AcDbLine
 62
7
  6
CONTINUOUS
 10
16.377847218
 20
13.5446066014
 11
16.4175179431
 21
13.6729811149
  0
LINE
  5
2A1
100
AcDbEntity
  8
0
100
AcDbLine
 62
7
  6
CONTINUOUS
 10
16.4988803797
 20
13.9362700562
 11
16.5187157417
 21
14.0004573114
  0
LINE
  5
2A2
100
AcDbEntity
  8
0
100
AcDbLine
 62
7
  6
CONTINUOUS
 10
15.5991111383
 20
10.9136335795
 11
15.6387818627
 21
11.0420080907
  0
LINE
  5
2A3
100
AcDbEntity
  8
0
100
AcDbLine
 62
7
  6
CONTINUOUS
 10
15.7201443
 20
11.3052970343
 11
15.7598150244
 21
11.4336715456
  0
LINE
  5
2A4
100
AcDbEntity
  8
0
100
AcDbLine
 62
7
  6
CONTINUOUS
 10
15.8411774617
 20
11.6969604891
 11
15.8808481861
 21
11.8253350004
  0
LINE
  5
2A5
100
AcDbEntity
  8
0
100
AcDbLine
 62
7
  6
CONTINUOUS
 10
15.9622106234
 20
12.088623944
 11
16.0018813479
 21
12.2169984552
  0
LINE
  5
2A6
100
AcDbEntity
  8
0
100
AcDbLine
 62
7
  6
CONTINUOUS
 10
16.0832437851
 20
12.4802873988
 11
16.1229145096
 21
12.60866191
  0
LINE
  5
2A7
100
AcDbEntity
  8
0
100
AcDbLine
 62
7
  6
CONTINUOUS
 10
16.2042769468
 20
12.8719508536
 11
16.2439476713
 21
13.0003253648
  0
LINE
  5
2A8
100
AcDbEntity
  8
0
100
AcDbLine
 62
7
  6
CONTINUOUS
 10
16.3253101086
 20
13.2636143084
 11
16.364980833
 21
13.3919888196
  0
LINE
  5
2A9
100
AcDbEntity
  8
0
100
AcDbLine
 62
7
  6
CONTINUOUS
 10
16.4463432703
 20
13.6552777632
 11
16.4860139947
 21
13.7836522744
  0
LINE
  5
2AA
100
AcDbEntity
  8
0
100
AcDbLine
 62
7
  6
CONTINUOUS
 10
16.4860139947
 20
13.7836522744
 11
16.4860025694
 21
13.783615607
  0
LINE
  5
2AB
100
AcDbEntity
  8
0
100
AcDbLine
 62
7
  6
CONTINUOUS
 10
16.364980833
 20
13.3919888196
 11
16.3649694077
 21
13.3919521522
  0
LINE
  5
2AC
100
AcDbEntity
  8
0
100
AcDbLine
 62
7
  6
CONTINUOUS
 10
16.2439476713
 20
13.0003253648
 11
16.243936246
 21
13.0002886974
  0
LINE
  5
2AD
100
AcDbEntity
  8
0
100
AcDbLine
 62
7
  6
CONTINUOUS
 10
16.1229145096
 20
12.60866191
 11
16.1229030843
 21
12.6086252425
  0
LINE
  5
2AE
100
AcDbEntity
  8
0
100
AcDbLine
 62
7
  6
CONTINUOUS
 10
16.0018813479
 20
12.2169984552
 11
16.0018699226
 21
12.2169617877
  0
LINE
  5
2AF
100
AcDbEntity
  8
0
100
AcDbLine
 62
7
  6
CONTINUOUS
 10
15.8808481861
 20
11.8253350004
 11
15.8808367609
 21
11.8252983329
  0
LINE
  5
2B0
100
AcDbEntity
  8
0
100
AcDbLine
 62
7
  6
CONTINUOUS
 10
15.7598150244
 20
11.4336715456
 11
15.7598035991
 21
11.4336348781
  0
LINE
  5
2B1
100
AcDbEntity
  8
0
100
AcDbLine
 62
7
  6
CONTINUOUS
 10
15.6387818627
 20
11.0420080907
 11
15.6387704374
 21
11.0419714233
  0
LINE
  5
2B2
100
AcDbEntity
  8
0
100
AcDbLine
 62
7
  6
CONTINUOUS
 10
16.4457743564
 20
13.6535515702
 11
16.4463522887
 21
13.6553072412
  0
LINE
  5
2B3
100
AcDbEntity
  8
0
100
AcDbLine
 62
7
  6
CONTINUOUS
 10
16.3247411947
 20
13.2618881154
 11
16.325319127
 21
13.2636437864
  0
LINE
  5
2B4
100
AcDbEntity
  8
0
100
AcDbLine
 62
7
  6
CONTINUOUS
 10
16.203708033
 20
12.8702246606
 11
16.2042859653
 21
12.8719803316
  0
LINE
  5
2B5
100
AcDbEntity
  8
0
100
AcDbLine
 62
7
  6
CONTINUOUS
 10
16.0826748713
 20
12.4785612058
 11
16.0832528036
 21
12.4803168768
  0
LINE
  5
2B6
100
AcDbEntity
  8
0
100
AcDbLine
 62
7
  6
CONTINUOUS
 10
15.9616417096
 20
12.086897751
 11
15.9622196419
 21
12.088653422
  0
LINE
  5
2B7
100
AcDbEntity
  8
0
100
AcDbLine
 62
7
  6
CONTINUOUS
 10
15.8406085479
 20
11.6952342962
 11
15.8411864802
 21
11.6969899672
  0
LINE
  5
2B8
100
AcDbEntity
  8
0
100
AcDbLine
 62
7
  6
CONTINUOUS
 10
15.7195753862
 20
11.3035708413
 11
15.7201533185
 21
11.3053265123
  0
LINE
  5
2B9
100
AcDbEntity
  8
0
100
AcDbLine
 62
7
  6
CONTINUOUS
 10
15.5985422245
 20
10.9119073865
 11
15.5991201568
 21
10.9136630575
  0
LINE
  5
2BA
100
AcDbEntity
  8
0
100
AcDbLine
 62
7
  6
CONTINUOUS
 10
16.1754505628
 20
12.8896521415
 11
16.1774976813
 21
12.8957067883
  0
LINE
  5
2BB
100
AcDbEntity
  8
0
100
AcDbLine
 62
7
  6
CONTINUOUS
 10
16.0544174011
 20
12.4979886867
 11
16.0564645196
 21
12.5040433335
  0
LINE
  5
2BC
100
AcDbEntity
  8
0
100
AcDbLine
 62
7
  6
CONTINUOUS
 10
15.9333842394
 20
12.1063252319
 11
15.9354313579
 21
12.1123798786
  0
LINE
  5
2BD
100
AcDbEntity
  8
0
100
AcDbLine
 62
7
  6
CONTINUOUS
 10
15.8123510777
 20
11.7146617771
 11
15.8143981962
 21
11.7207164238
  0
LINE
  5
2BE
100
AcDbEntity
  8
0
100
AcDbLine
 62
7
  6
CONTINUOUS
 10
15.691317916
 20
11.3229983223
 11
15.6933650345
 21
11.329052969
  0
LINE
  5
2BF
100
AcDbEntity
  8
0
100
AcDbLine
 62
7
  6
CONTINUOUS
 10
15.5702847543
 20
10.9313348675
 11
15.5723318728
 21
10.9373895142
  0
LINE
  5
2C0
100
AcDbEntity
  8
0
100
AcDbLine
 62
7
  6
CONTINUOUS
 10
16.0564645196
 20
12.5040433335
 11
16.0580749794
 21
12.5079678243
  0
LINE
  5
2C1
100
AcDbEntity
  8
0
100
AcDbLine
 62
7
  6
CONTINUOUS
 10
15.9354313579
 20
12.1123798786
 11
15.9370418177
 21
12.1163043695
  0
LINE
  5
2C2
100
AcDbEntity
  8
0
100
AcDbLine
 62
7
  6
CONTINUOUS
 10
15.8143981962
 20
11.7207164238
 11
15.816008656
 21
11.7246409147
  0
LINE
  5
2C3
100
AcDbEntity
  8
0
100
AcDbLine
 62
7
  6
CONTINUOUS
 10
15.6933650345
 20
11.329052969
 11
15.6949754943
 21
11.3329774599
  0
LINE
  5
2C4
100
AcDbEntity
  8
0
100
AcDbLine
 62
7
  6
CONTINUOUS
 10
15.9370418177
 20
12.1163043695
 11
15.9377343678
 21
12.1177206699
  0
LINE
  5
2C5
100
AcDbEntity
  8
0
100
AcDbLine
 62
7
  6
CONTINUOUS
 10
15.816008656
 20
11.7246409147
 11
15.816701206
 21
11.7260572151
  0
LWPOLYLINE
  5
2C6
100
AcDbEntity
  8
0
100
AcDbPolyline
 62
7
  6
CONTINUOUS
 90
6
 70
0
 10
16.2994673428
 20
13.2424959796
 10
16.3070839133
 20
13.2436656726
 10
16.313780925
 20
13.2469052937
 10
16.3189168661
 20
13.2514837711
 10
16.3225474571
 20
13.2568209285
 10
16.3247411947
 20
13.2618881154
  0
LINE
  5
2C7
100
AcDbEntity
  8
0
100
AcDbLine
 62
7
  6
CONTINUOUS
 10
16.2468262017
 20
13.0192965511
 11
16.2466282682
 21
13.0866298849
  0
LINE
  5
2C8
100
AcDbEntity
  8
0
100
AcDbLine
 62
7
  6
CONTINUOUS
 10
16.2466278278
 20
13.086650758
 11
16.2466960041
 21
13.0912631704
  0
LINE
  5
2C9
100
AcDbEntity
  8
0
100
AcDbLine
 62
7
  6
CONTINUOUS
 10
16.2467614579
 20
13.0165808174
 11
16.2468259571
 21
13.0193442332
  0
LWPOLYLINE
  5
2CA
100
AcDbEntity
  8
0
100
AcDbPolyline
 62
7
  6
CONTINUOUS
 90
5
 70
0
 10
16.2466960041
 20
13.0912631704
 10
16.2475750478
 20
13.1046111679
 10
16.2494773445
 20
13.1197405933
 10
16.2521998538
 20
13.1347692287
 10
16.2553623629
 20
13.1479502403
  0
LINE
  5
2CB
100
AcDbEntity
  8
0
100
AcDbLine
 62
7
  6
CONTINUOUS
 10
16.2460516216
 20
13.0096883253
 11
16.2467614579
 21
13.0165808174
  0
LINE
  5
2CC
100
AcDbEntity
  8
0
100
AcDbLine
 62
7
  6
CONTINUOUS
 10
16.3656855455
 20
13.394478949
 11
16.3670847833
 21
13.4013517802
  0
LINE
  5
2CD
100
AcDbEntity
  8
0
100
AcDbLine
 62
7
  6
CONTINUOUS
 10
16.4867187072
 20
13.7861424039
 11
16.488117945
 21
13.793015235
  0
LINE
  5
2CE
100
AcDbEntity
  8
0
100
AcDbLine
 62
7
  6
CONTINUOUS
 10
15.5723318728
 20
10.9373895142
 11
15.5739423326
 21
10.9413140051
  0
LINE
  5
2CF
100
AcDbEntity
  8
0
100
AcDbLine
 62
7
  6
CONTINUOUS
 10
15.6949754943
 20
11.3329774599
 11
15.6956680443
 21
11.3343937603
  0
LINE
  5
2D0
100
AcDbEntity
  8
0
100
AcDbLine
 62
7
  6
CONTINUOUS
 10
15.5739423326
 20
10.9413140051
 11
15.5746348826
 21
10.9427303055
  0
LINE
  5
2D1
100
AcDbEntity
  8
0
100
AcDbLine
 62
7
  6
CONTINUOUS
 10
16.2844877909
 20
13.2424953849
 11
16.2994670496
 21
13.2424953849
  0
LINE
  5
2D2
100
AcDbEntity
  8
0
100
AcDbLine
 62
7
  6
CONTINUOUS
 10
16.3678593634
 20
13.4109600059
 11
16.3676614299
 21
13.4782933397
  0
LINE
  5
2D3
100
AcDbEntity
  8
0
100
AcDbLine
 62
7
  6
CONTINUOUS
 10
16.3676609895
 20
13.4783142128
 11
16.3677291658
 21
13.4829266252
  0
LINE
  5
2D4
100
AcDbEntity
  8
0
100
AcDbLine
 62
7
  6
CONTINUOUS
 10
16.3677946196
 20
13.4082442722
 11
16.3678591188
 21
13.411007688
  0
LWPOLYLINE
  5
2D5
100
AcDbEntity
  8
0
100
AcDbPolyline
 62
7
  6
CONTINUOUS
 90
5
 70
0
 10
16.3677291658
 20
13.4829266252
 10
16.3686082095
 20
13.4962746227
 10
16.3705105062
 20
13.5114040481
 10
16.3732330155
 20
13.5264326836
 10
16.3763955246
 20
13.5396136951
  0
LWPOLYLINE
  5
2D6
100
AcDbEntity
  8
0
100
AcDbPolyline
 62
7
  6
CONTINUOUS
 90
5
 70
0
 10
16.4887623275
 20
13.8745900801
 10
16.4896413712
 20
13.8879380775
 10
16.4915436679
 20
13.903067503
 10
16.4942661772
 20
13.9180961384
 10
16.4974286863
 20
13.93127715
  0
LINE
  5
2D7
100
AcDbEntity
  8
0
100
AcDbLine
 62
7
  6
CONTINUOUS
 10
16.5190459018
 20
14.0038163833
 11
16.5187130414
 21
14.0004581423
  0
LINE
  5
2D8
100
AcDbEntity
  8
0
100
AcDbLine
 62
7
  6
CONTINUOUS
 10
16.3670847833
 20
13.4013517802
 11
16.3677946196
 21
13.4082442722
  0
LINE
  5
2D9
100
AcDbEntity
  8
0
100
AcDbLine
 62
7
  6
CONTINUOUS
 10
16.488117945
 20
13.793015235
 11
16.4888277813
 21
13.799907727
  0
LINE
  5
2DA
100
AcDbEntity
  8
0
100
AcDbLine
 62
7
  6
CONTINUOUS
 10
16.4888925251
 20
13.8026234608
 11
16.4886945916
 21
13.8699567945
  0
LINE
  5
2DB
100
AcDbEntity
  8
0
100
AcDbLine
 62
7
  6
CONTINUOUS
 10
16.4886941512
 20
13.8699776676
 11
16.4887623275
 21
13.8745900801
  0
LINE
  5
2DC
100
AcDbEntity
  8
0
100
AcDbLine
 62
7
  6
CONTINUOUS
 10
16.4888277813
 20
13.799907727
 11
16.4888922805
 21
13.8026711428
  0
LWPOLYLINE
  5
2DD
100
AcDbEntity
  8
0
100
AcDbPolyline
 62
7
  6
CONTINUOUS
 90
6
 70
0
 10
16.4205005045
 20
13.6341594345
 10
16.428117075
 20
13.6353291274
 10
16.4348140867
 20
13.6385687485
 10
16.4399500279
 20
13.643147226
 10
16.4435806188
 20
13.6484843833
 10
16.4457743564
 20
13.6535515702
  0
LINE
  5
2DE
100
AcDbEntity
  8
0
100
AcDbLine
 62
7
  6
CONTINUOUS
 10
16.5190459018
 20
14.0038163833
 11
16.5108914748
 21
14.0908441542
  0
LINE
  5
2DF
100
AcDbEntity
  8
0
100
AcDbLine
 62
7
  6
CONTINUOUS
 10
16.4055209526
 20
13.6341588397
 11
16.4205002113
 21
13.6341588397
  0
LINE
  5
2E0
100
AcDbEntity
  8
0
100
AcDbLine
 62
7
  6
CONTINUOUS
 10
16.4557812253
 20
14.1626193778
 11
15.4080743446
 21
14.1626193778
  0
LINE
  5
2E1
100
AcDbEntity
  8
0
100
AcDbLine
 62
7
  6
CONTINUOUS
 10
16.5061348496
 20
14.1069326041
 11
16.4864337968
 21
14.1470791286
  0
ARC
  5
2E2
100
AcDbEntity
  8
0
100
AcDbCircle
 62
7
  6
CONTINUOUS
 10
5.6016867501
 20
5.4766198968
 40
0.025
100
AcDbArc
 50
195.0
 51
270.0
  0
ARC
  5
2E3
100
AcDbEntity
  8
0
100
AcDbCircle
 62
7
  6
CONTINUOUS
 10
5.6383957759
 20
5.3396199473
 40
0.025
100
AcDbArc
 50
195.0001198735
 51
270.0000310203
  0
ARC
  5
2E4
100
AcDbEntity
  8
0
100
AcDbCircle
 62
7
  6
CONTINUOUS
 10
5.6366172762
 20
5.6360351465
 40
0.1
100
AcDbArc
 50
180.0
 51
195.0
  0
ARC
  5
2E5
100
AcDbEntity
  8
0
100
AcDbCircle
 62
7
  6
CONTINUOUS
 10
5.5616172762
 20
5.7006198968
 40
0.025
100
AcDbArc
 50
90.0
 51
180.0
  0
ARC
  5
2E6
100
AcDbEntity
  8
0
100
AcDbCircle
 62
7
  6
CONTINUOUS
 10
6.6223387629
 20
5.3396198968
 40
0.025
100
AcDbArc
 50
270.0
 51
345.0
  0
ARC
  5
2E7
100
AcDbEntity
  8
0
100
AcDbCircle
 62
7
  6
CONTINUOUS
 10
6.6590478023
 20
5.4766198968
 40
0.025
100
AcDbArc
 50
270.0
 51
345.0
  0
ARC
  5
2E8
100
AcDbEntity
  8
0
100
AcDbCircle
 62
7
  6
CONTINUOUS
 10
6.6241172762
 20
5.6360351465
 40
0.1
100
AcDbArc
 50
345.0
 51
360.0
  0
ARC
  5
2E9
100
AcDbEntity
  8
0
100
AcDbCircle
 62
7
  6
CONTINUOUS
 10
6.6991172762
 20
5.7006198968
 40
0.025
100
AcDbArc
 50
0.0
 51
90.0
  0
ARC
  5
2EA
100
AcDbEntity
  8
0
100
AcDbCircle
 62
7
  6
CONTINUOUS
 10
13.7284134082
 20
5.2893747044
 40
0.03425
100
AcDbArc
 50
193.0
 51
270.0
  0
ARC
  5
2EB
100
AcDbEntity
  8
0
100
AcDbCircle
 62
7
  6
CONTINUOUS
 10
13.8922971057
 20
5.2893747044
 40
0.03425
100
AcDbArc
 50
270.0
 51
347.0
  0
ARC
  5
2EC
100
AcDbEntity
  8
0
100
AcDbCircle
 62
7
  6
CONTINUOUS
 10
14.2284134082
 20
5.2893747044
 40
0.03425
100
AcDbArc
 50
193.0
 51
270.0
  0
ARC
  5
2ED
100
AcDbEntity
  8
0
100
AcDbCircle
 62
7
  6
CONTINUOUS
 10
14.3922971057
 20
5.2893747044
 40
0.03425
100
AcDbArc
 50
270.0
 51
347.0
  0
ARC
  5
2EE
100
AcDbEntity
  8
0
100
AcDbCircle
 62
7
  6
CONTINUOUS
 10
14.7284134082
 20
5.2893747044
 40
0.03425
100
AcDbArc
 50
193.0
 51
270.0
  0
ARC
  5
2EF
100
AcDbEntity
  8
0
100
AcDbCircle
 62
7
  6
CONTINUOUS
 10
14.8922971057
 20
5.2893747044
 40
0.03425
100
AcDbArc
 50
270.0
 51
347.0
  0
ARC
  5
2F0
100
AcDbEntity
  8
0
100
AcDbCircle
 62
7
  6
CONTINUOUS
 10
15.2284134082
 20
5.2893747044
 40
0.03425
100
AcDbArc
 50
193.0
 51
270.0
  0
ARC
  5
2F1
100
AcDbEntity
  8
0
100
AcDbCircle
 62
7
  6
CONTINUOUS
 10
15.3922971057
 20
5.2893747044
 40
0.03425
100
AcDbArc
 50
270.0
 51
347.0
  0
ARC
  5
2F2
100
AcDbEntity
  8
0
100
AcDbCircle
 62
7
  6
CONTINUOUS
 10
13.6422971057
 20
5.3578747044
 40
0.03425
100
AcDbArc
 50
13.0
 51
90.0
  0
ARC
  5
2F3
100
AcDbEntity
  8
0
100
AcDbCircle
 62
7
  6
CONTINUOUS
 10
13.9784134082
 20
5.3578747044
 40
0.03425
100
AcDbArc
 50
90.0
 51
167.0
  0
ARC
  5
2F4
100
AcDbEntity
  8
0
100
AcDbCircle
 62
7
  6
CONTINUOUS
 10
14.1422971057
 20
5.3578747044
 40
0.03425
100
AcDbArc
 50
13.0
 51
90.0
  0
ARC
  5
2F5
100
AcDbEntity
  8
0
100
AcDbCircle
 62
7
  6
CONTINUOUS
 10
14.4784134082
 20
5.3578747044
 40
0.03425
100
AcDbArc
 50
90.0
 51
167.0
  0
ARC
  5
2F6
100
AcDbEntity
  8
0
100
AcDbCircle
 62
7
  6
CONTINUOUS
 10
14.6422971057
 20
5.3578747044
 40
0.03425
100
AcDbArc
 50
13.0
 51
90.0
  0
ARC
  5
2F7
100
AcDbEntity
  8
0
100
AcDbCircle
 62
7
  6
CONTINUOUS
 10
14.9784134082
 20
5.3578747044
 40
0.03425
100
AcDbArc
 50
90.0
 51
167.0
  0
ARC
  5
2F8
100
AcDbEntity
  8
0
100
AcDbCircle
 62
7
  6
CONTINUOUS
 10
15.1422971057
 20
5.3578747044
 40
0.03425
100
AcDbArc
 50
13.0
 51
90.0
  0
ARC
  5
2F9
100
AcDbEntity
  8
0
100
AcDbCircle
 62
7
  6
CONTINUOUS
 10
15.4784134082
 20
5.3578747044
 40
0.03425
100
AcDbArc
 50
90.0
 51
167.0
  0
ARC
  5
2FA
100
AcDbEntity
  8
0
100
AcDbCircle
 62
7
  6
CONTINUOUS
 10
17.3922971057
 20
5.2893747044
 40
0.03425
100
AcDbArc
 50
270.0
 51
347.0
  0
ARC
  5
2FB
100
AcDbEntity
  8
0
100
AcDbCircle
 62
7
  6
CONTINUOUS
 10
17.2284134082
 20
5.2893747044
 40
0.03425
100
AcDbArc
 50
193.0
 51
270.0
  0
ARC
  5
2FC
100
AcDbEntity
  8
0
100
AcDbCircle
 62
7
  6
CONTINUOUS
 10
16.8922971057
 20
5.2893747044
 40
0.03425
100
AcDbArc
 50
270.0
 51
347.0
  0
ARC
  5
2FD
100
AcDbEntity
  8
0
100
AcDbCircle
 62
7
  6
CONTINUOUS
 10
16.7284134082
 20
5.2893747044
 40
0.03425
100
AcDbArc
 50
193.0
 51
270.0
  0
ARC
  5
2FE
100
AcDbEntity
  8
0
100
AcDbCircle
 62
7
  6
CONTINUOUS
 10
16.3922971057
 20
5.2893747044
 40
0.03425
100
AcDbArc
 50
270.0
 51
347.0
  0
ARC
  5
2FF
100
AcDbEntity
  8
0
100
AcDbCircle
 62
7
  6
CONTINUOUS
 10
16.2284134082
 20
5.2893747044
 40
0.03425
100
AcDbArc
 50
193.0
 51
270.0
  0
ARC
  5
300
100
AcDbEntity
  8
0
100
AcDbCircle
 62
7
  6
CONTINUOUS
 10
15.8922971057
 20
5.2893747044
 40
0.03425
100
AcDbArc
 50
270.0
 51
347.0
  0
ARC
  5
301
100
AcDbEntity
  8
0
100
AcDbCircle
 62
7
  6
CONTINUOUS
 10
15.7284134082
 20
5.2893747044
 40
0.03425
100
AcDbArc
 50
193.0
 51
270.0
  0
ARC
  5
302
100
AcDbEntity
  8
0
100
AcDbCircle
 62
7
  6
CONTINUOUS
 10
17.4784134082
 20
5.3578747044
 40
0.03425
100
AcDbArc
 50
90.0
 51
167.0
  0
ARC
  5
303
100
AcDbEntity
  8
0
100
AcDbCircle
 62
7
  6
CONTINUOUS
 10
17.1422971057
 20
5.3578747044
 40
0.03425
100
AcDbArc
 50
13.0
 51
90.0
  0
ARC
  5
304
100
AcDbEntity
  8
0
100
AcDbCircle
 62
7
  6
CONTINUOUS
 10
16.9784134082
 20
5.3578747044
 40
0.03425
100
AcDbArc
 50
90.0
 51
167.0
  0
ARC
  5
305
100
AcDbEntity
  8
0
100
AcDbCircle
 62
7
  6
CONTINUOUS
 10
16.6422971057
 20
5.3578747044
 40
0.03425
100
AcDbArc
 50
13.0
 51
90.0
  0
ARC
  5
306
100
AcDbEntity
  8
0
100
AcDbCircle
 62
7
  6
CONTINUOUS
 10
16.4784134082
 20
5.3578747044
 40
0.03425
100
AcDbArc
 50
90.0
 51
167.0
  0
ARC
  5
307
100
AcDbEntity
  8
0
100
AcDbCircle
 62
7
  6
CONTINUOUS
 10
16.1422971057
 20
5.3578747044
 40
0.03425
100
AcDbArc
 50
13.0
 51
90.0
  0
ARC
  5
308
100
AcDbEntity
  8
0
100
AcDbCircle
 62
7
  6
CONTINUOUS
 10
15.9784134082
 20
5.3578747044
 40
0.03425
100
AcDbArc
 50
90.0
 51
167.0
  0
ARC
  5
309
100
AcDbEntity
  8
0
100
AcDbCircle
 62
7
  6
CONTINUOUS
 10
15.6422971057
 20
5.3578747044
 40
0.03425
100
AcDbArc
 50
13.0
 51
90.0
  0
SPLINE
  5
30A
100
AcDbEntity
  8
0
100
AcDbSpline
 62
7
  6
CONTINUOUS
 70
0
 71
3
 72
15
 73
11
 74
0
 42
0.0000001
 43
0.0000001
 44
0.0000000001
 40
0.0
 40
0.0
 40
0.0
 40
0.0
 40
0.1295683094
 40
0.2645753388
 40
0.4012659666
 40
0.5362717271
 40
0.6662158108
 40
0.7881013931
 40
0.8998145653
 40
1.0
 40
1.0
 40
1.0
 40
1.0
 10
16.4557812253
 20
14.1626193778
 30
0.0
 10
16.4573294813
 20
14.1626193778
 30
0.0
 10
16.4604934294
 20
14.1624041531
 30
0.0
 10
16.465215944
 20
14.1615202578
 30
0.0
 10
16.4698722546
 20
14.1600928068
 30
0.0
 10
16.4742841274
 20
14.1581774881
 30
0.0
 10
16.4782903187
 20
14.1558487984
 30
0.0
 10
16.4817424006
 20
14.1531874618
 30
0.0
 10
16.4845082564
 20
14.1502914198
 30
0.0
 10
16.4859064011
 20
14.1481538481
 30
0.0
 10
16.4864337968
 20
14.1470791286
 30
0.0
  0
SPLINE
  5
30B
100
AcDbEntity
  8
0
100
AcDbSpline
 62
7
  6
CONTINUOUS
 70
0
 71
3
 72
15
 73
11
 74
0
 42
0.0000001
 43
0.0000001
 44
0.0000000001
 40
0.0
 40
0.0
 40
0.0
 40
0.0
 40
0.0996462214
 40
0.2028721743
 40
0.3125944749
 40
0.4308576562
 40
0.5588160576
 40
0.6968319529
 40
0.8443986148
 40
1.0
 40
1.0
 40
1.0
 40
1.0
 10
15.391814857
 20
14.1544603206
 30
0.0
 10
15.3920049721
 20
14.155075563
 30
0.0
 10
15.39254361
 20
14.1562865078
 30
0.0
 10
15.3937745984
 20
14.1579074547
 30
0.0
 10
15.3953979889
 20
14.1593226211
 30
0.0
 10
15.397382159
 20
14.1605066782
 30
0.0
 10
15.3996897043
 20
14.1614453085
 30
0.0
 10
15.4022813163
 20
14.1621240375
 30
0.0
 10
15.4051081879
 20
14.1625316968
 30
0.0
 10
15.4070687977
 20
14.1626193778
 30
0.0
 10
15.4080743446
 20
14.1626193778
 30
0.0
  0
SPLINE
  5
30C
100
AcDbEntity
  8
0
100
AcDbSpline
 62
7
  6
CONTINUOUS
 70
0
 71
3
 72
11
 73
7
 74
0
 42
0.0000001
 43
0.0000001
 44
0.0000000001
 40
0.0
 40
0.0
 40
0.0
 40
0.0
 40
0.2336950414
 40
0.4747284333
 40
0.7289544785
 40
1.0
 40
1.0
 40
1.0
 40
1.0
 10
14.4235495633
 20
11.0211526821
 30
0.0
 10
14.4233747086
 20
11.0205868248
 30
0.0
 10
14.4231443962
 20
11.0193946765
 30
0.0
 10
14.4231866825
 20
11.0175353978
 30
0.0
 10
14.4236044922
 20
11.0156282242
 30
0.0
 10
14.4241059573
 20
11.0143881557
 30
0.0
 10
14.4244085728
 20
11.0137714901
 30
0.0
  0
SPLINE
  5
30D
100
AcDbEntity
  8
0
100
AcDbSpline
 62
7
  6
CONTINUOUS
 70
0
 71
3
 72
9
 73
5
 74
0
 42
0.0000001
 43
0.0000001
 44
0.0000000001
 40
0.0
 40
0.0
 40
0.0
 40
0.0
 40
0.5176007674
 40
1.0
 40
1.0
 40
1.0
 40
1.0
 10
16.5061348496
 20
14.1069326041
 30
0.0
 10
16.5074152931
 20
14.1043233345
 30
0.0
 10
16.5095170629
 20
14.0990854069
 30
0.0
 10
16.5106387653
 20
14.0935411855
 30
0.0
 10
16.5108914748
 20
14.0908441542
 30
0.0
  0
SPLINE
  5
30E
100
AcDbEntity
  8
0
100
AcDbSpline
 62
7
  6
CONTINUOUS
 70
0
 71
3
 72
14
 73
10
 74
0
 42
0.0000001
 43
0.0000001
 44
0.0000000001
 40
0.0
 40
0.0
 40
0.0
 40
0.0
 40
0.1556291897
 40
0.3032640379
 40
0.5688228726
 40
0.6871312944
 40
0.7968674406
 40
0.9001628864
 40
1.0
 40
1.0
 40
1.0
 40
1.0
 10
15.5341909737
 20
10.858990608
 30
0.0
 10
15.5351961234
 20
10.858990608
 30
0.0
 10
15.5371571059
 20
10.8590784205
 30
0.0
 10
15.5407949522
 20
10.8596031042
 30
0.0
 10
15.5441155491
 20
10.8606471934
 30
0.0
 10
15.5468657936
 20
10.8622858219
 30
0.0
 10
15.5484896411
 20
10.863700181
 30
0.0
 10
15.5497210723
 20
10.8653216042
 30
0.0
 10
15.5502593882
 20
10.8665338157
 30
0.0
 10
15.550449256
 20
10.8671500381
 30
0.0
  0
SPLINE
  5
30F
100
AcDbEntity
  8
0
100
AcDbSpline
 62
7
  6
CONTINUOUS
 70
0
 71
3
 72
15
 73
11
 74
0
 42
0.0000001
 43
0.0000001
 44
0.0000000001
 40
0.0
 40
0.0
 40
0.0
 40
0.0
 40
0.1102068102
 40
0.2287216787
 40
0.3536312547
 40
0.4829519373
 40
0.6145662927
 40
0.746225389
 40
0.8755870664
 40
1.0
 40
1.0
 40
1.0
 40
1.0
 10
14.5324027563
 20
10.8705087447
 30
0.0
 10
14.533158088
 20
10.8696579144
 30
0.0
 10
14.5348607028
 20
10.8680097949
 30
0.0
 10
14.5377780654
 20
10.8658028485
 30
0.0
 10
14.5410891426
 20
10.863828067
 30
0.0
 10
14.544700917
 20
10.8621337466
 30
0.0
 10
14.5485223676
 20
10.8607659436
 30
0.0
 10
14.5524544577
 20
10.8597568993
 30
0.0
 10
14.5563912296
 20
10.8591396169
 30
0.0
 10
14.5590125593
 20
10.858990608
 30
0.0
 10
14.5602969519
 20
10.858990608
 30
0.0
  0
SPLINE
  5
310
100
AcDbEntity
  8
0
100
AcDbSpline
 62
7
  6
CONTINUOUS
 70
0
 71
3
 72
9
 73
5
 74
0
 42
0.0000001
 43
0.0000001
 44
0.0000000001
 40
0.0
 40
0.0
 40
0.0
 40
0.0
 40
0.4813565505
 40
1.0
 40
1.0
 40
1.0
 40
1.0
 10
14.4441096256
 20
10.9736249655
 30
0.0
 10
14.4454917091
 20
10.9708085754
 30
0.0
 10
14.448838716
 20
10.9651852166
 30
0.0
 10
14.4528990131
 20
10.9600643615
 30
0.0
 10
14.4551431293
 20
10.9575365157
 30
0.0
  0
SPLINE
  5
311
100
AcDbEntity
  8
0
100
AcDbSpline
 62
7
  6
CONTINUOUS
 70
0
 71
3
 72
15
 73
11
 74
0
 42
0.0000001
 43
0.0000001
 44
0.0000000001
 40
0.0
 40
0.0
 40
0.0
 40
0.0
 40
0.1001854347
 40
0.2118986069
 40
0.3337841892
 40
0.4637282729
 40
0.5987340334
 40
0.7354246612
 40
0.8704316906
 40
1.0
 40
1.0
 40
1.0
 40
1.0
 10
15.5181685032
 20
11.0137714901
 30
0.0
 10
15.5176411075
 20
11.0148462096
 30
0.0
 10
15.5162429628
 20
11.0169837813
 30
0.0
 10
15.5134771069
 20
11.0198798233
 30
0.0
 10
15.5100250251
 20
11.0225411599
 30
0.0
 10
15.5060188338
 20
11.0248698496
 30
0.0
 10
15.5016069609
 20
11.0267851683
 30
0.0
 10
15.4969506504
 20
11.0282126193
 30
0.0
 10
15.4922281358
 20
11.0290965146
 30
0.0
 10
15.4890641877
 20
11.0293117393
 30
0.0
 10
15.4875159317
 20
11.0293117393
 30
0.0
  0
SPLINE
  5
312
100
AcDbEntity
  8
0
100
AcDbSpline
 62
7
  6
CONTINUOUS
 70
0
 71
3
 72
15
 73
11
 74
0
 42
0.0000001
 43
0.0000001
 44
0.0000000001
 40
0.0
 40
0.0
 40
0.0
 40
0.0
 40
0.1556013852
 40
0.3031680471
 40
0.4411839424
 40
0.5691423438
 40
0.6874055251
 40
0.7971278257
 40
0.9003537786
 40
1.0
 40
1.0
 40
1.0
 40
1.0
 10
14.439809051
 20
11.0293117393
 30
0.0
 10
14.4388035041
 20
11.0293117393
 30
0.0
 10
14.4368428943
 20
11.0292240583
 30
0.0
 10
14.4340160227
 20
11.028816399
 30
0.0
 10
14.4314244107
 20
11.02813767
 30
0.0
 10
14.4291168654
 20
11.0271990397
 30
0.0
 10
14.4271326952
 20
11.0260149826
 30
0.0
 10
14.4255093047
 20
11.0245998162
 30
0.0
 10
14.4242783164
 20
11.0229788693
 30
0.0
 10
14.4237396785
 20
11.0217679245
 30
0.0
 10
14.4235495633
 20
11.0211526821
 30
0.0
  0
SPLINE
  5
313
100
AcDbEntity
  8
0
100
AcDbSpline
 62
7
  6
CONTINUOUS
 70
0
 71
3
 72
9
 73
5
 74
0
 42
0.0000001
 43
0.0000001
 44
0.0000000001
 40
0.0
 40
0.0
 40
0.0
 40
0.0
 40
0.4823992326
 40
1.0
 40
1.0
 40
1.0
 40
1.0
 10
15.5426261812
 20
10.9575365157
 30
0.0
 10
15.5423734717
 20
10.960233547
 30
0.0
 10
15.5412517693
 20
10.9657777684
 30
0.0
 10
15.5391499995
 20
10.971015696
 30
0.0
 10
15.537869556
 20
10.9736249655
 30
0.0
  0
ENDSEC
  0
SECTION
  2
OBJECTS
  0
DICTIONARY
  5
C
100
AcDbDictionary
280
0
281
1
  3
ACAD_GROUP
350
D
  3
ACAD_MLINESTYLE
350
17
  3
ACAD_LAYOUT
350
1A
  3
ACAD_PLOTSETTINGS
350
19
  3
ACAD_PLOTSTYLENAME
350
E
  0
DICTIONARY
  5
D
102
{ACAD_REACTORS
330
C
102
}
100
AcDbDictionary
280
0
281
1
  0
ACDBDICTIONARYWDFLT
  5
E
102
{ACAD_REACTORS
330
C
102
}
100
AcDbDictionary
281
1
  3
Normal
350
F
100
AcDbDictionaryWithDefault
340
F
  0
DICTIONARY
  5
17
102
{ACAD_REACTORS
330
C
102
}
100
AcDbDictionary
280
0
281
1
  3
Standard
350
18
  0
DICTIONARY
  5
19
102
{ACAD_REACTORS
330
C
102
}
100
AcDbDictionary
281
1
  0
DICTIONARY
  5
1A
102
{ACAD_REACTORS
330
C
102
}
100
AcDbDictionary
281
1
  3
Model
350
314
  3
Layout1
350
315
  0
ACDBPLACEHOLDER
  5
F
102
{ACAD_REACTORS
330
E
102
}
  0
MLINESTYLE
  5
18
102
{ACAD_REACTORS
330
17
102
}
100
AcDbMlineStyle
  2
STANDARD
 70
0
  3

 62
256
 51
90.0
 52
90.0
 71
2
 49
0.5
 62
256
  6
BYLAYER
 49
-0.5
 62
256
  6
BYLAYER
  0
LAYOUT
  5
314
102
{ACAD_REACTORS
330
1A
102
}
100
AcDbPlotSettings
  1

  2
none_device
  4
ANSI_C_(22.00_x_17.00_Inches)
  6

 40
0.0
 41
0.0
 42
0.0
 43
0.0
 44
558.8
 45
431.8
 46
0.0
 47
0.0
 48
0.0
 49
0.0
140
0.0
141
0.0
142
1.0
143
1.0
 70
1024
 72
0
 73
0
 74
0
  7

 75
0
147
1.0
148
0.0
149
0.0
100
AcDbLayout
  1
Model
 70
0
 71
0
 10
0.0
 20
0.0
 11
22.0
 21
17.0
 12
0.0
 22
0.0
 32
0.0
 14
0.0
 24
0.0
 34
0.0
 15
0.0
 25
0.0
 35
0.0
146
0.0
 13
0.0
 23
0.0
 33
0.0
 16
1.0
 26
0.0
 36
0.0
 17
0.0
 27
1.0
 37
0.0
 76
0
330
216
345
0
346
0
  0
LAYOUT
  5
315
102
{ACAD_REACTORS
330
1A
102
}
100
AcDbPlotSettings
  1

  2
none_device
  4
ANSI_C_(22.00_x_17.00_Inches)
  6

 40
0.0
 41
0.0
 42
0.0
 43
0.0
 44
558.8
 45
431.8
 46
0.0
 47
0.0
 48
0.0
 49
0.0
140
0.0
141
0.0
142
1.0
143
1.0
 70
0
 72
0
 73
0
 74
0
  7

 75
0
147
1.0
148
0.0
149
0.0
100
AcDbLayout
  1
Layout1
 70
0
 71
1
 10
0.0
 20
0.0
 11
22.0
 21
17.0
 12
0.0
 22
0.0
 32
0.0
 14
0.0
 24
0.0
 34
0.0
 15
0.0
 25
0.0
 35
0.0
146
0.0
 13
0.0
 23
0.0
 33
0.0
 16
1.0
 26
0.0
 36
0.0
 17
0.0
 27
1.0
 37
0.0
 76
0
330
217
345
0
346
0
  0
ENDSEC
  0
EOF