999
DXF file: _cgs_temp_output.dxf
999
Pro/ENGINEER 2015110 by Parametric Technology Corporation
  0
SECTION
  2
HEADER
  9
$ACADVER
  1
AC1021
  9
$DWGCODEPAGE
  3
ANSI_1252
  9
$EXTMAX
 10
22.0
 20
17.0
 30
0.0
  9
$EXTMIN
 10
0.0
 20
0.0
 30
0.0
  9
$LIMMIN
 10
0.0
 20
0.0
  9
$LIMMAX
 10
22.0
 20
17.0
  9
$VIEWCTR
 10
11.0
 20
8.5
  9
$VIEWSIZE
 40
17.0
  9
$CLAYER
  8
0
  9
$LTSCALE
 40
1.21
  9
$CELTYPE
  6
BYLAYER
  9
$DIMSCALE
 40
1.0
  9
$DIMASZ
 40
0.1875
  9
$DIMEXO
 40
0.0625
  9
$DIMDLI
 40
0.836
  9
$DIMEXE
 40
0.125
  9
$DIMCEN
 40
0.198
  9
$DIMLFAC
 40
1.0
  9
$DIMBLK
  1
_CLOSED
  9
$DIMALT
 70
0
  9
$DIMALTF
 40
25.4
  9
$DIMTXT
 40
0.15625
  9
$DIMTOL
 70
0
  9
$DIMLIM
 70
0
  9
$DIMTFAC
 40
1.0
  9
$DIMGAP
 40
0.09
  9
$DIMDSEP
 70
46
  9
$AUNITS
 70
0
  9
$PDMODE
 70
3
  9
$PDSIZE
 40
0.3125
  9
$HANDSEED
  5
3B9
  9
$TILEMODE
 70
1
  9
$MEASUREMENT
 70
0
  9
$INSUNITS
 70
1
  0
ENDSEC
  0
SECTION
  2
CLASSES
  0
CLASS
  1
ACDBDICTIONARYWDFLT
  2
AcDbDictionaryWithDefault
  3
AutoCAD 2000
 90
0
 91
1
280
0
281
0
  0
CLASS
  1
ACDBPLACEHOLDER
  2
AcDbPlaceHolder
  3
AutoCAD 2000
 90
0
 91
1
280
0
281
0
  0
CLASS
  1
LAYOUT
  2
AcDbLayout
  3
AutoCAD 2000
 90
0
 91
0
280
0
281
0
  0
ENDSEC
  0
SECTION
  2
TABLES
  0
TABLE
  2
VPORT
  5
8
100
AcDbSymbolTable
 70
2
  0
VPORT
  5
1F4
100
AcDbSymbolTableRecord
100
AcDbViewportTableRecord
  2
*ACTIVE
 70
0
 10
0.0
 20
0.0
 11
1.0
 21
1.0
 12
11.0
 22
8.5
 13
0.0
 23
0.0
 14
1.0
 24
1.0
 15
0.0
 25
0.0
 16
0.0
 26
0.0
 36
1.0
 17
0.0
 27
0.0
 37
0.0
 40
17.0
 41
1.2941176471
 42
50.0
 43
0.0
 44
0.0
 50
0.0
 51
0.0
 71
0
 72
100
 73
1
 74
1
 75
0
 76
0
 77
0
 78
0
  0
ENDTAB
  0
TABLE
  2
LTYPE
  5
5
100
AcDbSymbolTable
 70
6
  0
LTYPE
  5
14
100
AcDbSymbolTableRecord
100
AcDbLinetypeTableRecord
  2
BYBLOCK
 70
0
  3

 72
65
 73
0
 40
0.0
  0
LTYPE
  5
15
100
AcDbSymbolTableRecord
100
AcDbLinetypeTableRecord
  2
BYLAYER
 70
0
  3

 72
65
 73
0
 40
0.0
  0
LTYPE
  5
16
100
AcDbSymbolTableRecord
100
AcDbLinetypeTableRecord
  2
CONTINUOUS
 70
64
  3
Solid line
 72
65
 73
0
 40
0.0
  0
LTYPE
  5
1F5
100
AcDbSymbolTableRecord
100
AcDbLinetypeTableRecord
  2
CENTER
 70
64
  3
____ _ ____ _ ____ _ ____ _ ____ _ ____ _ ____
 72
65
 73
4
 40
0.6
 49
0.375
 74
0
 49
-0.075
 74
0
 49
0.075
 74
0
 49
-0.075
 74
0
  0
LTYPE
  5
1F6
100
AcDbSymbolTableRecord
100
AcDbLinetypeTableRecord
  2
HIDDEN
 70
64
  3
- - - - - - - - - - - - - - - - - - - -
 72
65
 73
2
 40
0.2
 49
0.1
 74
0
 49
-0.1
 74
0
  0
LTYPE
  5
1F7
100
AcDbSymbolTableRecord
100
AcDbLinetypeTableRecord
  2
PHANTOM
 70
64
  3
_____ _ _ _____ _ _ _____ _ _ _____
 72
65
 73
6
 40
0.8
 49
0.45
 74
0
 49
-0.05
 74
0
 49
0.1
 74
0
 49
-0.05
 74
0
 49
0.1
 74
0
 49
-0.05
 74
0
  0
LTYPE
  5
1F8
100
AcDbSymbolTableRecord
100
AcDbLinetypeTableRecord
  2
DOT
 70
64
  3
. . . . . . . . . . . . . . . . . . . .
 72
65
 73
2
 40
0.2
 49
0.1
 74
0
 49
-0.1
 74
0
  0
LTYPE
  5
1F9
100
AcDbSymbolTableRecord
100
AcDbLinetypeTableRecord
  2
DASHED
 70
64
  3
- - - - - - - - - - - - - - - - - - - -
 72
65
 73
2
 40
0.2
 49
0.1
 74
0
 49
-0.1
 74
0
  0
ENDTAB
  0
TABLE
  2
LAYER
  5
2
100
AcDbSymbolTable
 70
36
  0
LAYER
  5
10
100
AcDbSymbolTableRecord
100
AcDbLayerTableRecord
  2
0
 70
0
 62
7
  6
CONTINUOUS
370
-3
390
F
  0
LAYER
  5
1FA
100
AcDbSymbolTableRecord
100
AcDbLayerTableRecord
  2
DEFAULT_1
 70
0
 62
7
  6
CENTER
370
-3
390
F
  0
LAYER
  5
1FB
100
AcDbSymbolTableRecord
100
AcDbLayerTableRecord
  2
DEFAULT_2
 70
0
 62
8
  6
HIDDEN
370
-3
390
F
  0
LAYER
  5
1FC
100
AcDbSymbolTableRecord
100
AcDbLayerTableRecord
  2
DEFAULT_3
 70
0
 62
7
  6
PHANTOM
370
-3
390
F
  0
LAYER
  5
1FD
100
AcDbSymbolTableRecord
100
AcDbLayerTableRecord
  2
01_ALL_DTM_PLN
 70
0
 62
7
  6
CONTINUOUS
370
-3
390
F
  0
LAYER
  5
1FE
100
AcDbSymbolTableRecord
100
AcDbLayerTableRecord
  2
01__ASM_ALL_DTM_PLN
 70
0
 62
7
  6
CONTINUOUS
370
-3
390
F
  0
LAYER
  5
1FF
100
AcDbSymbolTableRecord
100
AcDbLayerTableRecord
  2
01__ASM_DEF_DTM_PLN
 70
0
 62
7
  6
CONTINUOUS
370
-3
390
F
  0
LAYER
  5
200
100
AcDbSymbolTableRecord
100
AcDbLayerTableRecord
  2
01___PRT_ALL_DTM_PLN
 70
0
 62
7
  6
CONTINUOUS
370
-3
390
F
  0
LAYER
  5
201
100
AcDbSymbolTableRecord
100
AcDbLayerTableRecord
  2
01___PRT_DEF_DTM_PLN
 70
0
 62
7
  6
CONTINUOUS
370
-3
390
F
  0
LAYER
  5
202
100
AcDbSymbolTableRecord
100
AcDbLayerTableRecord
  2
02_ALL_AXES
 70
0
 62
7
  6
CONTINUOUS
370
-3
390
F
  0
LAYER
  5
203
100
AcDbSymbolTableRecord
100
AcDbLayerTableRecord
  2
02__ASM_ALL_AXES
 70
0
 62
7
  6
CONTINUOUS
370
-3
390
F
  0
LAYER
  5
204
100
AcDbSymbolTableRecord
100
AcDbLayerTableRecord
  2
02___PRT_ALL_AXES
 70
0
 62
7
  6
CONTINUOUS
370
-3
390
F
  0
LAYER
  5
205
100
AcDbSymbolTableRecord
100
AcDbLayerTableRecord
  2
03_ALL_CURVES
 70
0
 62
7
  6
CONTINUOUS
370
-3
390
F
  0
LAYER
  5
206
100
AcDbSymbolTableRecord
100
AcDbLayerTableRecord
  2
03__ASM_ALL_CURVES
 70
0
 62
7
  6
CONTINUOUS
370
-3
390
F
  0
LAYER
  5
207
100
AcDbSymbolTableRecord
100
AcDbLayerTableRecord
  2
03___PRT_ALL_CURVES
 70
0
 62
7
  6
CONTINUOUS
370
-3
390
F
  0
LAYER
  5
208
100
AcDbSymbolTableRecord
100
AcDbLayerTableRecord
  2
04_ALL_DTM_PNT
 70
0
 62
7
  6
CONTINUOUS
370
-3
390
F
  0
LAYER
  5
209
100
AcDbSymbolTableRecord
100
AcDbLayerTableRecord
  2
04__ASM_ALL_DTM_PNT
 70
0
 62
7
  6
CONTINUOUS
370
-3
390
F
  0
LAYER
  5
20A
100
AcDbSymbolTableRecord
100
AcDbLayerTableRecord
  2
04___PRT_ALL_DTM_PNT
 70
0
 62
7
  6
CONTINUOUS
370
-3
390
F
  0
LAYER
  5
20B
100
AcDbSymbolTableRecord
100
AcDbLayerTableRecord
  2
05_ALL_DTM_CSYS
 70
0
 62
7
  6
CONTINUOUS
370
-3
390
F
  0
LAYER
  5
20C
100
AcDbSymbolTableRecord
100
AcDbLayerTableRecord
  2
05__ASM_ALL_DTM_CSYS
 70
0
 62
7
  6
CONTINUOUS
370
-3
390
F
  0
LAYER
  5
20D
100
AcDbSymbolTableRecord
100
AcDbLayerTableRecord
  2
05__ASM_DEF_DTM_CSYS
 70
0
 62
7
  6
CONTINUOUS
370
-3
390
F
  0
LAYER
  5
20E
100
AcDbSymbolTableRecord
100
AcDbLayerTableRecord
  2
05___PRT_ALL_DTM_CSYS
 70
0
 62
7
  6
CONTINUOUS
370
-3
390
F
  0
LAYER
  5
20F
100
AcDbSymbolTableRecord
100
AcDbLayerTableRecord
  2
05___PRT_DEF_DTM_CSYS
 70
0
 62
7
  6
CONTINUOUS
370
-3
390
F
  0
LAYER
  5
210
100
AcDbSymbolTableRecord
100
AcDbLayerTableRecord
  2
06_ALL_SURFS
 70
0
 62
7
  6
CONTINUOUS
370
-3
390
F
  0
LAYER
  5
211
100
AcDbSymbolTableRecord
100
AcDbLayerTableRecord
  2
06__ASM_ALL_SURFS
 70
0
 62
7
  6
CONTINUOUS
370
-3
390
F
  0
LAYER
  5
212
100
AcDbSymbolTableRecord
100
AcDbLayerTableRecord
  2
06___PRT_ALL_SURFS
 70
0
 62
7
  6
CONTINUOUS
370
-3
390
F
  0
LAYER
  5
213
100
AcDbSymbolTableRecord
100
AcDbLayerTableRecord
  2
07__ASM_ALL_SKELETONS
 70
0
 62
7
  6
CONTINUOUS
370
-3
390
F
  0
LAYER
  5
214
100
AcDbSymbolTableRecord
100
AcDbLayerTableRecord
  2
LAYER_DIM
 70
0
 62
7
  6
CONTINUOUS
370
-3
390
F
  0
LAYER
  5
215
100
AcDbSymbolTableRecord
100
AcDbLayerTableRecord
  2
LAYER_FEATURE
 70
0
 62
7
  6
CONTINUOUS
370
-3
390
F
  0
LAYER
  5
216
100
AcDbSymbolTableRecord
100
AcDbLayerTableRecord
  2
LAYER_GEOM_FEAT
 70
0
 62
7
  6
CONTINUOUS
370
-3
390
F
  0
LAYER
  5
217
100
AcDbSymbolTableRecord
100
AcDbLayerTableRecord
  2
LAYER_PARAMETER_DIM
 70
0
 62
7
  6
CONTINUOUS
370
-3
390
F
  0
LAYER
  5
218
100
AcDbSymbolTableRecord
100
AcDbLayerTableRecord
  2
LAYER_PROTRUSION_FEAT
 70
0
 62
7
  6
CONTINUOUS
370
-3
390
F
  0
LAYER
  5
219
100
AcDbSymbolTableRecord
100
AcDbLayerTableRecord
  2
LAYER_ROUND_FEAT
 70
0
 62
7
  6
CONTINUOUS
370
-3
390
F
  0
ENDTAB
  0
TABLE
  2
STYLE
  5
3
100
AcDbSymbolTable
 70
1
  0
STYLE
  5
11
100
AcDbSymbolTableRecord
100
AcDbTextStyleTableRecord
  2
STANDARD
 70
0
 40
0.0
 41
0.8
 50
0.0
 71
0
 42
0.2
  3
txt
  4

  0
STYLE
  5
21A
100
AcDbSymbolTableRecord
100
AcDbTextStyleTableRecord
  2
TEXTSTYLE_1
 70
0
 40
0.0
 41
0.8
 50
0.0
 71
0
 42
0.2
  3
gdt
  4

  0
ENDTAB
  0
TABLE
  2
VIEW
  5
6
100
AcDbSymbolTable
 70
0
  0
ENDTAB
  0
TABLE
  2
UCS
  5
7
100
AcDbSymbolTable
 70
0
  0
ENDTAB
  0
TABLE
  2
APPID
  5
9
100
AcDbSymbolTable
 70
1
  0
APPID
  5
21B
100
AcDbSymbolTableRecord
100
AcDbRegAppTableRecord
  2
ACAD
 70
0
  0
ENDTAB
  0
TABLE
  2
BLOCK_RECORD
  5
1
100
AcDbSymbolTable
 70
0
  0
BLOCK_RECORD
  5
21C
100
AcDbSymbolTableRecord
100
AcDbBlockTableRecord
  2
*Model_Space
  0
BLOCK_RECORD
  5
21D
100
AcDbSymbolTableRecord
100
AcDbBlockTableRecord
  2
*Paper_Space
  0
ENDTAB
  0
TABLE
  2
DIMSTYLE
  5
A
100
AcDbSymbolTable
 70
1
100
AcDbDimStyleTable
 71
0
  0
DIMSTYLE
105
21E
100
AcDbSymbolTableRecord
100
AcDbDimStyleTableRecord
  2
STANDARD
 70
0
  3

  4

 40
1.0
 41
0.1875
 42
0.0625
 43
0.38
 44
0.125
 45
0.0
 46
0.0
 47
0.0001
 48
0.0001
140
0.15625
141
0.09
142
0.0
143
25.4
144
1.0
145
0.0
146
1.0
147
0.09
 71
0.0
 72
0.0
 73
1
 74
1
 75
0
 76
0
 77
0
 78
4
170
0
171
2
172
0
173
0
174
0
175
0
176
0
177
0
178
0
270
2
271
4
272
4
273
2
274
2
275
0
280
0
281
0
282
0
283
1
284
4
285
0
286
0
287
3
288
0
340
11
278
46
  0
ENDTAB
  0
ENDSEC
  0
SECTION
  2
BLOCKS
  0
BLOCK
  5
20
100
AcDbEntity
  8
0
100
AcDbBlockBegin
  2
*Model_Space
 70
0
 10
0.0
 20
0.0
 30
0.0
  3
*Model_Space
  1

  0
ENDBLK
  5
21
100
AcDbEntity
  8
0
100
AcDbBlockEnd
  0
BLOCK
  5
1C
100
AcDbEntity
  8
0
100
AcDbBlockBegin
  2
*Paper_Space
 70
0
 10
0.0
 20
0.0
 30
0.0
  3
*Paper_Space
  1

  0
ENDBLK
  5
1D
100
AcDbEntity
  8
0
100
AcDbBlockEnd
  0
ENDSEC
  0
SECTION
  2
ENTITIES
  0
MTEXT
  5
21F
100
AcDbEntity
  8
0
100
AcDbMText
 62
7
  6
CONTINUOUS
  7
STANDARD
 71
1
 72
1
 10
15.9560215477
 20
0.9479130325
 30
0.0
 11
1.0
 21
0.0
 31
0.0
 44
0.9
  1
SCALE: 1:0.500
 40
0.3
 41
3.36
  0
LINE
  5
220
100
AcDbEntity
  8
0
100
AcDbLine
 62
7
  6
CONTINUOUS
 10
0.0
 20
0.0
 11
0.0
 21
17.0
  0
LINE
  5
221
100
AcDbEntity
  8
0
100
AcDbLine
 62
7
  6
CONTINUOUS
 10
0.0
 20
0.0
 11
22.0
 21
0.0
  0
LINE
  5
222
100
AcDbEntity
  8
0
100
AcDbLine
 62
7
  6
CONTINUOUS
 10
0.0
 20
17.0
 11
22.0
 21
17.0
  0
LINE
  5
223
100
AcDbEntity
  8
0
100
AcDbLine
 62
7
  6
CONTINUOUS
 10
22.0
 20
0.0
 11
22.0
 21
17.0
  0
LINE
  5
224
100
AcDbEntity
  8
0
100
AcDbLine
 62
7
  6
CONTINUOUS
 10
3.0366172762
 20
5.6151198968
 11
3.0366172762
 21
5.5726198968
  0
LINE
  5
225
100
AcDbEntity
  8
0
100
AcDbLine
 62
7
  6
CONTINUOUS
 10
3.0366172762
 20
5.5726198968
 11
3.0812539689
 21
5.4250212328
  0
LINE
  5
226
100
AcDbEntity
  8
0
100
AcDbLine
 62
7
  6
CONTINUOUS
 10
3.2866172762
 20
5.5726198968
 11
3.2866172762
 21
5.5976198968
  0
LINE
  5
227
100
AcDbEntity
  8
LAYER_FEATURE
100
AcDbLine
 62
7
  6
CONTINUOUS
 10
3.3491172762
 20
5.5976198968
 11
3.3491172762
 21
5.5726198968
  0
LINE
  5
228
100
AcDbEntity
  8
0
100
AcDbLine
 62
7
  6
CONTINUOUS
 10
3.2419805834
 20
5.4250212328
 11
3.2866172762
 21
5.5726198968
  0
LINE
  5
229
100
AcDbEntity
  8
LAYER_FEATURE
100
AcDbLine
 62
7
  6
CONTINUOUS
 10
3.5991172762
 20
5.5726198968
 11
3.5991172762
 21
5.5976198968
  0
LINE
  5
22A
100
AcDbEntity
  8
LAYER_FEATURE
100
AcDbLine
 62
7
  6
CONTINUOUS
 10
3.6616172762
 20
5.5976198968
 11
3.6616172762
 21
5.5726198968
  0
LINE
  5
22B
100
AcDbEntity
  8
LAYER_FEATURE
100
AcDbLine
 62
7
  6
CONTINUOUS
 10
3.3491172762
 20
5.5726198968
 11
3.3937539689
 21
5.4250212328
  0
LINE
  5
22C
100
AcDbEntity
  8
LAYER_FEATURE
100
AcDbLine
 62
7
  6
CONTINUOUS
 10
3.5544805834
 20
5.4250212328
 11
3.5991172762
 21
5.5726198968
  0
LINE
  5
22D
100
AcDbEntity
  8
LAYER_FEATURE
100
AcDbLine
 62
7
  6
CONTINUOUS
 10
3.6616172762
 20
5.5726198968
 11
3.7062539689
 21
5.4250212328
  0
LINE
  5
22E
100
AcDbEntity
  8
LAYER_FEATURE
100
AcDbLine
 62
7
  6
CONTINUOUS
 10
3.9116172762
 20
5.5726198968
 11
3.9116172762
 21
5.5976198968
  0
LINE
  5
22F
100
AcDbEntity
  8
LAYER_FEATURE
100
AcDbLine
 62
7
  6
CONTINUOUS
 10
3.9741172762
 20
5.5976198968
 11
3.9741172762
 21
5.5726198968
  0
LINE
  5
230
100
AcDbEntity
  8
LAYER_FEATURE
100
AcDbLine
 62
7
  6
CONTINUOUS
 10
3.8669805834
 20
5.4250212328
 11
3.9116172762
 21
5.5726198968
  0
LINE
  5
231
100
AcDbEntity
  8
LAYER_FEATURE
100
AcDbLine
 62
7
  6
CONTINUOUS
 10
3.9741172762
 20
5.5726198968
 11
4.0187539689
 21
5.4250212328
  0
LINE
  5
232
100
AcDbEntity
  8
LAYER_FEATURE
100
AcDbLine
 62
7
  6
CONTINUOUS
 10
4.2241172762
 20
5.5726198968
 11
4.2241172762
 21
5.5976198968
  0
LINE
  5
233
100
AcDbEntity
  8
LAYER_FEATURE
100
AcDbLine
 62
7
  6
CONTINUOUS
 10
4.2866172762
 20
5.5976198968
 11
4.2866172762
 21
5.5726198968
  0
LINE
  5
234
100
AcDbEntity
  8
LAYER_FEATURE
100
AcDbLine
 62
7
  6
CONTINUOUS
 10
4.1794805834
 20
5.4250212328
 11
4.2241172762
 21
5.5726198968
  0
LINE
  5
235
100
AcDbEntity
  8
LAYER_FEATURE
100
AcDbLine
 62
7
  6
CONTINUOUS
 10
4.2866172762
 20
5.5726198968
 11
4.3312539689
 21
5.4250212328
  0
LINE
  5
236
100
AcDbEntity
  8
LAYER_FEATURE
100
AcDbLine
 62
7
  6
CONTINUOUS
 10
4.5366172762
 20
5.5726198968
 11
4.5366172762
 21
5.5976198968
  0
LINE
  5
237
100
AcDbEntity
  8
LAYER_FEATURE
100
AcDbLine
 62
7
  6
CONTINUOUS
 10
4.5991172762
 20
5.5976198968
 11
4.5991172762
 21
5.5726198968
  0
LINE
  5
238
100
AcDbEntity
  8
LAYER_FEATURE
100
AcDbLine
 62
7
  6
CONTINUOUS
 10
4.4919805834
 20
5.4250212328
 11
4.5366172762
 21
5.5726198968
  0
LINE
  5
239
100
AcDbEntity
  8
LAYER_FEATURE
100
AcDbLine
 62
7
  6
CONTINUOUS
 10
4.5991172762
 20
5.5726198968
 11
4.6437539689
 21
5.4250212328
  0
LINE
  5
23A
100
AcDbEntity
  8
LAYER_FEATURE
100
AcDbLine
 62
7
  6
CONTINUOUS
 10
4.8491172762
 20
5.5726198968
 11
4.8491172762
 21
5.5976198968
  0
LINE
  5
23B
100
AcDbEntity
  8
LAYER_FEATURE
100
AcDbLine
 62
7
  6
CONTINUOUS
 10
4.9116172762
 20
5.5976198968
 11
4.9116172762
 21
5.5726198968
  0
LINE
  5
23C
100
AcDbEntity
  8
LAYER_FEATURE
100
AcDbLine
 62
7
  6
CONTINUOUS
 10
4.8044805834
 20
5.4250212328
 11
4.8491172762
 21
5.5726198968
  0
LINE
  5
23D
100
AcDbEntity
  8
LAYER_FEATURE
100
AcDbLine
 62
7
  6
CONTINUOUS
 10
4.9116172762
 20
5.5726198968
 11
4.9562539689
 21
5.4250212328
  0
LINE
  5
23E
100
AcDbEntity
  8
LAYER_FEATURE
100
AcDbLine
 62
7
  6
CONTINUOUS
 10
5.1616172762
 20
5.5726198968
 11
5.1616172762
 21
5.5976198968
  0
LINE
  5
23F
100
AcDbEntity
  8
LAYER_FEATURE
100
AcDbLine
 62
7
  6
CONTINUOUS
 10
5.2241172762
 20
5.5976198968
 11
5.2241172762
 21
5.5726198968
  0
LINE
  5
240
100
AcDbEntity
  8
LAYER_FEATURE
100
AcDbLine
 62
7
  6
CONTINUOUS
 10
5.1169805834
 20
5.4250212328
 11
5.1616172762
 21
5.5726198968
  0
LINE
  5
241
100
AcDbEntity
  8
LAYER_FEATURE
100
AcDbLine
 62
7
  6
CONTINUOUS
 10
5.2241172762
 20
5.5726198968
 11
5.2687539689
 21
5.4250212328
  0
LINE
  5
242
100
AcDbEntity
  8
LAYER_FEATURE
100
AcDbLine
 62
7
  6
CONTINUOUS
 10
5.4741172762
 20
5.5726198968
 11
5.4741172762
 21
5.5976198968
  0
LINE
  5
243
100
AcDbEntity
  8
LAYER_FEATURE
100
AcDbLine
 62
7
  6
CONTINUOUS
 10
5.5366172762
 20
5.5976198968
 11
5.5366172762
 21
5.5726198968
  0
LINE
  5
244
100
AcDbEntity
  8
LAYER_FEATURE
100
AcDbLine
 62
7
  6
CONTINUOUS
 10
5.4294805834
 20
5.4250212328
 11
5.4741172762
 21
5.5726198968
  0
LINE
  5
245
100
AcDbEntity
  8
LAYER_FEATURE
100
AcDbLine
 62
7
  6
CONTINUOUS
 10
5.5366172762
 20
5.5726198968
 11
5.5812539689
 21
5.4250212328
  0
LINE
  5
246
100
AcDbEntity
  8
LAYER_FEATURE
100
AcDbLine
 62
7
  6
CONTINUOUS
 10
5.7866172762
 20
5.5726198968
 11
5.7866172762
 21
5.5976198968
  0
LINE
  5
247
100
AcDbEntity
  8
LAYER_FEATURE
100
AcDbLine
 62
7
  6
CONTINUOUS
 10
5.8491172762
 20
5.5976198968
 11
5.8491172762
 21
5.5726198968
  0
LINE
  5
248
100
AcDbEntity
  8
LAYER_FEATURE
100
AcDbLine
 62
7
  6
CONTINUOUS
 10
5.7419805834
 20
5.4250212328
 11
5.7866172762
 21
5.5726198968
  0
LINE
  5
249
100
AcDbEntity
  8
LAYER_FEATURE
100
AcDbLine
 62
7
  6
CONTINUOUS
 10
5.8491172762
 20
5.5726198968
 11
5.8937539689
 21
5.4250212328
  0
LINE
  5
24A
100
AcDbEntity
  8
LAYER_FEATURE
100
AcDbLine
 62
7
  6
CONTINUOUS
 10
6.0991172762
 20
5.5726198968
 11
6.0991172762
 21
5.5976198968
  0
LINE
  5
24B
100
AcDbEntity
  8
LAYER_FEATURE
100
AcDbLine
 62
7
  6
CONTINUOUS
 10
6.0544805834
 20
5.4250212328
 11
6.0991172762
 21
5.5726198968
  0
LINE
  5
24C
100
AcDbEntity
  8
0
100
AcDbLine
 62
7
  6
CONTINUOUS
 10
3.0912246622
 20
5.4176198968
 11
3.2320098901
 21
5.4176198968
  0
LINE
  5
24D
100
AcDbEntity
  8
LAYER_FEATURE
100
AcDbLine
 62
7
  6
CONTINUOUS
 10
3.4037246622
 20
5.4176198968
 11
3.5445098901
 21
5.4176198968
  0
LINE
  5
24E
100
AcDbEntity
  8
LAYER_FEATURE
100
AcDbLine
 62
7
  6
CONTINUOUS
 10
3.7162246622
 20
5.4176198968
 11
3.8570098901
 21
5.4176198968
  0
LINE
  5
24F
100
AcDbEntity
  8
LAYER_FEATURE
100
AcDbLine
 62
7
  6
CONTINUOUS
 10
4.0287246622
 20
5.4176198968
 11
4.1695098901
 21
5.4176198968
  0
LINE
  5
250
100
AcDbEntity
  8
LAYER_FEATURE
100
AcDbLine
 62
7
  6
CONTINUOUS
 10
4.3412246622
 20
5.4176198968
 11
4.4820098901
 21
5.4176198968
  0
LINE
  5
251
100
AcDbEntity
  8
LAYER_FEATURE
100
AcDbLine
 62
7
  6
CONTINUOUS
 10
4.6537246622
 20
5.4176198968
 11
4.7945098901
 21
5.4176198968
  0
LINE
  5
252
100
AcDbEntity
  8
LAYER_FEATURE
100
AcDbLine
 62
7
  6
CONTINUOUS
 10
4.9662246622
 20
5.4176198968
 11
5.1070098901
 21
5.4176198968
  0
LINE
  5
253
100
AcDbEntity
  8
LAYER_FEATURE
100
AcDbLine
 62
7
  6
CONTINUOUS
 10
5.2787246622
 20
5.4176198968
 11
5.4195098901
 21
5.4176198968
  0
LINE
  5
254
100
AcDbEntity
  8
LAYER_FEATURE
100
AcDbLine
 62
7
  6
CONTINUOUS
 10
5.5912246622
 20
5.4176198968
 11
5.7320098901
 21
5.4176198968
  0
LINE
  5
255
100
AcDbEntity
  8
LAYER_FEATURE
100
AcDbLine
 62
7
  6
CONTINUOUS
 10
5.9037246622
 20
5.4176198968
 11
6.0445098901
 21
5.4176198968
  0
LINE
  5
256
100
AcDbEntity
  8
LAYER_FEATURE
100
AcDbLine
 62
7
  6
CONTINUOUS
 10
6.2162246622
 20
5.4176198968
 11
6.3570098901
 21
5.4176198968
  0
LINE
  5
257
100
AcDbEntity
  8
LAYER_FEATURE
100
AcDbLine
 62
7
  6
CONTINUOUS
 10
6.5287246622
 20
5.4176198968
 11
6.6695098901
 21
5.4176198968
  0
LINE
  5
258
100
AcDbEntity
  8
LAYER_FEATURE
100
AcDbLine
 62
7
  6
CONTINUOUS
 10
6.8412246622
 20
5.4176198968
 11
6.9820098901
 21
5.4176198968
  0
LINE
  5
259
100
AcDbEntity
  8
LAYER_FEATURE
100
AcDbLine
 62
7
  6
CONTINUOUS
 10
7.1537246622
 20
5.4176198968
 11
7.2945098901
 21
5.4176198968
  0
LINE
  5
25A
100
AcDbEntity
  8
LAYER_FEATURE
100
AcDbLine
 62
7
  6
CONTINUOUS
 10
7.4662246622
 20
5.4176198968
 11
7.6070098901
 21
5.4176198968
  0
LINE
  5
25B
100
AcDbEntity
  8
LAYER_FEATURE
100
AcDbLine
 62
7
  6
CONTINUOUS
 10
7.7787246622
 20
5.4176198968
 11
7.9195098901
 21
5.4176198968
  0
LINE
  5
25C
100
AcDbEntity
  8
LAYER_FEATURE
100
AcDbLine
 62
7
  6
CONTINUOUS
 10
8.0912246622
 20
5.4176198968
 11
8.2320098901
 21
5.4176198968
  0
LINE
  5
25D
100
AcDbEntity
  8
LAYER_FEATURE
100
AcDbLine
 62
7
  6
CONTINUOUS
 10
8.4037246622
 20
5.4176198968
 11
8.5445098901
 21
5.4176198968
  0
LINE
  5
25E
100
AcDbEntity
  8
LAYER_FEATURE
100
AcDbLine
 62
7
  6
CONTINUOUS
 10
8.7162246622
 20
5.4176198968
 11
8.8570098901
 21
5.4176198968
  0
LINE
  5
25F
100
AcDbEntity
  8
LAYER_FEATURE
100
AcDbLine
 62
7
  6
CONTINUOUS
 10
9.0287246622
 20
5.4176198968
 11
9.1695098901
 21
5.4176198968
  0
LINE
  5
260
100
AcDbEntity
  8
LAYER_FEATURE
100
AcDbLine
 62
7
  6
CONTINUOUS
 10
6.1616172762
 20
5.5976198968
 11
6.1616172762
 21
5.5726198968
  0
LINE
  5
261
100
AcDbEntity
  8
LAYER_FEATURE
100
AcDbLine
 62
7
  6
CONTINUOUS
 10
3.2866172762
 20
5.5976198968
 11
3.3491172762
 21
5.5976198968
  0
LINE
  5
262
100
AcDbEntity
  8
LAYER_FEATURE
100
AcDbLine
 62
7
  6
CONTINUOUS
 10
3.5991172762
 20
5.5976198968
 11
3.6616172762
 21
5.5976198968
  0
LINE
  5
263
100
AcDbEntity
  8
LAYER_FEATURE
100
AcDbLine
 62
7
  6
CONTINUOUS
 10
3.9116172762
 20
5.5976198968
 11
3.9741172762
 21
5.5976198968
  0
LINE
  5
264
100
AcDbEntity
  8
LAYER_FEATURE
100
AcDbLine
 62
7
  6
CONTINUOUS
 10
4.2241172762
 20
5.5976198968
 11
4.2866172762
 21
5.5976198968
  0
LINE
  5
265
100
AcDbEntity
  8
LAYER_FEATURE
100
AcDbLine
 62
7
  6
CONTINUOUS
 10
4.5366172762
 20
5.5976198968
 11
4.5991172762
 21
5.5976198968
  0
LINE
  5
266
100
AcDbEntity
  8
LAYER_FEATURE
100
AcDbLine
 62
7
  6
CONTINUOUS
 10
4.8491172762
 20
5.5976198968
 11
4.9116172762
 21
5.5976198968
  0
LINE
  5
267
100
AcDbEntity
  8
LAYER_FEATURE
100
AcDbLine
 62
7
  6
CONTINUOUS
 10
5.1616172762
 20
5.5976198968
 11
5.2241172762
 21
5.5976198968
  0
LINE
  5
268
100
AcDbEntity
  8
LAYER_FEATURE
100
AcDbLine
 62
7
  6
CONTINUOUS
 10
5.4741172762
 20
5.5976198968
 11
5.5366172762
 21
5.5976198968
  0
LINE
  5
269
100
AcDbEntity
  8
LAYER_FEATURE
100
AcDbLine
 62
7
  6
CONTINUOUS
 10
5.7866172762
 20
5.5976198968
 11
5.8491172762
 21
5.5976198968
  0
LINE
  5
26A
100
AcDbEntity
  8
LAYER_FEATURE
100
AcDbLine
 62
7
  6
CONTINUOUS
 10
6.0991172762
 20
5.5976198968
 11
6.1616172762
 21
5.5976198968
  0
LINE
  5
26B
100
AcDbEntity
  8
LAYER_FEATURE
100
AcDbLine
 62
7
  6
CONTINUOUS
 10
6.4116172762
 20
5.5976198968
 11
6.4741172762
 21
5.5976198968
  0
LINE
  5
26C
100
AcDbEntity
  8
LAYER_FEATURE
100
AcDbLine
 62
7
  6
CONTINUOUS
 10
6.7241172762
 20
5.5976198968
 11
6.7866172762
 21
5.5976198968
  0
LINE
  5
26D
100
AcDbEntity
  8
LAYER_FEATURE
100
AcDbLine
 62
7
  6
CONTINUOUS
 10
7.0366172762
 20
5.5976198968
 11
7.0991172762
 21
5.5976198968
  0
LINE
  5
26E
100
AcDbEntity
  8
LAYER_FEATURE
100
AcDbLine
 62
7
  6
CONTINUOUS
 10
7.3491172762
 20
5.5976198968
 11
7.4116172762
 21
5.5976198968
  0
LINE
  5
26F
100
AcDbEntity
  8
LAYER_FEATURE
100
AcDbLine
 62
7
  6
CONTINUOUS
 10
7.6616172762
 20
5.5976198968
 11
7.7241172762
 21
5.5976198968
  0
LINE
  5
270
100
AcDbEntity
  8
LAYER_FEATURE
100
AcDbLine
 62
7
  6
CONTINUOUS
 10
7.9741172762
 20
5.5976198968
 11
8.0366172762
 21
5.5976198968
  0
LINE
  5
271
100
AcDbEntity
  8
LAYER_FEATURE
100
AcDbLine
 62
7
  6
CONTINUOUS
 10
8.2866172762
 20
5.5976198968
 11
8.3491172762
 21
5.5976198968
  0
LINE
  5
272
100
AcDbEntity
  8
LAYER_FEATURE
100
AcDbLine
 62
7
  6
CONTINUOUS
 10
8.5991172762
 20
5.5976198968
 11
8.6616172762
 21
5.5976198968
  0
LINE
  5
273
100
AcDbEntity
  8
LAYER_FEATURE
100
AcDbLine
 62
7
  6
CONTINUOUS
 10
8.9116172762
 20
5.5976198968
 11
8.9741172762
 21
5.5976198968
  0
LINE
  5
274
100
AcDbEntity
  8
0
100
AcDbLine
 62
7
  6
CONTINUOUS
 10
9.2166172762
 20
5.6226198968
 11
3.0441172762
 21
5.6226198968
  0
LINE
  5
275
100
AcDbEntity
  8
LAYER_FEATURE
100
AcDbLine
 62
7
  6
CONTINUOUS
 10
6.1616172762
 20
5.5726198968
 11
6.2062539689
 21
5.4250212328
  0
LINE
  5
276
100
AcDbEntity
  8
LAYER_FEATURE
100
AcDbLine
 62
7
  6
CONTINUOUS
 10
6.4116172762
 20
5.5726198968
 11
6.4116172762
 21
5.5976198968
  0
LINE
  5
277
100
AcDbEntity
  8
LAYER_FEATURE
100
AcDbLine
 62
7
  6
CONTINUOUS
 10
6.4741172762
 20
5.5976198968
 11
6.4741172762
 21
5.5726198968
  0
LINE
  5
278
100
AcDbEntity
  8
LAYER_FEATURE
100
AcDbLine
 62
7
  6
CONTINUOUS
 10
6.3669805834
 20
5.4250212328
 11
6.4116172762
 21
5.5726198968
  0
LINE
  5
279
100
AcDbEntity
  8
LAYER_FEATURE
100
AcDbLine
 62
7
  6
CONTINUOUS
 10
6.4741172762
 20
5.5726198968
 11
6.5187539689
 21
5.4250212328
  0
LINE
  5
27A
100
AcDbEntity
  8
LAYER_FEATURE
100
AcDbLine
 62
7
  6
CONTINUOUS
 10
6.7241172762
 20
5.5726198968
 11
6.7241172762
 21
5.5976198968
  0
LINE
  5
27B
100
AcDbEntity
  8
LAYER_FEATURE
100
AcDbLine
 62
7
  6
CONTINUOUS
 10
6.6794805834
 20
5.4250212328
 11
6.7241172762
 21
5.5726198968
  0
LINE
  5
27C
100
AcDbEntity
  8
LAYER_FEATURE
100
AcDbLine
 62
7
  6
CONTINUOUS
 10
6.7866172762
 20
5.5726198968
 11
6.8312539689
 21
5.4250212328
  0
LINE
  5
27D
100
AcDbEntity
  8
LAYER_FEATURE
100
AcDbLine
 62
7
  6
CONTINUOUS
 10
6.7866172762
 20
5.5976198968
 11
6.7866172762
 21
5.5726198968
  0
LINE
  5
27E
100
AcDbEntity
  8
LAYER_FEATURE
100
AcDbLine
 62
7
  6
CONTINUOUS
 10
6.9919805834
 20
5.4250212328
 11
7.0366172762
 21
5.5726198968
  0
LINE
  5
27F
100
AcDbEntity
  8
LAYER_FEATURE
100
AcDbLine
 62
7
  6
CONTINUOUS
 10
7.0366172762
 20
5.5726198968
 11
7.0366172762
 21
5.5976198968
  0
LINE
  5
280
100
AcDbEntity
  8
LAYER_FEATURE
100
AcDbLine
 62
7
  6
CONTINUOUS
 10
7.0991172762
 20
5.5976198968
 11
7.0991172762
 21
5.5726198968
  0
LINE
  5
281
100
AcDbEntity
  8
LAYER_FEATURE
100
AcDbLine
 62
7
  6
CONTINUOUS
 10
7.0991172762
 20
5.5726198968
 11
7.1437539689
 21
5.4250212328
  0
LINE
  5
282
100
AcDbEntity
  8
LAYER_FEATURE
100
AcDbLine
 62
7
  6
CONTINUOUS
 10
7.3491172762
 20
5.5726198968
 11
7.3491172762
 21
5.5976198968
  0
LINE
  5
283
100
AcDbEntity
  8
LAYER_FEATURE
100
AcDbLine
 62
7
  6
CONTINUOUS
 10
7.3044805834
 20
5.4250212328
 11
7.3491172762
 21
5.5726198968
  0
LINE
  5
284
100
AcDbEntity
  8
LAYER_FEATURE
100
AcDbLine
 62
7
  6
CONTINUOUS
 10
7.4116172762
 20
5.5726198968
 11
7.4562539689
 21
5.4250212328
  0
LINE
  5
285
100
AcDbEntity
  8
LAYER_FEATURE
100
AcDbLine
 62
7
  6
CONTINUOUS
 10
7.4116172762
 20
5.5976198968
 11
7.4116172762
 21
5.5726198968
  0
LINE
  5
286
100
AcDbEntity
  8
LAYER_FEATURE
100
AcDbLine
 62
7
  6
CONTINUOUS
 10
7.6169805834
 20
5.4250212328
 11
7.6616172762
 21
5.5726198968
  0
LINE
  5
287
100
AcDbEntity
  8
LAYER_FEATURE
100
AcDbLine
 62
7
  6
CONTINUOUS
 10
7.6616172762
 20
5.5726198968
 11
7.6616172762
 21
5.5976198968
  0
LINE
  5
288
100
AcDbEntity
  8
LAYER_FEATURE
100
AcDbLine
 62
7
  6
CONTINUOUS
 10
7.7241172762
 20
5.5976198968
 11
7.7241172762
 21
5.5726198968
  0
LINE
  5
289
100
AcDbEntity
  8
LAYER_FEATURE
100
AcDbLine
 62
7
  6
CONTINUOUS
 10
7.7241172762
 20
5.5726198968
 11
7.7687539689
 21
5.4250212328
  0
LINE
  5
28A
100
AcDbEntity
  8
LAYER_FEATURE
100
AcDbLine
 62
7
  6
CONTINUOUS
 10
7.9741172762
 20
5.5726198968
 11
7.9741172762
 21
5.5976198968
  0
LINE
  5
28B
100
AcDbEntity
  8
LAYER_FEATURE
100
AcDbLine
 62
7
  6
CONTINUOUS
 10
7.9294805834
 20
5.4250212328
 11
7.9741172762
 21
5.5726198968
  0
LINE
  5
28C
100
AcDbEntity
  8
LAYER_FEATURE
100
AcDbLine
 62
7
  6
CONTINUOUS
 10
8.0366172762
 20
5.5726198968
 11
8.0812539689
 21
5.4250212328
  0
LINE
  5
28D
100
AcDbEntity
  8
LAYER_FEATURE
100
AcDbLine
 62
7
  6
CONTINUOUS
 10
8.0366172762
 20
5.5976198968
 11
8.0366172762
 21
5.5726198968
  0
LINE
  5
28E
100
AcDbEntity
  8
LAYER_FEATURE
100
AcDbLine
 62
7
  6
CONTINUOUS
 10
8.2419805834
 20
5.4250212328
 11
8.2866172762
 21
5.5726198968
  0
LINE
  5
28F
100
AcDbEntity
  8
LAYER_FEATURE
100
AcDbLine
 62
7
  6
CONTINUOUS
 10
8.2866172762
 20
5.5726198968
 11
8.2866172762
 21
5.5976198968
  0
LINE
  5
290
100
AcDbEntity
  8
LAYER_FEATURE
100
AcDbLine
 62
7
  6
CONTINUOUS
 10
8.3491172762
 20
5.5976198968
 11
8.3491172762
 21
5.5726198968
  0
LINE
  5
291
100
AcDbEntity
  8
LAYER_FEATURE
100
AcDbLine
 62
7
  6
CONTINUOUS
 10
8.3491172762
 20
5.5726198968
 11
8.3937539689
 21
5.4250212328
  0
LINE
  5
292
100
AcDbEntity
  8
LAYER_FEATURE
100
AcDbLine
 62
7
  6
CONTINUOUS
 10
8.5991172762
 20
5.5726198968
 11
8.5991172762
 21
5.5976198968
  0
LINE
  5
293
100
AcDbEntity
  8
LAYER_FEATURE
100
AcDbLine
 62
7
  6
CONTINUOUS
 10
8.5544805834
 20
5.4250212328
 11
8.5991172762
 21
5.5726198968
  0
LINE
  5
294
100
AcDbEntity
  8
LAYER_FEATURE
100
AcDbLine
 62
7
  6
CONTINUOUS
 10
8.6616172762
 20
5.5726198968
 11
8.7062539689
 21
5.4250212328
  0
LINE
  5
295
100
AcDbEntity
  8
LAYER_FEATURE
100
AcDbLine
 62
7
  6
CONTINUOUS
 10
8.6616172762
 20
5.5976198968
 11
8.6616172762
 21
5.5726198968
  0
LINE
  5
296
100
AcDbEntity
  8
LAYER_FEATURE
100
AcDbLine
 62
7
  6
CONTINUOUS
 10
8.8669805834
 20
5.4250212328
 11
8.9116172762
 21
5.5726198968
  0
LINE
  5
297
100
AcDbEntity
  8
LAYER_FEATURE
100
AcDbLine
 62
7
  6
CONTINUOUS
 10
8.9116172762
 20
5.5726198968
 11
8.9116172762
 21
5.5976198968
  0
LINE
  5
298
100
AcDbEntity
  8
LAYER_FEATURE
100
AcDbLine
 62
7
  6
CONTINUOUS
 10
8.9741172762
 20
5.5976198968
 11
8.9741172762
 21
5.5726198968
  0
LINE
  5
299
100
AcDbEntity
  8
0
100
AcDbLine
 62
7
  6
CONTINUOUS
 10
9.2241172762
 20
5.5726198968
 11
9.2241172762
 21
5.6151198968
  0
LINE
  5
29A
100
AcDbEntity
  8
LAYER_FEATURE
100
AcDbLine
 62
7
  6
CONTINUOUS
 10
9.1794805834
 20
5.4250212328
 11
9.2241172762
 21
5.5726198968
  0
LINE
  5
29B
100
AcDbEntity
  8
LAYER_FEATURE
100
AcDbLine
 62
7
  6
CONTINUOUS
 10
8.9741172762
 20
5.5726198968
 11
9.0187539689
 21
5.4250212328
  0
LINE
  5
29C
100
AcDbEntity
  8
0
100
AcDbLine
 62
7
  6
CONTINUOUS
 10
2.9771220839
 20
13.6000477814
 11
2.9771220839
 21
11.6000477814
  0
LINE
  5
29D
100
AcDbEntity
  8
0
100
AcDbLine
 62
7
  6
CONTINUOUS
 10
9.1646220839
 20
11.6000477814
 11
2.9771220839
 21
11.6000477814
  0
LINE
  5
29E
100
AcDbEntity
  8
0
100
AcDbLine
 62
7
  6
CONTINUOUS
 10
2.9771220839
 20
13.6000477814
 11
9.1646220839
 21
13.6000477814
  0
LINE
  5
29F
100
AcDbEntity
  8
0
100
AcDbLine
 62
7
  6
CONTINUOUS
 10
9.1646220839
 20
11.6000477814
 11
9.1646220839
 21
13.6000477814
  0
LINE
  5
2A0
100
AcDbEntity
  8
LAYER_FEATURE
100
AcDbLine
 62
7
  6
CONTINUOUS
 10
14.5603552569
 20
5.3581247044
 11
14.5603552569
 21
5.5131247044
  0
LINE
  5
2A1
100
AcDbEntity
  8
0
100
AcDbLine
 62
7
  6
CONTINUOUS
 10
14.5603552569
 20
5.5131247044
 11
14.5603552569
 21
5.5631247044
  0
LINE
  5
2A2
100
AcDbEntity
  8
LAYER_FEATURE
100
AcDbLine
 62
7
  6
CONTINUOUS
 10
14.5603552569
 20
5.3581247044
 11
16.5603552569
 21
5.3581247044
  0
LINE
  5
2A3
100
AcDbEntity
  8
LAYER_FEATURE
100
AcDbLine
 62
7
  6
CONTINUOUS
 10
16.5603552569
 20
5.5131247044
 11
14.5603552569
 21
5.5131247044
  0
LINE
  5
2A4
100
AcDbEntity
  8
0
100
AcDbLine
 62
7
  6
CONTINUOUS
 10
14.5603552569
 20
5.5631247044
 11
16.5603552569
 21
5.5631247044
  0
LINE
  5
2A5
100
AcDbEntity
  8
0
100
AcDbLine
 62
7
  6
CONTINUOUS
 10
16.5603552569
 20
5.5631247044
 11
16.5603552569
 21
5.5131247044
  0
LINE
  5
2A6
100
AcDbEntity
  8
LAYER_FEATURE
100
AcDbLine
 62
7
  6
CONTINUOUS
 10
16.5603552569
 20
5.3581247044
 11
16.5603552569
 21
5.5131247044
  0
LINE
  5
2A7
100
AcDbEntity
  8
0
100
AcDbLine
 62
7
  6
CONTINUOUS
 10
12.3711832456
 20
11.7865310303
 11
12.384147525
 21
11.7601126066
  0
LINE
  5
2A8
100
AcDbEntity
  8
0
100
AcDbLine
 62
7
  6
CONTINUOUS
 10
12.3709263552
 20
11.7887451381
 11
12.3711832456
 21
11.7865310303
  0
LINE
  5
2A9
100
AcDbEntity
  8
0
100
AcDbLine
 62
7
  6
CONTINUOUS
 10
12.6183234289
 20
11.6683638058
 11
12.6144127735
 21
11.7601126066
  0
LINE
  5
2AA
100
AcDbEntity
  8
0
100
AcDbLine
 62
7
  6
CONTINUOUS
 10
12.384147525
 20
11.7601126066
 11
12.4702844135
 21
11.6683638058
  0
LINE
  5
2AB
100
AcDbEntity
  8
0
100
AcDbLine
 62
7
  6
CONTINUOUS
 10
12.6144127735
 20
11.7601126066
 11
12.6067867268
 21
11.7756528558
  0
LINE
  5
2AC
100
AcDbEntity
  8
LAYER_FEATURE
100
AcDbLine
 62
7
  6
CONTINUOUS
 10
12.6643530389
 20
11.7756528558
 11
12.6719790856
 21
11.7601126066
  0
LINE
  5
2AD
100
AcDbEntity
  8
LAYER_FEATURE
100
AcDbLine
 62
7
  6
CONTINUOUS
 10
12.9061549895
 20
11.6683638058
 11
12.9022443341
 21
11.7601126066
  0
LINE
  5
2AE
100
AcDbEntity
  8
0
100
AcDbLine
 62
7
  6
CONTINUOUS
 10
12.6181658018
 20
11.6671646664
 11
12.6183234289
 21
11.6683638058
  0
LINE
  5
2AF
100
AcDbEntity
  8
0
100
AcDbLine
 62
7
  6
CONTINUOUS
 10
12.8550581936
 20
13.3553992048
 11
12.3709255468
 21
11.7887453856
  0
LINE
  5
2B0
100
AcDbEntity
  8
LAYER_FEATURE
100
AcDbLine
 62
7
  6
CONTINUOUS
 10
12.6719790856
 20
11.7601126066
 11
12.7581159742
 21
11.6683638058
  0
LINE
  5
2B1
100
AcDbEntity
  8
LAYER_FEATURE
100
AcDbLine
 62
7
  6
CONTINUOUS
 10
12.9022443341
 20
11.7601126066
 11
12.8946182874
 21
11.7756528558
  0
LINE
  5
2B2
100
AcDbEntity
  8
LAYER_FEATURE
100
AcDbLine
 62
7
  6
CONTINUOUS
 10
12.9521845996
 20
11.7756528558
 11
12.9598106462
 21
11.7601126066
  0
LINE
  5
2B3
100
AcDbEntity
  8
LAYER_FEATURE
100
AcDbLine
 62
7
  6
CONTINUOUS
 10
12.9059973625
 20
11.6671646664
 11
12.9061549895
 21
11.6683638058
  0
LINE
  5
2B4
100
AcDbEntity
  8
0
100
AcDbLine
 62
7
  6
CONTINUOUS
 10
12.6192150737
 20
11.7756528558
 11
12.6144127735
 21
11.7601126066
  0
LINE
  5
2B5
100
AcDbEntity
  8
0
100
AcDbLine
 62
7
  6
CONTINUOUS
 10
12.6181723105
 20
11.6671626719
 11
12.651698313
 21
11.7756528558
  0
LINE
  5
2B6
100
AcDbEntity
  8
LAYER_FEATURE
100
AcDbLine
 62
7
  6
CONTINUOUS
 10
12.9598106462
 20
11.7601126066
 11
13.0459475348
 21
11.6683638058
  0
LINE
  5
2B7
100
AcDbEntity
  8
LAYER_FEATURE
100
AcDbLine
 62
7
  6
CONTINUOUS
 10
13.1900758947
 20
11.7601126066
 11
13.1824498481
 21
11.7756528558
  0
LINE
  5
2B8
100
AcDbEntity
  8
LAYER_FEATURE
100
AcDbLine
 62
7
  6
CONTINUOUS
 10
13.1939865501
 20
11.6683638058
 11
13.1900758947
 21
11.7601126066
  0
LINE
  5
2B9
100
AcDbEntity
  8
LAYER_FEATURE
100
AcDbLine
 62
7
  6
CONTINUOUS
 10
13.1938289231
 20
11.6671646664
 11
13.1939865501
 21
11.6683638058
  0
LINE
  5
2BA
100
AcDbEntity
  8
LAYER_FEATURE
100
AcDbLine
 62
7
  6
CONTINUOUS
 10
12.9070466343
 20
11.7756528558
 11
12.9022443341
 21
11.7601126066
  0
LINE
  5
2BB
100
AcDbEntity
  8
LAYER_FEATURE
100
AcDbLine
 62
7
  6
CONTINUOUS
 10
12.9060038712
 20
11.6671626719
 11
12.9395298737
 21
11.7756528558
  0
LINE
  5
2BC
100
AcDbEntity
  8
LAYER_FEATURE
100
AcDbLine
 62
7
  6
CONTINUOUS
 10
13.2476422069
 20
11.7601126066
 11
13.3337790954
 21
11.6683638058
  0
LINE
  5
2BD
100
AcDbEntity
  8
LAYER_FEATURE
100
AcDbLine
 62
7
  6
CONTINUOUS
 10
13.2400161602
 20
11.7756528558
 11
13.2476422069
 21
11.7601126066
  0
LINE
  5
2BE
100
AcDbEntity
  8
LAYER_FEATURE
100
AcDbLine
 62
7
  6
CONTINUOUS
 10
13.4779074554
 20
11.7601126066
 11
13.4702814087
 21
11.7756528558
  0
LINE
  5
2BF
100
AcDbEntity
  8
LAYER_FEATURE
100
AcDbLine
 62
7
  6
CONTINUOUS
 10
13.4818181107
 20
11.6683638058
 11
13.4779074554
 21
11.7601126066
  0
LINE
  5
2C0
100
AcDbEntity
  8
LAYER_FEATURE
100
AcDbLine
 62
7
  6
CONTINUOUS
 10
13.1948781949
 20
11.7756528558
 11
13.1900758947
 21
11.7601126066
  0
LINE
  5
2C1
100
AcDbEntity
  8
LAYER_FEATURE
100
AcDbLine
 62
7
  6
CONTINUOUS
 10
13.1938354318
 20
11.6671626719
 11
13.2273614343
 21
11.7756528558
  0
LINE
  5
2C2
100
AcDbEntity
  8
LAYER_FEATURE
100
AcDbLine
 62
7
  6
CONTINUOUS
 10
13.5354737675
 20
11.7601126066
 11
13.621610656
 21
11.6683638058
  0
LINE
  5
2C3
100
AcDbEntity
  8
LAYER_FEATURE
100
AcDbLine
 62
7
  6
CONTINUOUS
 10
13.5278477208
 20
11.7756528558
 11
13.5354737675
 21
11.7601126066
  0
LINE
  5
2C4
100
AcDbEntity
  8
LAYER_FEATURE
100
AcDbLine
 62
7
  6
CONTINUOUS
 10
13.7696496714
 20
11.6683638058
 11
13.765739016
 21
11.7601126066
  0
LINE
  5
2C5
100
AcDbEntity
  8
LAYER_FEATURE
100
AcDbLine
 62
7
  6
CONTINUOUS
 10
13.4816604837
 20
11.6671646664
 11
13.4818181107
 21
11.6683638058
  0
LINE
  5
2C6
100
AcDbEntity
  8
LAYER_FEATURE
100
AcDbLine
 62
7
  6
CONTINUOUS
 10
13.8233053281
 20
11.7601126066
 11
13.9094422167
 21
11.6683638058
  0
LINE
  5
2C7
100
AcDbEntity
  8
LAYER_FEATURE
100
AcDbLine
 62
7
  6
CONTINUOUS
 10
13.765739016
 20
11.7601126066
 11
13.7581129693
 21
11.7756528558
  0
LINE
  5
2C8
100
AcDbEntity
  8
LAYER_FEATURE
100
AcDbLine
 62
7
  6
CONTINUOUS
 10
13.8156792814
 20
11.7756528558
 11
13.8233053281
 21
11.7601126066
  0
LINE
  5
2C9
100
AcDbEntity
  8
LAYER_FEATURE
100
AcDbLine
 62
7
  6
CONTINUOUS
 10
13.7694920443
 20
11.6671646664
 11
13.7696496714
 21
11.6683638058
  0
LINE
  5
2CA
100
AcDbEntity
  8
LAYER_FEATURE
100
AcDbLine
 62
7
  6
CONTINUOUS
 10
13.4827097556
 20
11.7756528558
 11
13.4779074554
 21
11.7601126066
  0
LINE
  5
2CB
100
AcDbEntity
  8
LAYER_FEATURE
100
AcDbLine
 62
7
  6
CONTINUOUS
 10
13.4816669924
 20
11.6671626719
 11
13.5151929949
 21
11.7756528558
  0
LINE
  5
2CC
100
AcDbEntity
  8
LAYER_FEATURE
100
AcDbLine
 62
7
  6
CONTINUOUS
 10
14.1111368887
 20
11.7601126066
 11
14.1972737773
 21
11.6683638058
  0
LINE
  5
2CD
100
AcDbEntity
  8
LAYER_FEATURE
100
AcDbLine
 62
7
  6
CONTINUOUS
 10
14.0535705766
 20
11.7601126066
 11
14.0459445299
 21
11.7756528558
  0
LINE
  5
2CE
100
AcDbEntity
  8
LAYER_FEATURE
100
AcDbLine
 62
7
  6
CONTINUOUS
 10
14.1035108421
 20
11.7756528558
 11
14.1111368887
 21
11.7601126066
  0
LINE
  5
2CF
100
AcDbEntity
  8
LAYER_FEATURE
100
AcDbLine
 62
7
  6
CONTINUOUS
 10
14.057481232
 20
11.6683638058
 11
14.0535705766
 21
11.7601126066
  0
LINE
  5
2D0
100
AcDbEntity
  8
LAYER_FEATURE
100
AcDbLine
 62
7
  6
CONTINUOUS
 10
14.057323605
 20
11.6671646664
 11
14.057481232
 21
11.6683638058
  0
LINE
  5
2D1
100
AcDbEntity
  8
LAYER_FEATURE
100
AcDbLine
 62
7
  6
CONTINUOUS
 10
13.7705413162
 20
11.7756528558
 11
13.765739016
 21
11.7601126066
  0
LINE
  5
2D2
100
AcDbEntity
  8
LAYER_FEATURE
100
AcDbLine
 62
7
  6
CONTINUOUS
 10
13.769498553
 20
11.6671626719
 11
13.8030245555
 21
11.7756528558
  0
LINE
  5
2D3
100
AcDbEntity
  8
LAYER_FEATURE
100
AcDbLine
 62
7
  6
CONTINUOUS
 10
14.3989684494
 20
11.7601126066
 11
14.4851053379
 21
11.6683638058
  0
LINE
  5
2D4
100
AcDbEntity
  8
LAYER_FEATURE
100
AcDbLine
 62
7
  6
CONTINUOUS
 10
14.3414021372
 20
11.7601126066
 11
14.3337760906
 21
11.7756528558
  0
LINE
  5
2D5
100
AcDbEntity
  8
LAYER_FEATURE
100
AcDbLine
 62
7
  6
CONTINUOUS
 10
14.3913424027
 20
11.7756528558
 11
14.3989684494
 21
11.7601126066
  0
LINE
  5
2D6
100
AcDbEntity
  8
LAYER_FEATURE
100
AcDbLine
 62
7
  6
CONTINUOUS
 10
14.3453127926
 20
11.6683638058
 11
14.3414021372
 21
11.7601126066
  0
LINE
  5
2D7
100
AcDbEntity
  8
LAYER_FEATURE
100
AcDbLine
 62
7
  6
CONTINUOUS
 10
14.0583728768
 20
11.7756528558
 11
14.0535705766
 21
11.7601126066
  0
LINE
  5
2D8
100
AcDbEntity
  8
LAYER_FEATURE
100
AcDbLine
 62
7
  6
CONTINUOUS
 10
14.0573301137
 20
11.6671626719
 11
14.0908561162
 21
11.7756528558
  0
LINE
  5
2D9
100
AcDbEntity
  8
LAYER_FEATURE
100
AcDbLine
 62
7
  6
CONTINUOUS
 10
14.68680001
 20
11.7601126066
 11
14.7729368985
 21
11.6683638058
  0
LINE
  5
2DA
100
AcDbEntity
  8
LAYER_FEATURE
100
AcDbLine
 62
7
  6
CONTINUOUS
 10
14.6292336979
 20
11.7601126066
 11
14.6216076512
 21
11.7756528558
  0
LINE
  5
2DB
100
AcDbEntity
  8
LAYER_FEATURE
100
AcDbLine
 62
7
  6
CONTINUOUS
 10
14.6331443532
 20
11.6683638058
 11
14.6292336979
 21
11.7601126066
  0
LINE
  5
2DC
100
AcDbEntity
  8
LAYER_FEATURE
100
AcDbLine
 62
7
  6
CONTINUOUS
 10
14.3451551656
 20
11.6671646664
 11
14.3453127926
 21
11.6683638058
  0
LINE
  5
2DD
100
AcDbEntity
  8
LAYER_FEATURE
100
AcDbLine
 62
7
  6
CONTINUOUS
 10
14.3462044374
 20
11.7756528558
 11
14.3414021372
 21
11.7601126066
  0
LINE
  5
2DE
100
AcDbEntity
  8
0
100
AcDbLine
 62
7
  6
CONTINUOUS
 10
12.4817257476
 20
11.6637630615
 11
12.6113975295
 21
11.6637630615
  0
LINE
  5
2DF
100
AcDbEntity
  8
LAYER_FEATURE
100
AcDbLine
 62
7
  6
CONTINUOUS
 10
12.7695573082
 20
11.6637630615
 11
12.8992290901
 21
11.6637630615
  0
LINE
  5
2E0
100
AcDbEntity
  8
LAYER_FEATURE
100
AcDbLine
 62
7
  6
CONTINUOUS
 10
13.0573888688
 20
11.6637630615
 11
13.1870606508
 21
11.6637630615
  0
LINE
  5
2E1
100
AcDbEntity
  8
LAYER_FEATURE
100
AcDbLine
 62
7
  6
CONTINUOUS
 10
13.3452204295
 20
11.6637630615
 11
13.4748922114
 21
11.6637630615
  0
LINE
  5
2E2
100
AcDbEntity
  8
LAYER_FEATURE
100
AcDbLine
 62
7
  6
CONTINUOUS
 10
13.6330519901
 20
11.6637630615
 11
13.762723772
 21
11.6637630615
  0
LINE
  5
2E3
100
AcDbEntity
  8
LAYER_FEATURE
100
AcDbLine
 62
7
  6
CONTINUOUS
 10
13.9208835507
 20
11.6637630615
 11
14.0505553326
 21
11.6637630615
  0
LINE
  5
2E4
100
AcDbEntity
  8
LAYER_FEATURE
100
AcDbLine
 62
7
  6
CONTINUOUS
 10
14.2087151113
 20
11.6637630615
 11
14.3383868933
 21
11.6637630615
  0
LINE
  5
2E5
100
AcDbEntity
  8
LAYER_FEATURE
100
AcDbLine
 62
7
  6
CONTINUOUS
 10
14.496546672
 20
11.6637630615
 11
14.6262184539
 21
11.6637630615
  0
LINE
  5
2E6
100
AcDbEntity
  8
LAYER_FEATURE
100
AcDbLine
 62
7
  6
CONTINUOUS
 10
14.7843782326
 20
11.6637630615
 11
14.9140500145
 21
11.6637630615
  0
LINE
  5
2E7
100
AcDbEntity
  8
LAYER_FEATURE
100
AcDbLine
 62
7
  6
CONTINUOUS
 10
15.0722097932
 20
11.6637630615
 11
15.2018815751
 21
11.6637630615
  0
LINE
  5
2E8
100
AcDbEntity
  8
LAYER_FEATURE
100
AcDbLine
 62
7
  6
CONTINUOUS
 10
15.3600413539
 20
11.6637630615
 11
15.4897131358
 21
11.6637630615
  0
LINE
  5
2E9
100
AcDbEntity
  8
LAYER_FEATURE
100
AcDbLine
 62
7
  6
CONTINUOUS
 10
15.6478729145
 20
11.6637630615
 11
15.7775446964
 21
11.6637630615
  0
LINE
  5
2EA
100
AcDbEntity
  8
LAYER_FEATURE
100
AcDbLine
 62
7
  6
CONTINUOUS
 10
15.9357044751
 20
11.6637630615
 11
16.065376257
 21
11.6637630615
  0
LINE
  5
2EB
100
AcDbEntity
  8
LAYER_FEATURE
100
AcDbLine
 62
7
  6
CONTINUOUS
 10
16.2235360357
 20
11.6637630615
 11
16.3532078176
 21
11.6637630615
  0
LINE
  5
2EC
100
AcDbEntity
  8
LAYER_FEATURE
100
AcDbLine
 62
7
  6
CONTINUOUS
 10
16.5113675964
 20
11.6637630615
 11
16.6410393783
 21
11.6637630615
  0
LINE
  5
2ED
100
AcDbEntity
  8
LAYER_FEATURE
100
AcDbLine
 62
7
  6
CONTINUOUS
 10
16.799199157
 20
11.6637630615
 11
16.9288709389
 21
11.6637630615
  0
LINE
  5
2EE
100
AcDbEntity
  8
LAYER_FEATURE
100
AcDbLine
 62
7
  6
CONTINUOUS
 10
17.0870307176
 20
11.6637630615
 11
17.2167024995
 21
11.6637630615
  0
LINE
  5
2EF
100
AcDbEntity
  8
LAYER_FEATURE
100
AcDbLine
 62
7
  6
CONTINUOUS
 10
17.3748622782
 20
11.6637630615
 11
17.5045340602
 21
11.6637630615
  0
LINE
  5
2F0
100
AcDbEntity
  8
LAYER_FEATURE
100
AcDbLine
 62
7
  6
CONTINUOUS
 10
17.6626938389
 20
11.6637630615
 11
17.7923656208
 21
11.6637630615
  0
LINE
  5
2F1
100
AcDbEntity
  8
LAYER_FEATURE
100
AcDbLine
 62
7
  6
CONTINUOUS
 10
17.9505253995
 20
11.6637630615
 11
18.0801971814
 21
11.6637630615
  0
LINE
  5
2F2
100
AcDbEntity
  8
LAYER_FEATURE
100
AcDbLine
 62
7
  6
CONTINUOUS
 10
14.9746315706
 20
11.7601126066
 11
15.0607684592
 21
11.6683638058
  0
LINE
  5
2F3
100
AcDbEntity
  8
LAYER_FEATURE
100
AcDbLine
 62
7
  6
CONTINUOUS
 10
14.6791739633
 20
11.7756528558
 11
14.68680001
 21
11.7601126066
  0
LINE
  5
2F4
100
AcDbEntity
  8
LAYER_FEATURE
100
AcDbLine
 62
7
  6
CONTINUOUS
 10
14.6329867262
 20
11.6671646664
 11
14.6331443532
 21
11.6683638058
  0
LINE
  5
2F5
100
AcDbEntity
  8
LAYER_FEATURE
100
AcDbLine
 62
7
  6
CONTINUOUS
 10
14.3451616743
 20
11.6671626719
 11
14.3786876768
 21
11.7756528558
  0
LINE
  5
2F6
100
AcDbEntity
  8
LAYER_FEATURE
100
AcDbLine
 62
7
  6
CONTINUOUS
 10
12.6067867268
 20
11.7756528558
 11
12.6643530389
 21
11.7756528558
  0
LINE
  5
2F7
100
AcDbEntity
  8
LAYER_FEATURE
100
AcDbLine
 62
7
  6
CONTINUOUS
 10
12.8946182874
 20
11.7756528558
 11
12.9521845996
 21
11.7756528558
  0
LINE
  5
2F8
100
AcDbEntity
  8
LAYER_FEATURE
100
AcDbLine
 62
7
  6
CONTINUOUS
 10
13.1824498481
 20
11.7756528558
 11
13.2400161602
 21
11.7756528558
  0
LINE
  5
2F9
100
AcDbEntity
  8
LAYER_FEATURE
100
AcDbLine
 62
7
  6
CONTINUOUS
 10
13.4702814087
 20
11.7756528558
 11
13.5278477208
 21
11.7756528558
  0
LINE
  5
2FA
100
AcDbEntity
  8
LAYER_FEATURE
100
AcDbLine
 62
7
  6
CONTINUOUS
 10
13.7581129693
 20
11.7756528558
 11
13.8156792814
 21
11.7756528558
  0
LINE
  5
2FB
100
AcDbEntity
  8
LAYER_FEATURE
100
AcDbLine
 62
7
  6
CONTINUOUS
 10
14.0459445299
 20
11.7756528558
 11
14.1035108421
 21
11.7756528558
  0
LINE
  5
2FC
100
AcDbEntity
  8
LAYER_FEATURE
100
AcDbLine
 62
7
  6
CONTINUOUS
 10
14.3337760906
 20
11.7756528558
 11
14.3913424027
 21
11.7756528558
  0
LINE
  5
2FD
100
AcDbEntity
  8
LAYER_FEATURE
100
AcDbLine
 62
7
  6
CONTINUOUS
 10
14.6216076512
 20
11.7756528558
 11
14.6791739633
 21
11.7756528558
  0
LINE
  5
2FE
100
AcDbEntity
  8
LAYER_FEATURE
100
AcDbLine
 62
7
  6
CONTINUOUS
 10
14.9094392118
 20
11.7756528558
 11
14.9670055239
 21
11.7756528558
  0
LINE
  5
2FF
100
AcDbEntity
  8
LAYER_FEATURE
100
AcDbLine
 62
7
  6
CONTINUOUS
 10
15.1972707724
 20
11.7756528558
 11
15.2548370846
 21
11.7756528558
  0
LINE
  5
300
100
AcDbEntity
  8
LAYER_FEATURE
100
AcDbLine
 62
7
  6
CONTINUOUS
 10
15.4851023331
 20
11.7756528558
 11
15.5426686452
 21
11.7756528558
  0
LINE
  5
301
100
AcDbEntity
  8
LAYER_FEATURE
100
AcDbLine
 62
7
  6
CONTINUOUS
 10
15.7729338937
 20
11.7756528558
 11
15.8305002058
 21
11.7756528558
  0
LINE
  5
302
100
AcDbEntity
  8
LAYER_FEATURE
100
AcDbLine
 62
7
  6
CONTINUOUS
 10
16.0607654543
 20
11.7756528558
 11
16.1183317664
 21
11.7756528558
  0
LINE
  5
303
100
AcDbEntity
  8
LAYER_FEATURE
100
AcDbLine
 62
7
  6
CONTINUOUS
 10
16.3485970149
 20
11.7756528558
 11
16.4061633271
 21
11.7756528558
  0
LINE
  5
304
100
AcDbEntity
  8
LAYER_FEATURE
100
AcDbLine
 62
7
  6
CONTINUOUS
 10
16.6364285756
 20
11.7756528558
 11
16.6939948877
 21
11.7756528558
  0
LINE
  5
305
100
AcDbEntity
  8
LAYER_FEATURE
100
AcDbLine
 62
7
  6
CONTINUOUS
 10
16.9242601362
 20
11.7756528558
 11
16.9818264483
 21
11.7756528558
  0
LINE
  5
306
100
AcDbEntity
  8
LAYER_FEATURE
100
AcDbLine
 62
7
  6
CONTINUOUS
 10
17.2120916968
 20
11.7756528558
 11
17.2696580089
 21
11.7756528558
  0
LINE
  5
307
100
AcDbEntity
  8
LAYER_FEATURE
100
AcDbLine
 62
7
  6
CONTINUOUS
 10
17.4999232574
 20
11.7756528558
 11
17.5574895696
 21
11.7756528558
  0
LINE
  5
308
100
AcDbEntity
  8
LAYER_FEATURE
100
AcDbLine
 62
7
  6
CONTINUOUS
 10
17.7877548181
 20
11.7756528558
 11
17.8453211302
 21
11.7756528558
  0
LINE
  5
309
100
AcDbEntity
  8
0
100
AcDbLine
 62
7
  6
CONTINUOUS
 10
18.0610523746
 20
11.791193105
 11
12.3758033891
 21
11.791193105
  0
LINE
  5
30A
100
AcDbEntity
  8
LAYER_FEATURE
100
AcDbLine
 62
7
  6
CONTINUOUS
 10
15.2624631312
 20
11.7601126066
 11
15.3486000198
 21
11.6683638058
  0
LINE
  5
30B
100
AcDbEntity
  8
LAYER_FEATURE
100
AcDbLine
 62
7
  6
CONTINUOUS
 10
14.9170652585
 20
11.7601126066
 11
14.9094392118
 21
11.7756528558
  0
LINE
  5
30C
100
AcDbEntity
  8
LAYER_FEATURE
100
AcDbLine
 62
7
  6
CONTINUOUS
 10
14.9670055239
 20
11.7756528558
 11
14.9746315706
 21
11.7601126066
  0
LINE
  5
30D
100
AcDbEntity
  8
LAYER_FEATURE
100
AcDbLine
 62
7
  6
CONTINUOUS
 10
14.9209759139
 20
11.6683638058
 11
14.9170652585
 21
11.7601126066
  0
LINE
  5
30E
100
AcDbEntity
  8
LAYER_FEATURE
100
AcDbLine
 62
7
  6
CONTINUOUS
 10
14.9208182868
 20
11.6671646664
 11
14.9209759139
 21
11.6683638058
  0
LINE
  5
30F
100
AcDbEntity
  8
LAYER_FEATURE
100
AcDbLine
 62
7
  6
CONTINUOUS
 10
14.6340359981
 20
11.7756528558
 11
14.6292336979
 21
11.7601126066
  0
LINE
  5
310
100
AcDbEntity
  8
LAYER_FEATURE
100
AcDbLine
 62
7
  6
CONTINUOUS
 10
14.6329932349
 20
11.6671626719
 11
14.6665192374
 21
11.7756528558
  0
LINE
  5
311
100
AcDbEntity
  8
LAYER_FEATURE
100
AcDbLine
 62
7
  6
CONTINUOUS
 10
15.5502946919
 20
11.7601126066
 11
15.6364315804
 21
11.6683638058
  0
LINE
  5
312
100
AcDbEntity
  8
LAYER_FEATURE
100
AcDbLine
 62
7
  6
CONTINUOUS
 10
15.2048968191
 20
11.7601126066
 11
15.1972707724
 21
11.7756528558
  0
LINE
  5
313
100
AcDbEntity
  8
LAYER_FEATURE
100
AcDbLine
 62
7
  6
CONTINUOUS
 10
15.2548370846
 20
11.7756528558
 11
15.2624631312
 21
11.7601126066
  0
LINE
  5
314
100
AcDbEntity
  8
LAYER_FEATURE
100
AcDbLine
 62
7
  6
CONTINUOUS
 10
15.2088074745
 20
11.6683638058
 11
15.2048968191
 21
11.7601126066
  0
LINE
  5
315
100
AcDbEntity
  8
LAYER_FEATURE
100
AcDbLine
 62
7
  6
CONTINUOUS
 10
14.9218675587
 20
11.7756528558
 11
14.9170652585
 21
11.7601126066
  0
LINE
  5
316
100
AcDbEntity
  8
LAYER_FEATURE
100
AcDbLine
 62
7
  6
CONTINUOUS
 10
14.9208247955
 20
11.6671626719
 11
14.9543507981
 21
11.7756528558
  0
LINE
  5
317
100
AcDbEntity
  8
LAYER_FEATURE
100
AcDbLine
 62
7
  6
CONTINUOUS
 10
15.8381262525
 20
11.7601126066
 11
15.924263141
 21
11.6683638058
  0
LINE
  5
318
100
AcDbEntity
  8
LAYER_FEATURE
100
AcDbLine
 62
7
  6
CONTINUOUS
 10
15.4927283797
 20
11.7601126066
 11
15.4851023331
 21
11.7756528558
  0
LINE
  5
319
100
AcDbEntity
  8
LAYER_FEATURE
100
AcDbLine
 62
7
  6
CONTINUOUS
 10
15.5426686452
 20
11.7756528558
 11
15.5502946919
 21
11.7601126066
  0
LINE
  5
31A
100
AcDbEntity
  8
LAYER_FEATURE
100
AcDbLine
 62
7
  6
CONTINUOUS
 10
15.4966390351
 20
11.6683638058
 11
15.4927283797
 21
11.7601126066
  0
LINE
  5
31B
100
AcDbEntity
  8
LAYER_FEATURE
100
AcDbLine
 62
7
  6
CONTINUOUS
 10
15.2086504057
 20
11.6671644954
 11
15.2088074745
 21
11.6683638058
  0
LINE
  5
31C
100
AcDbEntity
  8
LAYER_FEATURE
100
AcDbLine
 62
7
  6
CONTINUOUS
 10
15.2096991193
 20
11.7756528558
 11
15.2048968191
 21
11.7601126066
  0
LINE
  5
31D
100
AcDbEntity
  8
LAYER_FEATURE
100
AcDbLine
 62
7
  6
CONTINUOUS
 10
15.2086563562
 20
11.6671626719
 11
15.2421823587
 21
11.7756528558
  0
LINE
  5
31E
100
AcDbEntity
  8
LAYER_FEATURE
100
AcDbLine
 62
7
  6
CONTINUOUS
 10
16.1259578131
 20
11.7601126066
 11
16.2120947017
 21
11.6683638058
  0
LINE
  5
31F
100
AcDbEntity
  8
LAYER_FEATURE
100
AcDbLine
 62
7
  6
CONTINUOUS
 10
15.7805599404
 20
11.7601126066
 11
15.7729338937
 21
11.7756528558
  0
LINE
  5
320
100
AcDbEntity
  8
LAYER_FEATURE
100
AcDbLine
 62
7
  6
CONTINUOUS
 10
15.8305002058
 20
11.7756528558
 11
15.8381262525
 21
11.7601126066
  0
LINE
  5
321
100
AcDbEntity
  8
LAYER_FEATURE
100
AcDbLine
 62
7
  6
CONTINUOUS
 10
15.4964814081
 20
11.6671646664
 11
15.4966390351
 21
11.6683638058
  0
LINE
  5
322
100
AcDbEntity
  8
LAYER_FEATURE
100
AcDbLine
 62
7
  6
CONTINUOUS
 10
15.49753068
 20
11.7756528558
 11
15.4927283797
 21
11.7601126066
  0
LINE
  5
323
100
AcDbEntity
  8
LAYER_FEATURE
100
AcDbLine
 62
7
  6
CONTINUOUS
 10
16.4137893737
 20
11.7601126066
 11
16.4999262623
 21
11.6683638058
  0
LINE
  5
324
100
AcDbEntity
  8
LAYER_FEATURE
100
AcDbLine
 62
7
  6
CONTINUOUS
 10
16.068391501
 20
11.7601126066
 11
16.0607654543
 21
11.7756528558
  0
LINE
  5
325
100
AcDbEntity
  8
LAYER_FEATURE
100
AcDbLine
 62
7
  6
CONTINUOUS
 10
15.7844705958
 20
11.6683638058
 11
15.7805599404
 21
11.7601126066
  0
LINE
  5
326
100
AcDbEntity
  8
LAYER_FEATURE
100
AcDbLine
 62
7
  6
CONTINUOUS
 10
15.7843129687
 20
11.6671646664
 11
15.7844705958
 21
11.6683638058
  0
LINE
  5
327
100
AcDbEntity
  8
LAYER_FEATURE
100
AcDbLine
 62
7
  6
CONTINUOUS
 10
15.4964879168
 20
11.6671626719
 11
15.5300139193
 21
11.7756528558
  0
LINE
  5
328
100
AcDbEntity
  8
LAYER_FEATURE
100
AcDbLine
 62
7
  6
CONTINUOUS
 10
16.7016209344
 20
11.7601126066
 11
16.7877578229
 21
11.6683638058
  0
LINE
  5
329
100
AcDbEntity
  8
LAYER_FEATURE
100
AcDbLine
 62
7
  6
CONTINUOUS
 10
16.1183317664
 20
11.7756528558
 11
16.1259578131
 21
11.7601126066
  0
LINE
  5
32A
100
AcDbEntity
  8
LAYER_FEATURE
100
AcDbLine
 62
7
  6
CONTINUOUS
 10
16.0723021564
 20
11.6683638058
 11
16.068391501
 21
11.7601126066
  0
LINE
  5
32B
100
AcDbEntity
  8
LAYER_FEATURE
100
AcDbLine
 62
7
  6
CONTINUOUS
 10
15.7853622406
 20
11.7756528558
 11
15.7805599404
 21
11.7601126066
  0
LINE
  5
32C
100
AcDbEntity
  8
LAYER_FEATURE
100
AcDbLine
 62
7
  6
CONTINUOUS
 10
15.7843194774
 20
11.6671626719
 11
15.8178454799
 21
11.7756528558
  0
LINE
  5
32D
100
AcDbEntity
  8
LAYER_FEATURE
100
AcDbLine
 62
7
  6
CONTINUOUS
 10
16.989452495
 20
11.7601126066
 11
17.0755893835
 21
11.6683638058
  0
LINE
  5
32E
100
AcDbEntity
  8
LAYER_FEATURE
100
AcDbLine
 62
7
  6
CONTINUOUS
 10
16.3562230616
 20
11.7601126066
 11
16.3485970149
 21
11.7756528558
  0
LINE
  5
32F
100
AcDbEntity
  8
LAYER_FEATURE
100
AcDbLine
 62
7
  6
CONTINUOUS
 10
16.4061633271
 20
11.7756528558
 11
16.4137893737
 21
11.7601126066
  0
LINE
  5
330
100
AcDbEntity
  8
LAYER_FEATURE
100
AcDbLine
 62
7
  6
CONTINUOUS
 10
16.360133717
 20
11.6683638058
 11
16.3562230616
 21
11.7601126066
  0
LINE
  5
331
100
AcDbEntity
  8
LAYER_FEATURE
100
AcDbLine
 62
7
  6
CONTINUOUS
 10
16.0721445293
 20
11.6671646664
 11
16.0723021564
 21
11.6683638058
  0
LINE
  5
332
100
AcDbEntity
  8
LAYER_FEATURE
100
AcDbLine
 62
7
  6
CONTINUOUS
 10
16.0731938012
 20
11.7756528558
 11
16.068391501
 21
11.7601126066
  0
LINE
  5
333
100
AcDbEntity
  8
LAYER_FEATURE
100
AcDbLine
 62
7
  6
CONTINUOUS
 10
16.072151038
 20
11.6671626719
 11
16.1056770406
 21
11.7756528558
  0
LINE
  5
334
100
AcDbEntity
  8
0
100
AcDbLine
 62
7
  6
CONTINUOUS
 10
12.8599360359
 20
13.3578469243
 11
18.5451850214
 21
13.3578469243
  0
LINE
  5
335
100
AcDbEntity
  8
LAYER_FEATURE
100
AcDbLine
 62
7
  6
CONTINUOUS
 10
17.2772840556
 20
11.7601126066
 11
17.3634209442
 21
11.6683638058
  0
LINE
  5
336
100
AcDbEntity
  8
LAYER_FEATURE
100
AcDbLine
 62
7
  6
CONTINUOUS
 10
16.6440546222
 20
11.7601126066
 11
16.6364285756
 21
11.7756528558
  0
LINE
  5
337
100
AcDbEntity
  8
LAYER_FEATURE
100
AcDbLine
 62
7
  6
CONTINUOUS
 10
16.6939948877
 20
11.7756528558
 11
16.7016209344
 21
11.7601126066
  0
LINE
  5
338
100
AcDbEntity
  8
LAYER_FEATURE
100
AcDbLine
 62
7
  6
CONTINUOUS
 10
16.35997609
 20
11.6671646664
 11
16.360133717
 21
11.6683638058
  0
LINE
  5
339
100
AcDbEntity
  8
LAYER_FEATURE
100
AcDbLine
 62
7
  6
CONTINUOUS
 10
16.3610253618
 20
11.7756528558
 11
16.3562230616
 21
11.7601126066
  0
LINE
  5
33A
100
AcDbEntity
  8
LAYER_FEATURE
100
AcDbLine
 62
7
  6
CONTINUOUS
 10
16.3599825987
 20
11.6671626719
 11
16.3935086012
 21
11.7756528558
  0
LINE
  5
33B
100
AcDbEntity
  8
LAYER_FEATURE
100
AcDbLine
 62
7
  6
CONTINUOUS
 10
17.5651156162
 20
11.7601126066
 11
17.6512525048
 21
11.6683638058
  0
LINE
  5
33C
100
AcDbEntity
  8
LAYER_FEATURE
100
AcDbLine
 62
7
  6
CONTINUOUS
 10
16.9318861829
 20
11.7601126066
 11
16.9242601362
 21
11.7756528558
  0
LINE
  5
33D
100
AcDbEntity
  8
LAYER_FEATURE
100
AcDbLine
 62
7
  6
CONTINUOUS
 10
16.9818264483
 20
11.7756528558
 11
16.989452495
 21
11.7601126066
  0
LINE
  5
33E
100
AcDbEntity
  8
LAYER_FEATURE
100
AcDbLine
 62
7
  6
CONTINUOUS
 10
16.6479652776
 20
11.6683638058
 11
16.6440546222
 21
11.7601126066
  0
LINE
  5
33F
100
AcDbEntity
  8
LAYER_FEATURE
100
AcDbLine
 62
7
  6
CONTINUOUS
 10
16.6478076506
 20
11.6671646664
 11
16.6479652776
 21
11.6683638058
  0
LINE
  5
340
100
AcDbEntity
  8
LAYER_FEATURE
100
AcDbLine
 62
7
  6
CONTINUOUS
 10
17.8529471769
 20
11.7601126066
 11
17.9390840654
 21
11.6683638058
  0
LINE
  5
341
100
AcDbEntity
  8
LAYER_FEATURE
100
AcDbLine
 62
7
  6
CONTINUOUS
 10
17.2197177435
 20
11.7601126066
 11
17.2120916968
 21
11.7756528558
  0
LINE
  5
342
100
AcDbEntity
  8
LAYER_FEATURE
100
AcDbLine
 62
7
  6
CONTINUOUS
 10
17.2696580089
 20
11.7756528558
 11
17.2772840556
 21
11.7601126066
  0
LINE
  5
343
100
AcDbEntity
  8
LAYER_FEATURE
100
AcDbLine
 62
7
  6
CONTINUOUS
 10
16.9357968383
 20
11.6683638058
 11
16.9318861829
 21
11.7601126066
  0
LINE
  5
344
100
AcDbEntity
  8
LAYER_FEATURE
100
AcDbLine
 62
7
  6
CONTINUOUS
 10
16.6488569225
 20
11.7756528558
 11
16.6440546222
 21
11.7601126066
  0
LINE
  5
345
100
AcDbEntity
  8
LAYER_FEATURE
100
AcDbLine
 62
7
  6
CONTINUOUS
 10
16.6478141593
 20
11.6671626719
 11
16.6813401618
 21
11.7756528558
  0
LINE
  5
346
100
AcDbEntity
  8
LAYER_FEATURE
100
AcDbLine
 62
7
  6
CONTINUOUS
 10
17.5075493041
 20
11.7601126066
 11
17.4999232574
 21
11.7756528558
  0
LINE
  5
347
100
AcDbEntity
  8
LAYER_FEATURE
100
AcDbLine
 62
7
  6
CONTINUOUS
 10
17.2236283989
 20
11.6683638058
 11
17.2197177435
 21
11.7601126066
  0
LINE
  5
348
100
AcDbEntity
  8
LAYER_FEATURE
100
AcDbLine
 62
7
  6
CONTINUOUS
 10
16.9356392112
 20
11.6671646664
 11
16.9357968383
 21
11.6683638058
  0
LINE
  5
349
100
AcDbEntity
  8
LAYER_FEATURE
100
AcDbLine
 62
7
  6
CONTINUOUS
 10
16.9366884831
 20
11.7756528558
 11
16.9318861829
 21
11.7601126066
  0
LINE
  5
34A
100
AcDbEntity
  8
LAYER_FEATURE
100
AcDbLine
 62
7
  6
CONTINUOUS
 10
16.9356457199
 20
11.6671626719
 11
16.9691717224
 21
11.7756528558
  0
LINE
  5
34B
100
AcDbEntity
  8
LAYER_FEATURE
100
AcDbLine
 62
7
  6
CONTINUOUS
 10
17.5574895696
 20
11.7756528558
 11
17.5651156162
 21
11.7601126066
  0
LINE
  5
34C
100
AcDbEntity
  8
LAYER_FEATURE
100
AcDbLine
 62
7
  6
CONTINUOUS
 10
17.2234707718
 20
11.6671646664
 11
17.2236283989
 21
11.6683638058
  0
LINE
  5
34D
100
AcDbEntity
  8
LAYER_FEATURE
100
AcDbLine
 62
7
  6
CONTINUOUS
 10
17.2245200437
 20
11.7756528558
 11
17.2197177435
 21
11.7601126066
  0
LINE
  5
34E
100
AcDbEntity
  8
LAYER_FEATURE
100
AcDbLine
 62
7
  6
CONTINUOUS
 10
17.2234772805
 20
11.6671626719
 11
17.2570032831
 21
11.7756528558
  0
LINE
  5
34F
100
AcDbEntity
  8
LAYER_FEATURE
100
AcDbLine
 62
7
  6
CONTINUOUS
 10
17.7953808647
 20
11.7601126066
 11
17.7877548181
 21
11.7756528558
  0
LINE
  5
350
100
AcDbEntity
  8
LAYER_FEATURE
100
AcDbLine
 62
7
  6
CONTINUOUS
 10
17.8453211302
 20
11.7756528558
 11
17.8529471769
 21
11.7601126066
  0
LINE
  5
351
100
AcDbEntity
  8
LAYER_FEATURE
100
AcDbLine
 62
7
  6
CONTINUOUS
 10
17.5114599595
 20
11.6683638058
 11
17.5075493041
 21
11.7601126066
  0
LINE
  5
352
100
AcDbEntity
  8
LAYER_FEATURE
100
AcDbLine
 62
7
  6
CONTINUOUS
 10
17.5113023325
 20
11.6671646664
 11
17.5114599595
 21
11.6683638058
  0
LINE
  5
353
100
AcDbEntity
  8
LAYER_FEATURE
100
AcDbLine
 62
7
  6
CONTINUOUS
 10
17.5123516043
 20
11.7756528558
 11
17.5075493041
 21
11.7601126066
  0
LINE
  5
354
100
AcDbEntity
  8
0
100
AcDbLine
 62
7
  6
CONTINUOUS
 10
18.0832124254
 20
11.7601126066
 11
18.070248146
 21
11.7865310303
  0
LINE
  5
355
100
AcDbEntity
  8
LAYER_FEATURE
100
AcDbLine
 62
7
  6
CONTINUOUS
 10
17.7992915201
 20
11.6683638058
 11
17.7953808647
 21
11.7601126066
  0
LINE
  5
356
100
AcDbEntity
  8
LAYER_FEATURE
100
AcDbLine
 62
7
  6
CONTINUOUS
 10
17.5113088412
 20
11.6671626719
 11
17.5448348437
 21
11.7756528558
  0
LINE
  5
357
100
AcDbEntity
  8
LAYER_FEATURE
100
AcDbLine
 62
7
  6
CONTINUOUS
 10
18.0871230808
 20
11.6683638058
 11
18.0832124254
 21
11.7601126066
  0
LINE
  5
358
100
AcDbEntity
  8
LAYER_FEATURE
100
AcDbLine
 62
7
  6
CONTINUOUS
 10
17.7991338931
 20
11.6671646664
 11
17.7992915201
 21
11.6683638058
  0
LINE
  5
359
100
AcDbEntity
  8
LAYER_FEATURE
100
AcDbLine
 62
7
  6
CONTINUOUS
 10
17.800183165
 20
11.7756528558
 11
17.7953808647
 21
11.7601126066
  0
LINE
  5
35A
100
AcDbEntity
  8
LAYER_FEATURE
100
AcDbLine
 62
7
  6
CONTINUOUS
 10
17.7991404018
 20
11.6671626719
 11
17.8326664043
 21
11.7756528558
  0
LINE
  5
35B
100
AcDbEntity
  8
LAYER_FEATURE
100
AcDbLine
 62
7
  6
CONTINUOUS
 10
18.0869654537
 20
11.6671646664
 11
18.0871230808
 21
11.6683638058
  0
LINE
  5
35C
100
AcDbEntity
  8
LAYER_FEATURE
100
AcDbLine
 62
7
  6
CONTINUOUS
 10
18.5673450722
 20
13.3267664259
 11
18.0832124254
 21
11.7601126066
  0
LINE
  5
35D
100
AcDbEntity
  8
LAYER_FEATURE
100
AcDbLine
 62
7
  6
CONTINUOUS
 10
18.0869719624
 20
11.6671626719
 11
18.5711046092
 21
13.2338164912
  0
LINE
  5
35E
100
AcDbEntity
  8
LAYER_FEATURE
100
AcDbLine
 62
7
  6
CONTINUOUS
 10
18.5712557276
 20
13.235017625
 11
18.5673450722
 21
13.3267664259
  0
LINE
  5
35F
100
AcDbEntity
  8
LAYER_FEATURE
100
AcDbLine
 62
7
  6
CONTINUOUS
 10
18.5712557276
 20
13.235017625
 11
18.5710981005
 21
13.2338184856
  0
LINE
  5
360
100
AcDbEntity
  8
0
100
AcDbLine
 62
7
  6
CONTINUOUS
 10
18.5543807928
 20
13.3531848495
 11
18.5673450722
 21
13.3267664259
  0
ARC
  5
361
100
AcDbEntity
  8
0
100
AcDbCircle
 62
7
  6
CONTINUOUS
 10
3.0912246622
 20
5.4280365634
 40
0.0104166667
100
AcDbArc
 50
196.8263326308
 51
270.0
  0
ARC
  5
362
100
AcDbEntity
  8
0
100
AcDbCircle
 62
7
  6
CONTINUOUS
 10
3.2320098901
 20
5.4280365634
 40
0.0104166667
100
AcDbArc
 50
270.0
 51
343.1736673692
  0
ARC
  5
363
100
AcDbEntity
  8
LAYER_FEATURE
100
AcDbCircle
 62
7
  6
CONTINUOUS
 10
3.4037246622
 20
5.4280365634
 40
0.0104166667
100
AcDbArc
 50
196.8263326308
 51
270.0
  0
ARC
  5
364
100
AcDbEntity
  8
LAYER_FEATURE
100
AcDbCircle
 62
7
  6
CONTINUOUS
 10
3.5445098901
 20
5.4280365634
 40
0.0104166667
100
AcDbArc
 50
270.0
 51
343.1736673692
  0
ARC
  5
365
100
AcDbEntity
  8
LAYER_FEATURE
100
AcDbCircle
 62
7
  6
CONTINUOUS
 10
3.7162246622
 20
5.4280365634
 40
0.0104166667
100
AcDbArc
 50
196.8263326308
 51
270.0
  0
ARC
  5
366
100
AcDbEntity
  8
LAYER_FEATURE
100
AcDbCircle
 62
7
  6
CONTINUOUS
 10
3.8570098901
 20
5.4280365634
 40
0.0104166667
100
AcDbArc
 50
270.0
 51
343.1736673692
  0
ARC
  5
367
100
AcDbEntity
  8
LAYER_FEATURE
100
AcDbCircle
 62
7
  6
CONTINUOUS
 10
4.0287246622
 20
5.4280365634
 40
0.0104166667
100
AcDbArc
 50
196.8263326308
 51
270.0
  0
ARC
  5
368
100
AcDbEntity
  8
LAYER_FEATURE
100
AcDbCircle
 62
7
  6
CONTINUOUS
 10
4.1695098901
 20
5.4280365634
 40
0.0104166667
100
AcDbArc
 50
270.0
 51
343.1736673692
  0
ARC
  5
369
100
AcDbEntity
  8
LAYER_FEATURE
100
AcDbCircle
 62
7
  6
CONTINUOUS
 10
4.3412246622
 20
5.4280365634
 40
0.0104166667
100
AcDbArc
 50
196.8263326308
 51
270.0
  0
ARC
  5
36A
100
AcDbEntity
  8
LAYER_FEATURE
100
AcDbCircle
 62
7
  6
CONTINUOUS
 10
4.4820098901
 20
5.4280365634
 40
0.0104166667
100
AcDbArc
 50
270.0
 51
343.1736673692
  0
ARC
  5
36B
100
AcDbEntity
  8
LAYER_FEATURE
100
AcDbCircle
 62
7
  6
CONTINUOUS
 10
4.6537246622
 20
5.4280365634
 40
0.0104166667
100
AcDbArc
 50
196.8263326308
 51
270.0
  0
ARC
  5
36C
100
AcDbEntity
  8
LAYER_FEATURE
100
AcDbCircle
 62
7
  6
CONTINUOUS
 10
4.7945098901
 20
5.4280365634
 40
0.0104166667
100
AcDbArc
 50
270.0
 51
343.1736673692
  0
ARC
  5
36D
100
AcDbEntity
  8
LAYER_FEATURE
100
AcDbCircle
 62
7
  6
CONTINUOUS
 10
4.9662246622
 20
5.4280365634
 40
0.0104166667
100
AcDbArc
 50
196.8263326308
 51
270.0
  0
ARC
  5
36E
100
AcDbEntity
  8
LAYER_FEATURE
100
AcDbCircle
 62
7
  6
CONTINUOUS
 10
5.1070098901
 20
5.4280365634
 40
0.0104166667
100
AcDbArc
 50
270.0
 51
343.1736673692
  0
ARC
  5
36F
100
AcDbEntity
  8
LAYER_FEATURE
100
AcDbCircle
 62
7
  6
CONTINUOUS
 10
5.2787246622
 20
5.4280365634
 40
0.0104166667
100
AcDbArc
 50
196.8263326308
 51
270.0
  0
ARC
  5
370
100
AcDbEntity
  8
LAYER_FEATURE
100
AcDbCircle
 62
7
  6
CONTINUOUS
 10
5.4195098901
 20
5.4280365634
 40
0.0104166667
100
AcDbArc
 50
270.0
 51
343.1736673692
  0
ARC
  5
371
100
AcDbEntity
  8
LAYER_FEATURE
100
AcDbCircle
 62
7
  6
CONTINUOUS
 10
5.5912246622
 20
5.4280365634
 40
0.0104166667
100
AcDbArc
 50
196.8263326308
 51
270.0
  0
ARC
  5
372
100
AcDbEntity
  8
LAYER_FEATURE
100
AcDbCircle
 62
7
  6
CONTINUOUS
 10
5.7320098901
 20
5.4280365634
 40
0.0104166667
100
AcDbArc
 50
270.0
 51
343.1736673692
  0
ARC
  5
373
100
AcDbEntity
  8
LAYER_FEATURE
100
AcDbCircle
 62
7
  6
CONTINUOUS
 10
5.9037246622
 20
5.4280365634
 40
0.0104166667
100
AcDbArc
 50
196.8263326308
 51
270.0
  0
ARC
  5
374
100
AcDbEntity
  8
LAYER_FEATURE
100
AcDbCircle
 62
7
  6
CONTINUOUS
 10
6.0445098901
 20
5.4280365634
 40
0.0104166667
100
AcDbArc
 50
270.0
 51
343.1736673692
  0
ARC
  5
375
100
AcDbEntity
  8
0
100
AcDbCircle
 62
7
  6
CONTINUOUS
 10
3.0441172762
 20
5.6151198968
 40
0.0075
100
AcDbArc
 50
90.0
 51
180.0
  0
ARC
  5
376
100
AcDbEntity
  8
LAYER_FEATURE
100
AcDbCircle
 62
7
  6
CONTINUOUS
 10
6.2162246622
 20
5.4280365634
 40
0.0104166667
100
AcDbArc
 50
196.8263326308
 51
270.0
  0
ARC
  5
377
100
AcDbEntity
  8
LAYER_FEATURE
100
AcDbCircle
 62
7
  6
CONTINUOUS
 10
6.3570098901
 20
5.4280365634
 40
0.0104166667
100
AcDbArc
 50
270.0
 51
343.1736673692
  0
ARC
  5
378
100
AcDbEntity
  8
LAYER_FEATURE
100
AcDbCircle
 62
7
  6
CONTINUOUS
 10
6.5287246622
 20
5.4280365634
 40
0.0104166667
100
AcDbArc
 50
196.8263326308
 51
270.0
  0
ARC
  5
379
100
AcDbEntity
  8
LAYER_FEATURE
100
AcDbCircle
 62
7
  6
CONTINUOUS
 10
6.6695098901
 20
5.4280365634
 40
0.0104166667
100
AcDbArc
 50
270.0
 51
343.1736673692
  0
ARC
  5
37A
100
AcDbEntity
  8
LAYER_FEATURE
100
AcDbCircle
 62
7
  6
CONTINUOUS
 10
6.8412246622
 20
5.4280365634
 40
0.0104166667
100
AcDbArc
 50
196.8263326308
 51
270.0
  0
ARC
  5
37B
100
AcDbEntity
  8
LAYER_FEATURE
100
AcDbCircle
 62
7
  6
CONTINUOUS
 10
6.9820098901
 20
5.4280365634
 40
0.0104166667
100
AcDbArc
 50
270.0
 51
343.1736673692
  0
ARC
  5
37C
100
AcDbEntity
  8
LAYER_FEATURE
100
AcDbCircle
 62
7
  6
CONTINUOUS
 10
7.1537246622
 20
5.4280365634
 40
0.0104166667
100
AcDbArc
 50
196.8263326308
 51
270.0
  0
ARC
  5
37D
100
AcDbEntity
  8
LAYER_FEATURE
100
AcDbCircle
 62
7
  6
CONTINUOUS
 10
7.2945098901
 20
5.4280365634
 40
0.0104166667
100
AcDbArc
 50
270.0
 51
343.1736673692
  0
ARC
  5
37E
100
AcDbEntity
  8
LAYER_FEATURE
100
AcDbCircle
 62
7
  6
CONTINUOUS
 10
7.4662246622
 20
5.4280365634
 40
0.0104166667
100
AcDbArc
 50
196.8263326308
 51
270.0
  0
ARC
  5
37F
100
AcDbEntity
  8
LAYER_FEATURE
100
AcDbCircle
 62
7
  6
CONTINUOUS
 10
7.6070098901
 20
5.4280365634
 40
0.0104166667
100
AcDbArc
 50
270.0
 51
343.1736673692
  0
ARC
  5
380
100
AcDbEntity
  8
LAYER_FEATURE
100
AcDbCircle
 62
7
  6
CONTINUOUS
 10
7.7787246622
 20
5.4280365634
 40
0.0104166667
100
AcDbArc
 50
196.8263326308
 51
270.0
  0
ARC
  5
381
100
AcDbEntity
  8
LAYER_FEATURE
100
AcDbCircle
 62
7
  6
CONTINUOUS
 10
7.9195098901
 20
5.4280365634
 40
0.0104166667
100
AcDbArc
 50
270.0
 51
343.1736673692
  0
ARC
  5
382
100
AcDbEntity
  8
LAYER_FEATURE
100
AcDbCircle
 62
7
  6
CONTINUOUS
 10
8.0912246622
 20
5.4280365634
 40
0.0104166667
100
AcDbArc
 50
196.8263326308
 51
270.0
  0
ARC
  5
383
100
AcDbEntity
  8
LAYER_FEATURE
100
AcDbCircle
 62
7
  6
CONTINUOUS
 10
8.2320098901
 20
5.4280365634
 40
0.0104166667
100
AcDbArc
 50
270.0
 51
343.1736673692
  0
ARC
  5
384
100
AcDbEntity
  8
LAYER_FEATURE
100
AcDbCircle
 62
7
  6
CONTINUOUS
 10
9.1695098901
 20
5.4280365634
 40
0.0104166667
100
AcDbArc
 50
270.0
 51
343.1736673692
  0
ARC
  5
385
100
AcDbEntity
  8
LAYER_FEATURE
100
AcDbCircle
 62
7
  6
CONTINUOUS
 10
9.0287246622
 20
5.4280365634
 40
0.0104166667
100
AcDbArc
 50
196.8263326308
 51
270.0
  0
ARC
  5
386
100
AcDbEntity
  8
LAYER_FEATURE
100
AcDbCircle
 62
7
  6
CONTINUOUS
 10
8.8570098901
 20
5.4280365634
 40
0.0104166667
100
AcDbArc
 50
270.0
 51
343.1736673692
  0
ARC
  5
387
100
AcDbEntity
  8
LAYER_FEATURE
100
AcDbCircle
 62
7
  6
CONTINUOUS
 10
8.7162246622
 20
5.4280365634
 40
0.0104166667
100
AcDbArc
 50
196.8263326308
 51
270.0
  0
ARC
  5
388
100
AcDbEntity
  8
LAYER_FEATURE
100
AcDbCircle
 62
7
  6
CONTINUOUS
 10
8.5445098901
 20
5.4280365634
 40
0.0104166667
100
AcDbArc
 50
270.0
 51
343.1736673692
  0
ARC
  5
389
100
AcDbEntity
  8
LAYER_FEATURE
100
AcDbCircle
 62
7
  6
CONTINUOUS
 10
8.4037246622
 20
5.4280365634
 40
0.0104166667
100
AcDbArc
 50
196.8263326308
 51
270.0
  0
ARC
  5
38A
100
AcDbEntity
  8
0
100
AcDbCircle
 62
7
  6
CONTINUOUS
 10
9.2166172762
 20
5.6151198968
 40
0.0075
100
AcDbArc
 50
0.0
 51
90.0
  0
SPLINE
  5
38B
100
AcDbEntity
  8
0
100
AcDbSpline
 62
7
  6
CONTINUOUS
 70
0
 71
3
 72
11
 73
7
 74
0
 42
0.0000001
 43
0.0000001
 44
0.0000000001
 40
0.0
 40
0.0
 40
0.0
 40
0.0
 40
0.2644444522
 40
0.5366447956
 40
0.7886683147
 40
1.0
 40
1.0
 40
1.0
 40
1.0
 10
18.5451850214
 20
13.3578469243
 30
0.0
 10
18.5461306802
 20
13.3578469243
 30
0.0
 10
18.5480528193
 20
13.3575845423
 30
0.0
 10
18.550723771
 20
13.3566113828
 30
0.0
 10
18.5529430321
 20
13.3551603698
 30
0.0
 10
18.5540478631
 20
13.3538632891
 30
0.0
 10
18.5543807928
 20
13.3531848495
 30
0.0
  0
SPLINE
  5
38C
100
AcDbEntity
  8
0
100
AcDbSpline
 62
7
  6
CONTINUOUS
 70
0
 71
3
 72
11
 73
7
 74
0
 42
0.0000001
 43
0.0000001
 44
0.0000000001
 40
0.0
 40
0.0
 40
0.0
 40
0.0
 40
0.2022595964
 40
0.4301234434
 40
0.6973865799
 40
1.0
 40
1.0
 40
1.0
 40
1.0
 10
12.855058759
 20
13.355399032
 30
0.0
 10
12.8551723673
 20
13.3557730307
 30
0.0
 10
12.8556240339
 20
13.356511922
 30
0.0
 10
12.8567588167
 20
13.3572887482
 30
0.0
 10
12.8582463854
 20
13.3577495374
 30
0.0
 10
12.8593512257
 20
13.3578469243
 30
0.0
 10
12.8599360359
 20
13.3578469243
 30
0.0
  0
SPLINE
  5
38D
100
AcDbEntity
  8
LAYER_FEATURE
100
AcDbSpline
 62
7
  6
CONTINUOUS
 70
0
 71
3
 72
11
 73
7
 74
0
 42
0.0000001
 43
0.0000001
 44
0.0000000001
 40
0.0
 40
0.0
 40
0.0
 40
0.0
 40
0.3031989198
 40
0.5698064717
 40
0.7975221248
 40
1.0
 40
1.0
 40
1.0
 40
1.0
 10
18.0801971814
 20
11.6637630615
 30
0.0
 10
18.0810109703
 20
11.6637630615
 30
0.0
 10
18.0825459261
 20
11.663894972
 30
0.0
 10
18.0846096691
 20
11.6645389425
 30
0.0
 10
18.0861858607
 20
11.66561649
 30
0.0
 10
18.0868090088
 20
11.6666442007
 30
0.0
 10
18.086969877
 20
11.6671632982
 30
0.0
  0
SPLINE
  5
38E
100
AcDbEntity
  8
LAYER_FEATURE
100
AcDbSpline
 62
7
  6
CONTINUOUS
 70
0
 71
3
 72
11
 73
7
 74
0
 42
0.0000001
 43
0.0000001
 44
0.0000000001
 40
0.0
 40
0.0
 40
0.0
 40
0.0
 40
0.2303535243
 40
0.4849227465
 40
0.7474881959
 40
1.0
 40
1.0
 40
1.0
 40
1.0
 10
17.9390840654
 20
11.6683638058
 30
0.0
 10
17.9397473064
 20
11.6676573539
 30
0.0
 10
17.9413593987
 20
11.6663705846
 30
0.0
 10
17.9441750031
 20
11.6649337251
 30
0.0
 10
17.9472933998
 20
11.6640037208
 30
0.0
 10
17.9494631879
 20
11.6637630615
 30
0.0
 10
17.9505253995
 20
11.6637630615
 30
0.0
  0
SPLINE
  5
38F
100
AcDbEntity
  8
LAYER_FEATURE
100
AcDbSpline
 62
7
  6
CONTINUOUS
 70
0
 71
3
 72
11
 73
7
 74
0
 42
0.0000001
 43
0.0000001
 44
0.0000000001
 40
0.0
 40
0.0
 40
0.0
 40
0.0
 40
0.3031989198
 40
0.5698064717
 40
0.7975221248
 40
1.0
 40
1.0
 40
1.0
 40
1.0
 10
17.7923656208
 20
11.6637630615
 30
0.0
 10
17.7931794097
 20
11.6637630615
 30
0.0
 10
17.7947143655
 20
11.663894972
 30
0.0
 10
17.7967781085
 20
11.6645389425
 30
0.0
 10
17.7983543
 20
11.66561649
 30
0.0
 10
17.7989774482
 20
11.6666442007
 30
0.0
 10
17.7991383163
 20
11.6671632982
 30
0.0
  0
SPLINE
  5
390
100
AcDbEntity
  8
LAYER_FEATURE
100
AcDbSpline
 62
7
  6
CONTINUOUS
 70
0
 71
3
 72
11
 73
7
 74
0
 42
0.0000001
 43
0.0000001
 44
0.0000000001
 40
0.0
 40
0.0
 40
0.0
 40
0.0
 40
0.2303535243
 40
0.4849227465
 40
0.7474881959
 40
1.0
 40
1.0
 40
1.0
 40
1.0
 10
17.6512525048
 20
11.6683638058
 30
0.0
 10
17.6519157458
 20
11.6676573539
 30
0.0
 10
17.6535278381
 20
11.6663705846
 30
0.0
 10
17.6563434425
 20
11.6649337251
 30
0.0
 10
17.6594618391
 20
11.6640037208
 30
0.0
 10
17.6616316272
 20
11.6637630615
 30
0.0
 10
17.6626938389
 20
11.6637630615
 30
0.0
  0
SPLINE
  5
391
100
AcDbEntity
  8
LAYER_FEATURE
100
AcDbSpline
 62
7
  6
CONTINUOUS
 70
0
 71
3
 72
11
 73
7
 74
0
 42
0.0000001
 43
0.0000001
 44
0.0000000001
 40
0.0
 40
0.0
 40
0.0
 40
0.0
 40
0.3031989198
 40
0.5698064717
 40
0.7975221248
 40
1.0
 40
1.0
 40
1.0
 40
1.0
 10
17.5045340602
 20
11.6637630615
 30
0.0
 10
17.505347849
 20
11.6637630615
 30
0.0
 10
17.5068828049
 20
11.663894972
 30
0.0
 10
17.5089465479
 20
11.6645389425
 30
0.0
 10
17.5105227394
 20
11.66561649
 30
0.0
 10
17.5111458876
 20
11.6666442007
 30
0.0
 10
17.5113067557
 20
11.6671632982
 30
0.0
  0
SPLINE
  5
392
100
AcDbEntity
  8
LAYER_FEATURE
100
AcDbSpline
 62
7
  6
CONTINUOUS
 70
0
 71
3
 72
11
 73
7
 74
0
 42
0.0000001
 43
0.0000001
 44
0.0000000001
 40
0.0
 40
0.0
 40
0.0
 40
0.0
 40
0.2303535243
 40
0.4849227465
 40
0.7474881959
 40
1.0
 40
1.0
 40
1.0
 40
1.0
 10
17.3634209442
 20
11.6683638058
 30
0.0
 10
17.3640841852
 20
11.6676573539
 30
0.0
 10
17.3656962775
 20
11.6663705846
 30
0.0
 10
17.3685118818
 20
11.6649337251
 30
0.0
 10
17.3716302785
 20
11.6640037208
 30
0.0
 10
17.3738000666
 20
11.6637630615
 30
0.0
 10
17.3748622782
 20
11.6637630615
 30
0.0
  0
SPLINE
  5
393
100
AcDbEntity
  8
LAYER_FEATURE
100
AcDbSpline
 62
7
  6
CONTINUOUS
 70
0
 71
3
 72
11
 73
7
 74
0
 42
0.0000001
 43
0.0000001
 44
0.0000000001
 40
0.0
 40
0.0
 40
0.0
 40
0.0
 40
0.3031989198
 40
0.5698064717
 40
0.7975221248
 40
1.0
 40
1.0
 40
1.0
 40
1.0
 10
17.2167024995
 20
11.6637630615
 30
0.0
 10
17.2175162884
 20
11.6637630615
 30
0.0
 10
17.2190512442
 20
11.663894972
 30
0.0
 10
17.2211149872
 20
11.6645389425
 30
0.0
 10
17.2226911788
 20
11.66561649
 30
0.0
 10
17.223314327
 20
11.6666442007
 30
0.0
 10
17.2234751951
 20
11.6671632982
 30
0.0
  0
SPLINE
  5
394
100
AcDbEntity
  8
LAYER_FEATURE
100
AcDbSpline
 62
7
  6
CONTINUOUS
 70
0
 71
3
 72
11
 73
7
 74
0
 42
0.0000001
 43
0.0000001
 44
0.0000000001
 40
0.0
 40
0.0
 40
0.0
 40
0.0
 40
0.2303535243
 40
0.4849227465
 40
0.7474881959
 40
1.0
 40
1.0
 40
1.0
 40
1.0
 10
17.0755893835
 20
11.6683638058
 30
0.0
 10
17.0762526246
 20
11.6676573539
 30
0.0
 10
17.0778647168
 20
11.6663705846
 30
0.0
 10
17.0806803212
 20
11.6649337251
 30
0.0
 10
17.0837987179
 20
11.6640037208
 30
0.0
 10
17.085968506
 20
11.6637630615
 30
0.0
 10
17.0870307176
 20
11.6637630615
 30
0.0
  0
SPLINE
  5
395
100
AcDbEntity
  8
LAYER_FEATURE
100
AcDbSpline
 62
7
  6
CONTINUOUS
 70
0
 71
3
 72
11
 73
7
 74
0
 42
0.0000001
 43
0.0000001
 44
0.0000000001
 40
0.0
 40
0.0
 40
0.0
 40
0.0
 40
0.3031989198
 40
0.5698064717
 40
0.7975221248
 40
1.0
 40
1.0
 40
1.0
 40
1.0
 10
16.9288709389
 20
11.6637630615
 30
0.0
 10
16.9296847278
 20
11.6637630615
 30
0.0
 10
16.9312196836
 20
11.663894972
 30
0.0
 10
16.9332834266
 20
11.6645389425
 30
0.0
 10
16.9348596182
 20
11.66561649
 30
0.0
 10
16.9354827663
 20
11.6666442007
 30
0.0
 10
16.9356436345
 20
11.6671632982
 30
0.0
  0
SPLINE
  5
396
100
AcDbEntity
  8
LAYER_FEATURE
100
AcDbSpline
 62
7
  6
CONTINUOUS
 70
0
 71
3
 72
11
 73
7
 74
0
 42
0.0000001
 43
0.0000001
 44
0.0000000001
 40
0.0
 40
0.0
 40
0.0
 40
0.0
 40
0.2303535243
 40
0.4849227465
 40
0.7474881959
 40
1.0
 40
1.0
 40
1.0
 40
1.0
 10
16.7877578229
 20
11.6683638058
 30
0.0
 10
16.7884210639
 20
11.6676573539
 30
0.0
 10
16.7900331562
 20
11.6663705846
 30
0.0
 10
16.7928487606
 20
11.6649337251
 30
0.0
 10
16.7959671573
 20
11.6640037208
 30
0.0
 10
16.7981369454
 20
11.6637630615
 30
0.0
 10
16.799199157
 20
11.6637630615
 30
0.0
  0
SPLINE
  5
397
100
AcDbEntity
  8
LAYER_FEATURE
100
AcDbSpline
 62
7
  6
CONTINUOUS
 70
0
 71
3
 72
11
 73
7
 74
0
 42
0.0000001
 43
0.0000001
 44
0.0000000001
 40
0.0
 40
0.0
 40
0.0
 40
0.0
 40
0.3031989198
 40
0.5698064717
 40
0.7975221248
 40
1.0
 40
1.0
 40
1.0
 40
1.0
 10
16.6410393783
 20
11.6637630615
 30
0.0
 10
16.6418531672
 20
11.6637630615
 30
0.0
 10
16.643388123
 20
11.663894972
 30
0.0
 10
16.645451866
 20
11.6645389425
 30
0.0
 10
16.6470280575
 20
11.66561649
 30
0.0
 10
16.6476512057
 20
11.6666442007
 30
0.0
 10
16.6478120738
 20
11.6671632982
 30
0.0
  0
SPLINE
  5
398
100
AcDbEntity
  8
LAYER_FEATURE
100
AcDbSpline
 62
7
  6
CONTINUOUS
 70
0
 71
3
 72
11
 73
7
 74
0
 42
0.0000001
 43
0.0000001
 44
0.0000000001
 40
0.0
 40
0.0
 40
0.0
 40
0.0
 40
0.2303535243
 40
0.4849227465
 40
0.7474881959
 40
1.0
 40
1.0
 40
1.0
 40
1.0
 10
16.4999262623
 20
11.6683638058
 30
0.0
 10
16.5005895033
 20
11.6676573539
 30
0.0
 10
16.5022015956
 20
11.6663705846
 30
0.0
 10
16.5050172
 20
11.6649337251
 30
0.0
 10
16.5081355966
 20
11.6640037208
 30
0.0
 10
16.5103053847
 20
11.6637630615
 30
0.0
 10
16.5113675964
 20
11.6637630615
 30
0.0
  0
SPLINE
  5
399
100
AcDbEntity
  8
LAYER_FEATURE
100
AcDbSpline
 62
7
  6
CONTINUOUS
 70
0
 71
3
 72
11
 73
7
 74
0
 42
0.0000001
 43
0.0000001
 44
0.0000000001
 40
0.0
 40
0.0
 40
0.0
 40
0.0
 40
0.3031989198
 40
0.5698064717
 40
0.7975221248
 40
1.0
 40
1.0
 40
1.0
 40
1.0
 10
16.3532078176
 20
11.6637630615
 30
0.0
 10
16.3540216065
 20
11.6637630615
 30
0.0
 10
16.3555565624
 20
11.663894972
 30
0.0
 10
16.3576203054
 20
11.6645389425
 30
0.0
 10
16.3591964969
 20
11.66561649
 30
0.0
 10
16.3598196451
 20
11.6666442007
 30
0.0
 10
16.3599805132
 20
11.6671632982
 30
0.0
  0
SPLINE
  5
39A
100
AcDbEntity
  8
LAYER_FEATURE
100
AcDbSpline
 62
7
  6
CONTINUOUS
 70
0
 71
3
 72
11
 73
7
 74
0
 42
0.0000001
 43
0.0000001
 44
0.0000000001
 40
0.0
 40
0.0
 40
0.0
 40
0.0
 40
0.2303535243
 40
0.4849227465
 40
0.7474881959
 40
1.0
 40
1.0
 40
1.0
 40
1.0
 10
16.2120947017
 20
11.6683638058
 30
0.0
 10
16.2127579427
 20
11.6676573539
 30
0.0
 10
16.214370035
 20
11.6663705846
 30
0.0
 10
16.2171856393
 20
11.6649337251
 30
0.0
 10
16.220304036
 20
11.6640037208
 30
0.0
 10
16.2224738241
 20
11.6637630615
 30
0.0
 10
16.2235360357
 20
11.6637630615
 30
0.0
  0
SPLINE
  5
39B
100
AcDbEntity
  8
LAYER_FEATURE
100
AcDbSpline
 62
7
  6
CONTINUOUS
 70
0
 71
3
 72
11
 73
7
 74
0
 42
0.0000001
 43
0.0000001
 44
0.0000000001
 40
0.0
 40
0.0
 40
0.0
 40
0.0
 40
0.3031989198
 40
0.5698064717
 40
0.7975221248
 40
1.0
 40
1.0
 40
1.0
 40
1.0
 10
16.065376257
 20
11.6637630615
 30
0.0
 10
16.0661900459
 20
11.6637630615
 30
0.0
 10
16.0677250017
 20
11.663894972
 30
0.0
 10
16.0697887447
 20
11.6645389425
 30
0.0
 10
16.0713649363
 20
11.66561649
 30
0.0
 10
16.0719880845
 20
11.6666442007
 30
0.0
 10
16.0721489526
 20
11.6671632982
 30
0.0
  0
SPLINE
  5
39C
100
AcDbEntity
  8
LAYER_FEATURE
100
AcDbSpline
 62
7
  6
CONTINUOUS
 70
0
 71
3
 72
11
 73
7
 74
0
 42
0.0000001
 43
0.0000001
 44
0.0000000001
 40
0.0
 40
0.0
 40
0.0
 40
0.0
 40
0.2303535243
 40
0.4849227465
 40
0.7474881959
 40
1.0
 40
1.0
 40
1.0
 40
1.0
 10
15.924263141
 20
11.6683638058
 30
0.0
 10
15.9249263821
 20
11.6676573539
 30
0.0
 10
15.9265384743
 20
11.6663705846
 30
0.0
 10
15.9293540787
 20
11.6649337251
 30
0.0
 10
15.9324724754
 20
11.6640037208
 30
0.0
 10
15.9346422635
 20
11.6637630615
 30
0.0
 10
15.9357044751
 20
11.6637630615
 30
0.0
  0
SPLINE
  5
39D
100
AcDbEntity
  8
LAYER_FEATURE
100
AcDbSpline
 62
7
  6
CONTINUOUS
 70
0
 71
3
 72
11
 73
7
 74
0
 42
0.0000001
 43
0.0000001
 44
0.0000000001
 40
0.0
 40
0.0
 40
0.0
 40
0.0
 40
0.3031989198
 40
0.5698064717
 40
0.7975221248
 40
1.0
 40
1.0
 40
1.0
 40
1.0
 10
15.7775446964
 20
11.6637630615
 30
0.0
 10
15.7783584853
 20
11.6637630615
 30
0.0
 10
15.7798934411
 20
11.663894972
 30
0.0
 10
15.7819571841
 20
11.6645389425
 30
0.0
 10
15.7835333757
 20
11.66561649
 30
0.0
 10
15.7841565238
 20
11.6666442007
 30
0.0
 10
15.7843173919
 20
11.6671632982
 30
0.0
  0
SPLINE
  5
39E
100
AcDbEntity
  8
LAYER_FEATURE
100
AcDbSpline
 62
7
  6
CONTINUOUS
 70
0
 71
3
 72
11
 73
7
 74
0
 42
0.0000001
 43
0.0000001
 44
0.0000000001
 40
0.0
 40
0.0
 40
0.0
 40
0.0
 40
0.2303535243
 40
0.4849227465
 40
0.7474881959
 40
1.0
 40
1.0
 40
1.0
 40
1.0
 10
15.6364315804
 20
11.6683638058
 30
0.0
 10
15.6370948214
 20
11.6676573539
 30
0.0
 10
15.6387069137
 20
11.6663705846
 30
0.0
 10
15.6415225181
 20
11.6649337251
 30
0.0
 10
15.6446409148
 20
11.6640037208
 30
0.0
 10
15.6468107029
 20
11.6637630615
 30
0.0
 10
15.6478729145
 20
11.6637630615
 30
0.0
  0
SPLINE
  5
39F
100
AcDbEntity
  8
LAYER_FEATURE
100
AcDbSpline
 62
7
  6
CONTINUOUS
 70
0
 71
3
 72
11
 73
7
 74
0
 42
0.0000001
 43
0.0000001
 44
0.0000000001
 40
0.0
 40
0.0
 40
0.0
 40
0.0
 40
0.3031989198
 40
0.5698064717
 40
0.7975221248
 40
1.0
 40
1.0
 40
1.0
 40
1.0
 10
15.4897131358
 20
11.6637630615
 30
0.0
 10
15.4905269247
 20
11.6637630615
 30
0.0
 10
15.4920618805
 20
11.663894972
 30
0.0
 10
15.4941256235
 20
11.6645389425
 30
0.0
 10
15.495701815
 20
11.66561649
 30
0.0
 10
15.4963249632
 20
11.6666442007
 30
0.0
 10
15.4964858313
 20
11.6671632982
 30
0.0
  0
SPLINE
  5
3A0
100
AcDbEntity
  8
LAYER_FEATURE
100
AcDbSpline
 62
7
  6
CONTINUOUS
 70
0
 71
3
 72
11
 73
7
 74
0
 42
0.0000001
 43
0.0000001
 44
0.0000000001
 40
0.0
 40
0.0
 40
0.0
 40
0.0
 40
0.2303535243
 40
0.4849227465
 40
0.7474881959
 40
1.0
 40
1.0
 40
1.0
 40
1.0
 10
15.3486000198
 20
11.6683638058
 30
0.0
 10
15.3492632608
 20
11.6676573539
 30
0.0
 10
15.3508753531
 20
11.6663705846
 30
0.0
 10
15.3536909575
 20
11.6649337251
 30
0.0
 10
15.3568093541
 20
11.6640037208
 30
0.0
 10
15.3589791422
 20
11.6637630615
 30
0.0
 10
15.3600413539
 20
11.6637630615
 30
0.0
  0
SPLINE
  5
3A1
100
AcDbEntity
  8
LAYER_FEATURE
100
AcDbSpline
 62
7
  6
CONTINUOUS
 70
0
 71
3
 72
11
 73
7
 74
0
 42
0.0000001
 43
0.0000001
 44
0.0000000001
 40
0.0
 40
0.0
 40
0.0
 40
0.0
 40
0.3031998681
 40
0.5698108327
 40
0.7975264813
 40
1.0
 40
1.0
 40
1.0
 40
1.0
 10
15.2018815751
 20
11.6637630615
 30
0.0
 10
15.2026953669
 20
11.6637630615
 30
0.0
 10
15.2042303335
 20
11.66389498
 30
0.0
 10
15.2062940918
 20
11.664538954
 30
0.0
 10
15.2078702662
 20
11.6656165157
 30
0.0
 10
15.2084934237
 20
11.666644208
 30
0.0
 10
15.2086542825
 20
11.6671632963
 30
0.0
  0
SPLINE
  5
3A2
100
AcDbEntity
  8
LAYER_FEATURE
100
AcDbSpline
 62
7
  6
CONTINUOUS
 70
0
 71
3
 72
11
 73
7
 74
0
 42
0.0000001
 43
0.0000001
 44
0.0000000001
 40
0.0
 40
0.0
 40
0.0
 40
0.0
 40
0.2303535243
 40
0.4849227465
 40
0.7474881959
 40
1.0
 40
1.0
 40
1.0
 40
1.0
 10
15.0607684592
 20
11.6683638058
 30
0.0
 10
15.0614317002
 20
11.6676573539
 30
0.0
 10
15.0630437925
 20
11.6663705846
 30
0.0
 10
15.0658593968
 20
11.6649337251
 30
0.0
 10
15.0689777935
 20
11.6640037208
 30
0.0
 10
15.0711475816
 20
11.6637630615
 30
0.0
 10
15.0722097932
 20
11.6637630615
 30
0.0
  0
SPLINE
  5
3A3
100
AcDbEntity
  8
LAYER_FEATURE
100
AcDbSpline
 62
7
  6
CONTINUOUS
 70
0
 71
3
 72
11
 73
7
 74
0
 42
0.0000001
 43
0.0000001
 44
0.0000000001
 40
0.0
 40
0.0
 40
0.0
 40
0.0
 40
0.3031989198
 40
0.5698064717
 40
0.7975221248
 40
1.0
 40
1.0
 40
1.0
 40
1.0
 10
14.9140500145
 20
11.6637630615
 30
0.0
 10
14.9148638034
 20
11.6637630615
 30
0.0
 10
14.9163987592
 20
11.663894972
 30
0.0
 10
14.9184625022
 20
11.6645389425
 30
0.0
 10
14.9200386938
 20
11.66561649
 30
0.0
 10
14.920661842
 20
11.6666442007
 30
0.0
 10
14.9208227101
 20
11.6671632982
 30
0.0
  0
SPLINE
  5
3A4
100
AcDbEntity
  8
LAYER_FEATURE
100
AcDbSpline
 62
7
  6
CONTINUOUS
 70
0
 71
3
 72
11
 73
7
 74
0
 42
0.0000001
 43
0.0000001
 44
0.0000000001
 40
0.0
 40
0.0
 40
0.0
 40
0.0
 40
0.2303535243
 40
0.4849227465
 40
0.7474881959
 40
1.0
 40
1.0
 40
1.0
 40
1.0
 10
14.7729368985
 20
11.6683638058
 30
0.0
 10
14.7736001396
 20
11.6676573539
 30
0.0
 10
14.7752122318
 20
11.6663705846
 30
0.0
 10
14.7780278362
 20
11.6649337251
 30
0.0
 10
14.7811462329
 20
11.6640037208
 30
0.0
 10
14.783316021
 20
11.6637630615
 30
0.0
 10
14.7843782326
 20
11.6637630615
 30
0.0
  0
SPLINE
  5
3A5
100
AcDbEntity
  8
LAYER_FEATURE
100
AcDbSpline
 62
7
  6
CONTINUOUS
 70
0
 71
3
 72
11
 73
7
 74
0
 42
0.0000001
 43
0.0000001
 44
0.0000000001
 40
0.0
 40
0.0
 40
0.0
 40
0.0
 40
0.3031989198
 40
0.5698064717
 40
0.7975221248
 40
1.0
 40
1.0
 40
1.0
 40
1.0
 10
14.6262184539
 20
11.6637630615
 30
0.0
 10
14.6270322428
 20
11.6637630615
 30
0.0
 10
14.6285671986
 20
11.663894972
 30
0.0
 10
14.6306309416
 20
11.6645389425
 30
0.0
 10
14.6322071332
 20
11.66561649
 30
0.0
 10
14.6328302813
 20
11.6666442007
 30
0.0
 10
14.6329911494
 20
11.6671632982
 30
0.0
  0
SPLINE
  5
3A6
100
AcDbEntity
  8
LAYER_FEATURE
100
AcDbSpline
 62
7
  6
CONTINUOUS
 70
0
 71
3
 72
11
 73
7
 74
0
 42
0.0000001
 43
0.0000001
 44
0.0000000001
 40
0.0
 40
0.0
 40
0.0
 40
0.0
 40
0.2303535243
 40
0.4849227465
 40
0.7474881959
 40
1.0
 40
1.0
 40
1.0
 40
1.0
 10
14.4851053379
 20
11.6683638058
 30
0.0
 10
14.4857685789
 20
11.6676573539
 30
0.0
 10
14.4873806712
 20
11.6663705846
 30
0.0
 10
14.4901962756
 20
11.6649337251
 30
0.0
 10
14.4933146722
 20
11.6640037208
 30
0.0
 10
14.4954844604
 20
11.6637630615
 30
0.0
 10
14.496546672
 20
11.6637630615
 30
0.0
  0
SPLINE
  5
3A7
100
AcDbEntity
  8
LAYER_FEATURE
100
AcDbSpline
 62
7
  6
CONTINUOUS
 70
0
 71
3
 72
11
 73
7
 74
0
 42
0.0000001
 43
0.0000001
 44
0.0000000001
 40
0.0
 40
0.0
 40
0.0
 40
0.0
 40
0.3031989198
 40
0.5698064717
 40
0.7975221248
 40
1.0
 40
1.0
 40
1.0
 40
1.0
 10
14.3383868933
 20
11.6637630615
 30
0.0
 10
14.3392006822
 20
11.6637630615
 30
0.0
 10
14.340735638
 20
11.663894972
 30
0.0
 10
14.342799381
 20
11.6645389425
 30
0.0
 10
14.3443755725
 20
11.66561649
 30
0.0
 10
14.3449987207
 20
11.6666442007
 30
0.0
 10
14.3451595888
 20
11.6671632982
 30
0.0
  0
SPLINE
  5
3A8
100
AcDbEntity
  8
LAYER_FEATURE
100
AcDbSpline
 62
7
  6
CONTINUOUS
 70
0
 71
3
 72
11
 73
7
 74
0
 42
0.0000001
 43
0.0000001
 44
0.0000000001
 40
0.0
 40
0.0
 40
0.0
 40
0.0
 40
0.2303535243
 40
0.4849227465
 40
0.7474881959
 40
1.0
 40
1.0
 40
1.0
 40
1.0
 10
14.1972737773
 20
11.6683638058
 30
0.0
 10
14.1979370183
 20
11.6676573539
 30
0.0
 10
14.1995491106
 20
11.6663705846
 30
0.0
 10
14.202364715
 20
11.6649337251
 30
0.0
 10
14.2054831116
 20
11.6640037208
 30
0.0
 10
14.2076528997
 20
11.6637630615
 30
0.0
 10
14.2087151113
 20
11.6637630615
 30
0.0
  0
SPLINE
  5
3A9
100
AcDbEntity
  8
LAYER_FEATURE
100
AcDbSpline
 62
7
  6
CONTINUOUS
 70
0
 71
3
 72
11
 73
7
 74
0
 42
0.0000001
 43
0.0000001
 44
0.0000000001
 40
0.0
 40
0.0
 40
0.0
 40
0.0
 40
0.3031989198
 40
0.5698064717
 40
0.7975221248
 40
1.0
 40
1.0
 40
1.0
 40
1.0
 10
14.0505553326
 20
11.6637630615
 30
0.0
 10
14.0513691215
 20
11.6637630615
 30
0.0
 10
14.0529040774
 20
11.663894972
 30
0.0
 10
14.0549678203
 20
11.6645389425
 30
0.0
 10
14.0565440119
 20
11.66561649
 30
0.0
 10
14.0571671601
 20
11.6666442007
 30
0.0
 10
14.0573280282
 20
11.6671632982
 30
0.0
  0
SPLINE
  5
3AA
100
AcDbEntity
  8
LAYER_FEATURE
100
AcDbSpline
 62
7
  6
CONTINUOUS
 70
0
 71
3
 72
11
 73
7
 74
0
 42
0.0000001
 43
0.0000001
 44
0.0000000001
 40
0.0
 40
0.0
 40
0.0
 40
0.0
 40
0.2303535243
 40
0.4849227465
 40
0.7474881959
 40
1.0
 40
1.0
 40
1.0
 40
1.0
 10
13.9094422167
 20
11.6683638058
 30
0.0
 10
13.9101054577
 20
11.6676573539
 30
0.0
 10
13.91171755
 20
11.6663705846
 30
0.0
 10
13.9145331543
 20
11.6649337251
 30
0.0
 10
13.917651551
 20
11.6640037208
 30
0.0
 10
13.9198213391
 20
11.6637630615
 30
0.0
 10
13.9208835507
 20
11.6637630615
 30
0.0
  0
SPLINE
  5
3AB
100
AcDbEntity
  8
LAYER_FEATURE
100
AcDbSpline
 62
7
  6
CONTINUOUS
 70
0
 71
3
 72
11
 73
7
 74
0
 42
0.0000001
 43
0.0000001
 44
0.0000000001
 40
0.0
 40
0.0
 40
0.0
 40
0.0
 40
0.3031989198
 40
0.5698064717
 40
0.7975221248
 40
1.0
 40
1.0
 40
1.0
 40
1.0
 10
13.762723772
 20
11.6637630615
 30
0.0
 10
13.7635375609
 20
11.6637630615
 30
0.0
 10
13.7650725167
 20
11.663894972
 30
0.0
 10
13.7671362597
 20
11.6645389425
 30
0.0
 10
13.7687124513
 20
11.66561649
 30
0.0
 10
13.7693355995
 20
11.6666442007
 30
0.0
 10
13.7694964676
 20
11.6671632982
 30
0.0
  0
SPLINE
  5
3AC
100
AcDbEntity
  8
LAYER_FEATURE
100
AcDbSpline
 62
7
  6
CONTINUOUS
 70
0
 71
3
 72
11
 73
7
 74
0
 42
0.0000001
 43
0.0000001
 44
0.0000000001
 40
0.0
 40
0.0
 40
0.0
 40
0.0
 40
0.2303535243
 40
0.4849227465
 40
0.7474881959
 40
1.0
 40
1.0
 40
1.0
 40
1.0
 10
13.621610656
 20
11.6683638058
 30
0.0
 10
13.6222738971
 20
11.6676573539
 30
0.0
 10
13.6238859893
 20
11.6663705846
 30
0.0
 10
13.6267015937
 20
11.6649337251
 30
0.0
 10
13.6298199904
 20
11.6640037208
 30
0.0
 10
13.6319897785
 20
11.6637630615
 30
0.0
 10
13.6330519901
 20
11.6637630615
 30
0.0
  0
SPLINE
  5
3AD
100
AcDbEntity
  8
LAYER_FEATURE
100
AcDbSpline
 62
7
  6
CONTINUOUS
 70
0
 71
3
 72
11
 73
7
 74
0
 42
0.0000001
 43
0.0000001
 44
0.0000000001
 40
0.0
 40
0.0
 40
0.0
 40
0.0
 40
0.3031989198
 40
0.5698064717
 40
0.7975221248
 40
1.0
 40
1.0
 40
1.0
 40
1.0
 10
13.4748922114
 20
11.6637630615
 30
0.0
 10
13.4757060003
 20
11.6637630615
 30
0.0
 10
13.4772409561
 20
11.663894972
 30
0.0
 10
13.4793046991
 20
11.6645389425
 30
0.0
 10
13.4808808907
 20
11.66561649
 30
0.0
 10
13.4815040388
 20
11.6666442007
 30
0.0
 10
13.4816649069
 20
11.6671632982
 30
0.0
  0
SPLINE
  5
3AE
100
AcDbEntity
  8
LAYER_FEATURE
100
AcDbSpline
 62
7
  6
CONTINUOUS
 70
0
 71
3
 72
11
 73
7
 74
0
 42
0.0000001
 43
0.0000001
 44
0.0000000001
 40
0.0
 40
0.0
 40
0.0
 40
0.0
 40
0.2303535243
 40
0.4849227465
 40
0.7474881959
 40
1.0
 40
1.0
 40
1.0
 40
1.0
 10
13.3337790954
 20
11.6683638058
 30
0.0
 10
13.3344423364
 20
11.6676573539
 30
0.0
 10
13.3360544287
 20
11.6663705846
 30
0.0
 10
13.3388700331
 20
11.6649337251
 30
0.0
 10
13.3419884297
 20
11.6640037208
 30
0.0
 10
13.3441582179
 20
11.6637630615
 30
0.0
 10
13.3452204295
 20
11.6637630615
 30
0.0
  0
SPLINE
  5
3AF
100
AcDbEntity
  8
LAYER_FEATURE
100
AcDbSpline
 62
7
  6
CONTINUOUS
 70
0
 71
3
 72
11
 73
7
 74
0
 42
0.0000001
 43
0.0000001
 44
0.0000000001
 40
0.0
 40
0.0
 40
0.0
 40
0.0
 40
0.3031989198
 40
0.5698064717
 40
0.7975221248
 40
1.0
 40
1.0
 40
1.0
 40
1.0
 10
13.1870606508
 20
11.6637630615
 30
0.0
 10
13.1878744397
 20
11.6637630615
 30
0.0
 10
13.1894093955
 20
11.663894972
 30
0.0
 10
13.1914731385
 20
11.6645389425
 30
0.0
 10
13.19304933
 20
11.66561649
 30
0.0
 10
13.1936724782
 20
11.6666442007
 30
0.0
 10
13.1938333463
 20
11.6671632982
 30
0.0
  0
SPLINE
  5
3B0
100
AcDbEntity
  8
LAYER_FEATURE
100
AcDbSpline
 62
7
  6
CONTINUOUS
 70
0
 71
3
 72
11
 73
7
 74
0
 42
0.0000001
 43
0.0000001
 44
0.0000000001
 40
0.0
 40
0.0
 40
0.0
 40
0.0
 40
0.2303535243
 40
0.4849227465
 40
0.7474881959
 40
1.0
 40
1.0
 40
1.0
 40
1.0
 10
13.0459475348
 20
11.6683638058
 30
0.0
 10
13.0466107758
 20
11.6676573539
 30
0.0
 10
13.0482228681
 20
11.6663705846
 30
0.0
 10
13.0510384725
 20
11.6649337251
 30
0.0
 10
13.0541568691
 20
11.6640037208
 30
0.0
 10
13.0563266572
 20
11.6637630615
 30
0.0
 10
13.0573888688
 20
11.6637630615
 30
0.0
  0
SPLINE
  5
3B1
100
AcDbEntity
  8
LAYER_FEATURE
100
AcDbSpline
 62
7
  6
CONTINUOUS
 70
0
 71
3
 72
11
 73
7
 74
0
 42
0.0000001
 43
0.0000001
 44
0.0000000001
 40
0.0
 40
0.0
 40
0.0
 40
0.0
 40
0.3031989198
 40
0.5698064717
 40
0.7975221248
 40
1.0
 40
1.0
 40
1.0
 40
1.0
 10
12.8992290901
 20
11.6637630615
 30
0.0
 10
12.900042879
 20
11.6637630615
 30
0.0
 10
12.9015778349
 20
11.663894972
 30
0.0
 10
12.9036415778
 20
11.6645389425
 30
0.0
 10
12.9052177694
 20
11.66561649
 30
0.0
 10
12.9058409176
 20
11.6666442007
 30
0.0
 10
12.9060017857
 20
11.6671632982
 30
0.0
  0
SPLINE
  5
3B2
100
AcDbEntity
  8
LAYER_FEATURE
100
AcDbSpline
 62
7
  6
CONTINUOUS
 70
0
 71
3
 72
11
 73
7
 74
0
 42
0.0000001
 43
0.0000001
 44
0.0000000001
 40
0.0
 40
0.0
 40
0.0
 40
0.0
 40
0.2303535243
 40
0.4849227465
 40
0.7474881959
 40
1.0
 40
1.0
 40
1.0
 40
1.0
 10
12.7581159742
 20
11.6683638058
 30
0.0
 10
12.7587792152
 20
11.6676573539
 30
0.0
 10
12.7603913075
 20
11.6663705846
 30
0.0
 10
12.7632069118
 20
11.6649337251
 30
0.0
 10
12.7663253085
 20
11.6640037208
 30
0.0
 10
12.7684950966
 20
11.6637630615
 30
0.0
 10
12.7695573082
 20
11.6637630615
 30
0.0
  0
SPLINE
  5
3B3
100
AcDbEntity
  8
0
100
AcDbSpline
 62
7
  6
CONTINUOUS
 70
0
 71
3
 72
11
 73
7
 74
0
 42
0.0000001
 43
0.0000001
 44
0.0000000001
 40
0.0
 40
0.0
 40
0.0
 40
0.0
 40
0.3031989198
 40
0.5698064717
 40
0.7975221248
 40
1.0
 40
1.0
 40
1.0
 40
1.0
 10
12.6113975295
 20
11.6637630615
 30
0.0
 10
12.6122113184
 20
11.6637630615
 30
0.0
 10
12.6137462742
 20
11.663894972
 30
0.0
 10
12.6158100172
 20
11.6645389425
 30
0.0
 10
12.6173862088
 20
11.66561649
 30
0.0
 10
12.618009357
 20
11.6666442007
 30
0.0
 10
12.6181702251
 20
11.6671632982
 30
0.0
  0
SPLINE
  5
3B4
100
AcDbEntity
  8
0
100
AcDbSpline
 62
7
  6
CONTINUOUS
 70
0
 71
3
 72
11
 73
7
 74
0
 42
0.0000001
 43
0.0000001
 44
0.0000000001
 40
0.0
 40
0.0
 40
0.0
 40
0.0
 40
0.2303535243
 40
0.4849227465
 40
0.7474881959
 40
1.0
 40
1.0
 40
1.0
 40
1.0
 10
12.4702844135
 20
11.6683638058
 30
0.0
 10
12.4709476545
 20
11.6676573539
 30
0.0
 10
12.4725597468
 20
11.6663705846
 30
0.0
 10
12.4753753512
 20
11.6649337251
 30
0.0
 10
12.4784937479
 20
11.6640037208
 30
0.0
 10
12.480663536
 20
11.6637630615
 30
0.0
 10
12.4817257476
 20
11.6637630615
 30
0.0
  0
SPLINE
  5
3B5
100
AcDbEntity
  8
0
100
AcDbSpline
 62
7
  6
CONTINUOUS
 70
0
 71
3
 72
11
 73
7
 74
0
 42
0.0000001
 43
0.0000001
 44
0.0000000001
 40
0.0
 40
0.0
 40
0.0
 40
0.0
 40
0.2113316853
 40
0.4633552044
 40
0.7355555478
 40
1.0
 40
1.0
 40
1.0
 40
1.0
 10
18.070248146
 20
11.7865310303
 30
0.0
 10
18.0699152163
 20
11.7872094698
 30
0.0
 10
18.0688103853
 20
11.7885065506
 30
0.0
 10
18.0665911241
 20
11.7899575635
 30
0.0
 10
18.0639201725
 20
11.790930723
 30
0.0
 10
18.0619980334
 20
11.791193105
 30
0.0
 10
18.0610523746
 20
11.791193105
 30
0.0
  0
SPLINE
  5
3B6
100
AcDbEntity
  8
0
100
AcDbSpline
 62
7
  6
CONTINUOUS
 70
0
 71
3
 72
11
 73
7
 74
0
 42
0.0000001
 43
0.0000001
 44
0.0000000001
 40
0.0
 40
0.0
 40
0.0
 40
0.0
 40
0.3026134201
 40
0.5698765566
 40
0.7977404036
 40
1.0
 40
1.0
 40
1.0
 40
1.0
 10
12.3758033891
 20
11.791193105
 30
0.0
 10
12.3752185788
 20
11.791193105
 30
0.0
 10
12.3741137386
 20
11.7910957182
 30
0.0
 10
12.3726261699
 20
11.790634929
 30
0.0
 10
12.3714913871
 20
11.7898581027
 30
0.0
 10
12.3710397204
 20
11.7891192115
 30
0.0
 10
12.3709261122
 20
11.7887452128
 30
0.0
  0
ENDSEC
  0
SECTION
  2
OBJECTS
  0
DICTIONARY
  5
C
100
AcDbDictionary
280
0
281
1
  3
ACAD_GROUP
350
D
  3
ACAD_MLINESTYLE
350
17
  3
ACAD_LAYOUT
350
1A
  3
ACAD_PLOTSETTINGS
350
19
  3
ACAD_PLOTSTYLENAME
350
E
  0
DICTIONARY
  5
D
102
{ACAD_REACTORS
330
C
102
}
100
AcDbDictionary
280
0
281
1
  0
ACDBDICTIONARYWDFLT
  5
E
102
{ACAD_REACTORS
330
C
102
}
100
AcDbDictionary
281
1
  3
Normal
350
F
100
AcDbDictionaryWithDefault
340
F
  0
DICTIONARY
  5
17
102
{ACAD_REACTORS
330
C
102
}
100
AcDbDictionary
280
0
281
1
  3
Standard
350
18
  0
DICTIONARY
  5
19
102
{ACAD_REACTORS
330
C
102
}
100
AcDbDictionary
281
1
  0
DICTIONARY
  5
1A
102
{ACAD_REACTORS
330
C
102
}
100
AcDbDictionary
281
1
  3
Model
350
3B7
  3
Layout1
350
3B8
  0
ACDBPLACEHOLDER
  5
F
102
{ACAD_REACTORS
330
E
102
}
  0
MLINESTYLE
  5
18
102
{ACAD_REACTORS
330
17
102
}
100
AcDbMlineStyle
  2
STANDARD
 70
0
  3

 62
256
 51
90.0
 52
90.0
 71
2
 49
0.5
 62
256
  6
BYLAYER
 49
-0.5
 62
256
  6
BYLAYER
  0
LAYOUT
  5
3B7
102
{ACAD_REACTORS
330
1A
102
}
100
AcDbPlotSettings
  1

  2
none_device
  4
ANSI_C_(22.00_x_17.00_Inches)
  6

 40
0.0
 41
0.0
 42
0.0
 43
0.0
 44
558.8
 45
431.8
 46
0.0
 47
0.0
 48
0.0
 49
0.0
140
0.0
141
0.0
142
1.0
143
1.0
 70
1024
 72
0
 73
0
 74
0
  7

 75
0
147
1.0
148
0.0
149
0.0
100
AcDbLayout
  1
Model
 70
0
 71
0
 10
0.0
 20
0.0
 11
22.0
 21
17.0
 12
0.0
 22
0.0
 32
0.0
 14
0.0
 24
0.0
 34
0.0
 15
0.0
 25
0.0
 35
0.0
146
0.0
 13
0.0
 23
0.0
 33
0.0
 16
1.0
 26
0.0
 36
0.0
 17
0.0
 27
1.0
 37
0.0
 76
0
330
21C
345
0
346
0
  0
LAYOUT
  5
3B8
102
{ACAD_REACTORS
330
1A
102
}
100
AcDbPlotSettings
  1

  2
none_device
  4
ANSI_C_(22.00_x_17.00_Inches)
  6

 40
0.0
 41
0.0
 42
0.0
 43
0.0
 44
558.8
 45
431.8
 46
0.0
 47
0.0
 48
0.0
 49
0.0
140
0.0
141
0.0
142
1.0
143
1.0
 70
0
 72
0
 73
0
 74
0
  7

 75
0
147
1.0
148
0.0
149
0.0
100
AcDbLayout
  1
Layout1
 70
0
 71
1
 10
0.0
 20
0.0
 11
22.0
 21
17.0
 12
0.0
 22
0.0
 32
0.0
 14
0.0
 24
0.0
 34
0.0
 15
0.0
 25
0.0
 35
0.0
146
0.0
 13
0.0
 23
0.0
 33
0.0
 16
1.0
 26
0.0
 36
0.0
 17
0.0
 27
1.0
 37
0.0
 76
0
330
21D
345
0
346
0
  0
ENDSEC
  0
EOF