999
DXF file: _cgs_temp_output.dxf
999
Pro/ENGINEER 2016360 by Parametric Technology Corporation
  0
SECTION
  2
HEADER
  9
$ACADVER
  1
AC1021
  9
$DWGCODEPAGE
  3
ANSI_1252
  9
$EXTMAX
 10
22.0
 20
17.0
 30
0.0
  9
$EXTMIN
 10
0.0
 20
0.0
 30
0.0
  9
$LIMMIN
 10
0.0
 20
0.0
  9
$LIMMAX
 10
22.0
 20
17.0
  9
$VIEWCTR
 10
11.0
 20
8.5
  9
$VIEWSIZE
 40
17.0
  9
$CLAYER
  8
0
  9
$LTSCALE
 40
1.21
  9
$CELTYPE
  6
BYLAYER
  9
$DIMSCALE
 40
1.0
  9
$DIMASZ
 40
0.1875
  9
$DIMEXO
 40
0.0625
  9
$DIMDLI
 40
0.836
  9
$DIMEXE
 40
0.125
  9
$DIMCEN
 40
0.198
  9
$DIMLFAC
 40
1.0
  9
$DIMBLK
  1
_CLOSED
  9
$DIMALT
 70
0
  9
$DIMALTF
 40
25.4
  9
$DIMTXT
 40
0.15625
  9
$DIMTOL
 70
0
  9
$DIMLIM
 70
0
  9
$DIMTFAC
 40
1.0
  9
$DIMGAP
 40
0.09
  9
$DIMDSEP
 70
46
  9
$AUNITS
 70
0
  9
$PDMODE
 70
3
  9
$PDSIZE
 40
0.3125
  9
$HANDSEED
  5
27B
  9
$TILEMODE
 70
1
  9
$MEASUREMENT
 70
0
  9
$INSUNITS
 70
1
  0
ENDSEC
  0
SECTION
  2
CLASSES
  0
CLASS
  1
ACDBDICTIONARYWDFLT
  2
AcDbDictionaryWithDefault
  3
AutoCAD 2000
 90
0
 91
1
280
0
281
0
  0
CLASS
  1
ACDBPLACEHOLDER
  2
AcDbPlaceHolder
  3
AutoCAD 2000
 90
0
 91
1
280
0
281
0
  0
CLASS
  1
LAYOUT
  2
AcDbLayout
  3
AutoCAD 2000
 90
0
 91
0
280
0
281
0
  0
ENDSEC
  0
SECTION
  2
TABLES
  0
TABLE
  2
VPORT
  5
8
100
AcDbSymbolTable
 70
2
  0
VPORT
  5
1F4
100
AcDbSymbolTableRecord
100
AcDbViewportTableRecord
  2
*ACTIVE
 70
0
 10
0.0
 20
0.0
 11
1.0
 21
1.0
 12
11.0
 22
8.5
 13
0.0
 23
0.0
 14
1.0
 24
1.0
 15
0.0
 25
0.0
 16
0.0
 26
0.0
 36
1.0
 17
0.0
 27
0.0
 37
0.0
 40
17.0
 41
1.2941176471
 42
50.0
 43
0.0
 44
0.0
 50
0.0
 51
0.0
 71
0
 72
100
 73
1
 74
1
 75
0
 76
0
 77
0
 78
0
  0
ENDTAB
  0
TABLE
  2
LTYPE
  5
5
100
AcDbSymbolTable
 70
6
  0
LTYPE
  5
14
100
AcDbSymbolTableRecord
100
AcDbLinetypeTableRecord
  2
BYBLOCK
 70
0
  3

 72
65
 73
0
 40
0.0
  0
LTYPE
  5
15
100
AcDbSymbolTableRecord
100
AcDbLinetypeTableRecord
  2
BYLAYER
 70
0
  3

 72
65
 73
0
 40
0.0
  0
LTYPE
  5
16
100
AcDbSymbolTableRecord
100
AcDbLinetypeTableRecord
  2
CONTINUOUS
 70
64
  3
Solid line
 72
65
 73
0
 40
0.0
  0
LTYPE
  5
1F5
100
AcDbSymbolTableRecord
100
AcDbLinetypeTableRecord
  2
CENTER
 70
64
  3
____ _ ____ _ ____ _ ____ _ ____ _ ____ _ ____
 72
65
 73
4
 40
0.6
 49
0.375
 74
0
 49
-0.075
 74
0
 49
0.075
 74
0
 49
-0.075
 74
0
  0
LTYPE
  5
1F6
100
AcDbSymbolTableRecord
100
AcDbLinetypeTableRecord
  2
HIDDEN
 70
64
  3
- - - - - - - - - - - - - - - - - - - -
 72
65
 73
2
 40
0.2
 49
0.1
 74
0
 49
-0.1
 74
0
  0
LTYPE
  5
1F7
100
AcDbSymbolTableRecord
100
AcDbLinetypeTableRecord
  2
PHANTOM
 70
64
  3
_____ _ _ _____ _ _ _____ _ _ _____
 72
65
 73
6
 40
0.8
 49
0.45
 74
0
 49
-0.05
 74
0
 49
0.1
 74
0
 49
-0.05
 74
0
 49
0.1
 74
0
 49
-0.05
 74
0
  0
LTYPE
  5
1F8
100
AcDbSymbolTableRecord
100
AcDbLinetypeTableRecord
  2
DOT
 70
64
  3
. . . . . . . . . . . . . . . . . . . .
 72
65
 73
2
 40
0.2
 49
0.1
 74
0
 49
-0.1
 74
0
  0
LTYPE
  5
1F9
100
AcDbSymbolTableRecord
100
AcDbLinetypeTableRecord
  2
DASHED
 70
64
  3
- - - - - - - - - - - - - - - - - - - -
 72
65
 73
2
 40
0.2
 49
0.1
 74
0
 49
-0.1
 74
0
  0
ENDTAB
  0
TABLE
  2
LAYER
  5
2
100
AcDbSymbolTable
 70
36
  0
LAYER
  5
10
100
AcDbSymbolTableRecord
100
AcDbLayerTableRecord
  2
0
 70
0
 62
7
  6
CONTINUOUS
370
-3
390
F
  0
LAYER
  5
1FA
100
AcDbSymbolTableRecord
100
AcDbLayerTableRecord
  2
DEFAULT_1
 70
0
 62
7
  6
CENTER
370
-3
390
F
  0
LAYER
  5
1FB
100
AcDbSymbolTableRecord
100
AcDbLayerTableRecord
  2
DEFAULT_2
 70
0
 62
8
  6
HIDDEN
370
-3
390
F
  0
LAYER
  5
1FC
100
AcDbSymbolTableRecord
100
AcDbLayerTableRecord
  2
DEFAULT_3
 70
0
 62
7
  6
PHANTOM
370
-3
390
F
  0
LAYER
  5
1FD
100
AcDbSymbolTableRecord
100
AcDbLayerTableRecord
  2
01_ALL_DTM_PLN
 70
0
 62
7
  6
CONTINUOUS
370
-3
390
F
  0
LAYER
  5
1FE
100
AcDbSymbolTableRecord
100
AcDbLayerTableRecord
  2
01__ASM_ALL_DTM_PLN
 70
0
 62
7
  6
CONTINUOUS
370
-3
390
F
  0
LAYER
  5
1FF
100
AcDbSymbolTableRecord
100
AcDbLayerTableRecord
  2
01__ASM_DEF_DTM_PLN
 70
0
 62
7
  6
CONTINUOUS
370
-3
390
F
  0
LAYER
  5
200
100
AcDbSymbolTableRecord
100
AcDbLayerTableRecord
  2
01___PRT_ALL_DTM_PLN
 70
0
 62
7
  6
CONTINUOUS
370
-3
390
F
  0
LAYER
  5
201
100
AcDbSymbolTableRecord
100
AcDbLayerTableRecord
  2
01___PRT_DEF_DTM_PLN
 70
0
 62
7
  6
CONTINUOUS
370
-3
390
F
  0
LAYER
  5
202
100
AcDbSymbolTableRecord
100
AcDbLayerTableRecord
  2
02_ALL_AXES
 70
0
 62
7
  6
CONTINUOUS
370
-3
390
F
  0
LAYER
  5
203
100
AcDbSymbolTableRecord
100
AcDbLayerTableRecord
  2
02__ASM_ALL_AXES
 70
0
 62
7
  6
CONTINUOUS
370
-3
390
F
  0
LAYER
  5
204
100
AcDbSymbolTableRecord
100
AcDbLayerTableRecord
  2
02___PRT_ALL_AXES
 70
0
 62
7
  6
CONTINUOUS
370
-3
390
F
  0
LAYER
  5
205
100
AcDbSymbolTableRecord
100
AcDbLayerTableRecord
  2
03_ALL_CURVES
 70
0
 62
7
  6
CONTINUOUS
370
-3
390
F
  0
LAYER
  5
206
100
AcDbSymbolTableRecord
100
AcDbLayerTableRecord
  2
03__ASM_ALL_CURVES
 70
0
 62
7
  6
CONTINUOUS
370
-3
390
F
  0
LAYER
  5
207
100
AcDbSymbolTableRecord
100
AcDbLayerTableRecord
  2
03___PRT_ALL_CURVES
 70
0
 62
7
  6
CONTINUOUS
370
-3
390
F
  0
LAYER
  5
208
100
AcDbSymbolTableRecord
100
AcDbLayerTableRecord
  2
04_ALL_DTM_PNT
 70
0
 62
7
  6
CONTINUOUS
370
-3
390
F
  0
LAYER
  5
209
100
AcDbSymbolTableRecord
100
AcDbLayerTableRecord
  2
04__ASM_ALL_DTM_PNT
 70
0
 62
7
  6
CONTINUOUS
370
-3
390
F
  0
LAYER
  5
20A
100
AcDbSymbolTableRecord
100
AcDbLayerTableRecord
  2
04___PRT_ALL_DTM_PNT
 70
0
 62
7
  6
CONTINUOUS
370
-3
390
F
  0
LAYER
  5
20B
100
AcDbSymbolTableRecord
100
AcDbLayerTableRecord
  2
05_ALL_DTM_CSYS
 70
0
 62
7
  6
CONTINUOUS
370
-3
390
F
  0
LAYER
  5
20C
100
AcDbSymbolTableRecord
100
AcDbLayerTableRecord
  2
05__ASM_ALL_DTM_CSYS
 70
0
 62
7
  6
CONTINUOUS
370
-3
390
F
  0
LAYER
  5
20D
100
AcDbSymbolTableRecord
100
AcDbLayerTableRecord
  2
05__ASM_DEF_DTM_CSYS
 70
0
 62
7
  6
CONTINUOUS
370
-3
390
F
  0
LAYER
  5
20E
100
AcDbSymbolTableRecord
100
AcDbLayerTableRecord
  2
05___PRT_ALL_DTM_CSYS
 70
0
 62
7
  6
CONTINUOUS
370
-3
390
F
  0
LAYER
  5
20F
100
AcDbSymbolTableRecord
100
AcDbLayerTableRecord
  2
05___PRT_DEF_DTM_CSYS
 70
0
 62
7
  6
CONTINUOUS
370
-3
390
F
  0
LAYER
  5
210
100
AcDbSymbolTableRecord
100
AcDbLayerTableRecord
  2
06_ALL_SURFS
 70
0
 62
7
  6
CONTINUOUS
370
-3
390
F
  0
LAYER
  5
211
100
AcDbSymbolTableRecord
100
AcDbLayerTableRecord
  2
06__ASM_ALL_SURFS
 70
0
 62
7
  6
CONTINUOUS
370
-3
390
F
  0
LAYER
  5
212
100
AcDbSymbolTableRecord
100
AcDbLayerTableRecord
  2
06___PRT_ALL_SURFS
 70
0
 62
7
  6
CONTINUOUS
370
-3
390
F
  0
LAYER
  5
213
100
AcDbSymbolTableRecord
100
AcDbLayerTableRecord
  2
07__ASM_ALL_SKELETONS
 70
0
 62
7
  6
CONTINUOUS
370
-3
390
F
  0
LAYER
  5
214
100
AcDbSymbolTableRecord
100
AcDbLayerTableRecord
  2
ASM0001
 70
0
 62
7
  6
CONTINUOUS
370
-3
390
F
  0
LAYER
  5
215
100
AcDbSymbolTableRecord
100
AcDbLayerTableRecord
  2
COLOR2
 70
0
 62
7
  6
CONTINUOUS
370
-3
390
F
  0
LAYER
  5
216
100
AcDbSymbolTableRecord
100
AcDbLayerTableRecord
  2
NONE
 70
0
 62
7
  6
CONTINUOUS
370
-3
390
F
  0
LAYER
  5
217
100
AcDbSymbolTableRecord
100
AcDbLayerTableRecord
  2
NONE_1
 70
0
 62
7
  6
CONTINUOUS
370
-3
390
F
  0
LAYER
  5
218
100
AcDbSymbolTableRecord
100
AcDbLayerTableRecord
  2
NONE_2
 70
0
 62
7
  6
CONTINUOUS
370
-3
390
F
  0
LAYER
  5
219
100
AcDbSymbolTableRecord
100
AcDbLayerTableRecord
  2
_1084
 70
0
 62
7
  6
CONTINUOUS
370
-3
390
F
  0
LAYER
  5
21A
100
AcDbSymbolTableRecord
100
AcDbLayerTableRecord
  2
_1084_1
 70
0
 62
7
  6
CONTINUOUS
370
-3
390
F
  0
LAYER
  5
21B
100
AcDbSymbolTableRecord
100
AcDbLayerTableRecord
  2
_164
 70
0
 62
7
  6
CONTINUOUS
370
-3
390
F
  0
LAYER
  5
21C
100
AcDbSymbolTableRecord
100
AcDbLayerTableRecord
  2
_164_1
 70
0
 62
7
  6
CONTINUOUS
370
-3
390
F
  0
LAYER
  5
21D
100
AcDbSymbolTableRecord
100
AcDbLayerTableRecord
  2
_20
 70
0
 62
7
  6
CONTINUOUS
370
-3
390
F
  0
LAYER
  5
21E
100
AcDbSymbolTableRecord
100
AcDbLayerTableRecord
  2
_20_1
 70
0
 62
7
  6
CONTINUOUS
370
-3
390
F
  0
LAYER
  5
21F
100
AcDbSymbolTableRecord
100
AcDbLayerTableRecord
  2
___SHELL
 70
0
 62
7
  6
CONTINUOUS
370
-3
390
F
  0
ENDTAB
  0
TABLE
  2
STYLE
  5
3
100
AcDbSymbolTable
 70
1
  0
STYLE
  5
11
100
AcDbSymbolTableRecord
100
AcDbTextStyleTableRecord
  2
STANDARD
 70
0
 40
0.0
 41
0.8
 50
0.0
 71
0
 42
0.2
  3
txt
  4

  0
STYLE
  5
220
100
AcDbSymbolTableRecord
100
AcDbTextStyleTableRecord
  2
TEXTSTYLE_1
 70
0
 40
0.0
 41
0.8
 50
0.0
 71
0
 42
0.2
  3
gdt
  4

  0
ENDTAB
  0
TABLE
  2
VIEW
  5
6
100
AcDbSymbolTable
 70
0
  0
ENDTAB
  0
TABLE
  2
UCS
  5
7
100
AcDbSymbolTable
 70
0
  0
ENDTAB
  0
TABLE
  2
APPID
  5
9
100
AcDbSymbolTable
 70
1
  0
APPID
  5
221
100
AcDbSymbolTableRecord
100
AcDbRegAppTableRecord
  2
ACAD
 70
0
  0
ENDTAB
  0
TABLE
  2
BLOCK_RECORD
  5
1
100
AcDbSymbolTable
 70
0
  0
BLOCK_RECORD
  5
222
100
AcDbSymbolTableRecord
100
AcDbBlockTableRecord
  2
*Model_Space
  0
BLOCK_RECORD
  5
223
100
AcDbSymbolTableRecord
100
AcDbBlockTableRecord
  2
*Paper_Space
  0
ENDTAB
  0
TABLE
  2
DIMSTYLE
  5
A
100
AcDbSymbolTable
 70
1
100
AcDbDimStyleTable
 71
0
  0
DIMSTYLE
105
224
100
AcDbSymbolTableRecord
100
AcDbDimStyleTableRecord
  2
STANDARD
 70
0
  3

  4

 40
1.0
 41
0.1875
 42
0.0625
 43
0.38
 44
0.125
 45
0.0
 46
0.0
 47
0.0001
 48
0.0001
140
0.15625
141
0.09
142
0.0
143
25.4
144
1.0
145
0.0
146
1.0
147
0.09
 71
0.0
 72
0.0
 73
1
 74
1
 75
0
 76
0
 77
0
 78
4
 79
1
170
0
171
3
172
0
173
0
174
0
175
0
176
0
177
0
178
0
270
2
179
4
271
4
272
4
273
2
274
2
275
0
280
0
281
0
282
0
283
1
284
4
285
0
286
0
287
3
288
0
340
11
278
46
  0
ENDTAB
  0
ENDSEC
  0
SECTION
  2
BLOCKS
  0
BLOCK
  5
20
100
AcDbEntity
  8
0
100
AcDbBlockBegin
  2
*Model_Space
 70
0
 10
0.0
 20
0.0
 30
0.0
  3
*Model_Space
  1

  0
ENDBLK
  5
21
100
AcDbEntity
  8
0
100
AcDbBlockEnd
  0
BLOCK
  5
1C
100
AcDbEntity
  8
0
100
AcDbBlockBegin
  2
*Paper_Space
 70
0
 10
0.0
 20
0.0
 30
0.0
  3
*Paper_Space
  1

  0
ENDBLK
  5
1D
100
AcDbEntity
  8
0
100
AcDbBlockEnd
  0
ENDSEC
  0
SECTION
  2
ENTITIES
  0
MTEXT
  5
225
100
AcDbEntity
  8
0
100
AcDbMText
 62
7
  6
CONTINUOUS
  7
STANDARD
 71
1
 72
1
 10
15.9560215477
 20
0.9479130325
 30
0.0
 11
1.0
 21
0.0
 31
0.0
 44
0.9
  1
SCALE: 1:1.000
 40
0.3
 41
3.36
  0
LINE
  5
226
100
AcDbEntity
  8
0
100
AcDbLine
 62
7
  6
CONTINUOUS
 10
0.0
 20
0.0
 11
0.0
 21
17.0
  0
LINE
  5
227
100
AcDbEntity
  8
0
100
AcDbLine
 62
7
  6
CONTINUOUS
 10
0.0
 20
0.0
 11
22.0
 21
0.0
  0
LINE
  5
228
100
AcDbEntity
  8
0
100
AcDbLine
 62
7
  6
CONTINUOUS
 10
0.0
 20
17.0
 11
22.0
 21
17.0
  0
LINE
  5
229
100
AcDbEntity
  8
0
100
AcDbLine
 62
7
  6
CONTINUOUS
 10
22.0
 20
0.0
 11
22.0
 21
17.0
  0
LINE
  5
22A
100
AcDbEntity
  8
0
100
AcDbLine
 62
7
  6
CONTINUOUS
 10
6.5441172762
 20
3.8488202627
 11
6.2553672762
 21
3.8488202627
  0
LINE
  5
22B
100
AcDbEntity
  8
0
100
AcDbLine
 62
7
  6
CONTINUOUS
 10
6.0053672762
 20
3.8488202627
 11
5.7166172762
 21
3.8488202627
  0
LINE
  5
22C
100
AcDbEntity
  8
0
100
AcDbLine
 62
7
  6
CONTINUOUS
 10
6.2053672762
 20
3.9488202627
 11
6.0553672762
 21
3.9488202627
  0
LINE
  5
22D
100
AcDbEntity
  8
0
100
AcDbLine
 62
7
  6
CONTINUOUS
 10
5.6776172762
 20
7.1563064262
 11
5.6776172762
 21
3.8878340993
  0
LINE
  5
22E
100
AcDbEntity
  8
0
100
AcDbLine
 62
7
  6
CONTINUOUS
 10
6.0553672762
 20
7.1453202627
 11
6.0553672762
 21
3.8988202627
  0
LINE
  5
22F
100
AcDbEntity
  8
0
100
AcDbLine
 62
7
  6
CONTINUOUS
 10
6.2053672762
 20
7.1453064493
 11
6.2053672762
 21
3.8988340761
  0
LINE
  5
230
100
AcDbEntity
  8
0
100
AcDbLine
 62
7
  6
CONTINUOUS
 10
6.5831172762
 20
3.8878340993
 11
6.5831172762
 21
7.1563064262
  0
LINE
  5
231
100
AcDbEntity
  8
0
100
AcDbLine
 62
7
  6
CONTINUOUS
 10
6.2053672762
 20
7.0953202627
 11
6.0553672762
 21
7.0953202627
  0
LINE
  5
232
100
AcDbEntity
  8
0
100
AcDbLine
 62
7
  6
CONTINUOUS
 10
6.5441172762
 20
7.1953202627
 11
6.2553672762
 21
7.1953202627
  0
LINE
  5
233
100
AcDbEntity
  8
0
100
AcDbLine
 62
7
  6
CONTINUOUS
 10
6.0053672762
 20
7.1953202627
 11
5.7166172762
 21
7.1953202627
  0
LINE
  5
234
100
AcDbEntity
  8
0
100
AcDbLine
 62
7
  6
CONTINUOUS
 10
5.6571220839
 20
10.9267977814
 11
5.9458720839
 21
10.9267977814
  0
LINE
  5
235
100
AcDbEntity
  8
0
100
AcDbLine
 62
7
  6
CONTINUOUS
 10
6.1958720839
 20
10.9267977814
 11
6.4846220839
 21
10.9267977814
  0
LINE
  5
236
100
AcDbEntity
  8
0
100
AcDbLine
 62
7
  6
CONTINUOUS
 10
5.9958720839
 20
11.0267977814
 11
6.1458720839
 21
11.0267977814
  0
LINE
  5
237
100
AcDbEntity
  8
0
100
AcDbLine
 62
7
  6
CONTINUOUS
 10
5.6181220839
 20
14.2342977814
 11
5.6181220839
 21
10.9657977814
  0
LINE
  5
238
100
AcDbEntity
  8
0
100
AcDbLine
 62
7
  6
CONTINUOUS
 10
5.9958720839
 20
10.9767977814
 11
5.9958720839
 21
14.2232977814
  0
LINE
  5
239
100
AcDbEntity
  8
0
100
AcDbLine
 62
7
  6
CONTINUOUS
 10
6.1458720839
 20
14.2232977814
 11
6.1458720839
 21
10.9767977814
  0
LINE
  5
23A
100
AcDbEntity
  8
0
100
AcDbLine
 62
7
  6
CONTINUOUS
 10
6.5236220839
 20
10.9657977814
 11
6.5236220839
 21
14.2342977814
  0
LINE
  5
23B
100
AcDbEntity
  8
0
100
AcDbLine
 62
7
  6
CONTINUOUS
 10
6.1458720839
 20
14.1732977814
 11
5.9958720839
 21
14.1732977814
  0
LINE
  5
23C
100
AcDbEntity
  8
0
100
AcDbLine
 62
7
  6
CONTINUOUS
 10
6.4846220839
 20
14.2732977814
 11
6.1958720839
 21
14.2732977814
  0
LINE
  5
23D
100
AcDbEntity
  8
0
100
AcDbLine
 62
7
  6
CONTINUOUS
 10
5.9458720839
 20
14.2732977814
 11
5.6571220839
 21
14.2732977814
  0
LINE
  5
23E
100
AcDbEntity
  8
03__ASM_ALL_CURVES
100
AcDbLine
 62
7
  6
CONTINUOUS
 10
15.5603552569
 20
6.7625750704
 11
15.5603552569
 21
6.7125427872
  0
LINE
  5
23F
100
AcDbEntity
  8
03__ASM_ALL_CURVES
100
AcDbLine
 62
7
  6
CONTINUOUS
 10
15.5603552569
 20
4.1625750704
 11
15.5603552569
 21
4.2126073536
  0
LINE
  5
240
100
AcDbEntity
  8
0
100
AcDbLine
 62
7
  6
CONTINUOUS
 10
15.8522014547
 20
10.8375549929
 11
15.5862450927
 21
10.8375549929
  0
LINE
  5
241
100
AcDbEntity
  8
0
100
AcDbLine
 62
7
  6
CONTINUOUS
 10
15.3559798442
 20
10.8375549929
 11
15.0900234822
 21
10.8375549929
  0
LINE
  5
242
100
AcDbEntity
  8
0
100
AcDbLine
 62
7
  6
CONTINUOUS
 10
15.8881228335
 20
11.2608049929
 11
15.846421797
 21
11.2608049929
  0
LINE
  5
243
100
AcDbEntity
  8
03__ASM_ALL_CURVES
100
AcDbLine
 62
7
  6
CONTINUOUS
 10
16.2846772601
 20
11.7027120342
 11
16.2626132108
 21
11.7147528413
  0
LINE
  5
244
100
AcDbEntity
  8
0
100
AcDbLine
 62
7
  6
CONTINUOUS
 10
15.8881228335
 20
13.7608049929
 11
15.846421797
 21
13.7608049929
  0
LINE
  5
245
100
AcDbEntity
  8
0
100
AcDbLine
 62
7
  6
CONTINUOUS
 10
15.8522014547
 20
14.1840549929
 11
15.5862450927
 21
14.1840549929
  0
LINE
  5
246
100
AcDbEntity
  8
0
100
AcDbLine
 62
7
  6
CONTINUOUS
 10
15.3559798442
 20
14.1840549929
 11
15.0900234822
 21
14.1840549929
  0
ARC
  5
247
100
AcDbEntity
  8
0
100
AcDbCircle
 62
7
  6
CONTINUOUS
 10
6.0053672762
 20
3.8988202627
 40
0.05
100
AcDbArc
 50
270.0
 51
359.9999999999
  0
ARC
  5
248
100
AcDbEntity
  8
0
100
AcDbCircle
 62
7
  6
CONTINUOUS
 10
6.0053672762
 20
7.1453202627
 40
0.05
100
AcDbArc
 50
0.0000000001
 51
90.0
  0
ARC
  5
249
100
AcDbEntity
  8
0
100
AcDbCircle
 62
7
  6
CONTINUOUS
 10
6.2553672762
 20
7.1453202627
 40
0.05
100
AcDbArc
 50
90.0
 51
179.9999999999
  0
ARC
  5
24A
100
AcDbEntity
  8
0
100
AcDbCircle
 62
7
  6
CONTINUOUS
 10
6.2553672762
 20
3.8988202627
 40
0.05
100
AcDbArc
 50
180.0000000001
 51
270.0
  0
ARC
  5
24B
100
AcDbEntity
  8
03__ASM_ALL_CURVES
100
AcDbCircle
 62
40
  6
DOT
 10
5.7166172762
 20
3.8878202627
 40
0.039
100
AcDbArc
 50
179.9999999996
 51
270.0
  0
ARC
  5
24C
100
AcDbEntity
  8
0
100
AcDbCircle
 62
7
  6
CONTINUOUS
 10
6.5441172762
 20
7.1563202627
 40
0.039
100
AcDbArc
 50
0.0
 51
90.0
  0
ARC
  5
24D
100
AcDbEntity
  8
0
100
AcDbCircle
 62
7
  6
CONTINUOUS
 10
6.5441172762
 20
3.8878202627
 40
0.039
100
AcDbArc
 50
270.0
 51
360.0
  0
ARC
  5
24E
100
AcDbEntity
  8
0
100
AcDbCircle
 62
7
  6
CONTINUOUS
 10
5.7166172762
 20
7.1563202627
 40
0.039
100
AcDbArc
 50
90.0
 51
180.0000000004
  0
ARC
  5
24F
100
AcDbEntity
  8
0
100
AcDbCircle
 62
7
  6
CONTINUOUS
 10
5.7166172762
 20
3.8878202627
 40
0.039
100
AcDbArc
 50
179.9999999996
 51
270.0
  0
ARC
  5
250
100
AcDbEntity
  8
0
100
AcDbCircle
 62
7
  6
CONTINUOUS
 10
5.9458720839
 20
14.2232977814
 40
0.05
100
AcDbArc
 50
0.0000000001
 51
90.0
  0
ARC
  5
251
100
AcDbEntity
  8
0
100
AcDbCircle
 62
7
  6
CONTINUOUS
 10
5.9458720839
 20
10.9767977814
 40
0.05
100
AcDbArc
 50
270.0
 51
359.9999999999
  0
ARC
  5
252
100
AcDbEntity
  8
0
100
AcDbCircle
 62
7
  6
CONTINUOUS
 10
6.1958720839
 20
14.2232977814
 40
0.05
100
AcDbArc
 50
90.0
 51
179.9999999999
  0
ARC
  5
253
100
AcDbEntity
  8
0
100
AcDbCircle
 62
7
  6
CONTINUOUS
 10
6.1958720839
 20
10.9767977814
 40
0.05
100
AcDbArc
 50
180.0000000001
 51
270.0
  0
ARC
  5
254
100
AcDbEntity
  8
0
100
AcDbCircle
 62
7
  6
CONTINUOUS
 10
5.6571220839
 20
14.2342977814
 40
0.039
100
AcDbArc
 50
90.0
 51
180.0000000004
  0
ARC
  5
255
100
AcDbEntity
  8
0
100
AcDbCircle
 62
7
  6
CONTINUOUS
 10
5.6571220839
 20
10.9657977814
 40
0.039
100
AcDbArc
 50
179.9999999996
 51
270.0
  0
ARC
  5
256
100
AcDbEntity
  8
0
100
AcDbCircle
 62
7
  6
CONTINUOUS
 10
6.4846220839
 20
10.9657977814
 40
0.039
100
AcDbArc
 50
270.0
 51
360.0
  0
ARC
  5
257
100
AcDbEntity
  8
0
100
AcDbCircle
 62
7
  6
CONTINUOUS
 10
6.4846220839
 20
14.2342977814
 40
0.039
100
AcDbArc
 50
0.0
 51
90.0
  0
CIRCLE
  5
258
100
AcDbEntity
  8
0
100
AcDbCircle
 62
7
  6
CONTINUOUS
 10
15.5603552569
 20
5.4625750704
 40
1.67325
  0
CIRCLE
  5
259
100
AcDbEntity
  8
0
100
AcDbCircle
 62
7
  6
CONTINUOUS
 10
15.5603552569
 20
5.4625750704
 40
1.3
  0
CIRCLE
  5
25A
100
AcDbEntity
  8
0
100
AcDbCircle
 62
7
  6
CONTINUOUS
 10
15.5603552569
 20
5.4625750704
 40
1.25
  0
CIRCLE
  5
25B
100
AcDbEntity
  8
0
100
AcDbCircle
 62
7
  6
CONTINUOUS
 10
15.5603552569
 20
5.4625750704
 40
0.88585
  0
ARC
  5
25C
100
AcDbEntity
  8
0
100
AcDbCircle
 62
7
  6
CONTINUOUS
 10
14.9825324065
 20
13.1700793146
 40
1.4483924173
100
AcDbArc
 50
25.5297291347
 51
26.1376375303
  0
ARC
  5
25D
100
AcDbEntity
  8
0
100
AcDbCircle
 62
7
  6
CONTINUOUS
 10
15.9127865382
 20
11.8284741526
 40
1.3961260431
100
AcDbArc
 50
206.1361899775
 51
207.1794423897
  0
ARC
  5
25E
100
AcDbEntity
  8
0
100
AcDbCircle
 62
7
  6
CONTINUOUS
 10
16.3069056672
 20
12.1191820878
 40
0.7168109962
100
AcDbArc
 50
206.1269357181
 51
207.4270642883
  0
ARC
  5
25F
100
AcDbEntity
  8
0
100
AcDbCircle
 62
7
  6
CONTINUOUS
 10
16.0457783366
 20
13.3051237489
 40
0.5279316543
100
AcDbArc
 50
137.7193623348
 51
141.2619382326
  0
SPLINE
  5
260
100
AcDbEntity
  8
0
100
AcDbSpline
 62
7
  6
CONTINUOUS
 70
0
 71
3
 72
11
 73
7
 74
0
 42
0.0000001
 43
0.0000001
 44
0.0000000001
 40
0.0
 40
0.0
 40
0.0
 40
0.0
 40
0.2481048009
 40
0.4963145145
 40
0.746410241
 40
1.0
 40
1.0
 40
1.0
 40
1.0
 10
15.3559798442
 20
10.8375549929
 30
0.0
 10
15.365783312
 20
10.8375549929
 30
0.0
 10
15.385408118
 20
10.8385303596
 30
0.0
 10
15.4146223201
 20
10.8428918484
 30
0.0
 10
15.4434926442
 20
10.8500849403
 30
0.0
 10
15.4623067669
 20
10.8566717878
 30
0.0
 10
15.4716117554
 20
10.860389521
 30
0.0
  0
SPLINE
  5
261
100
AcDbEntity
  8
0
100
AcDbSpline
 62
7
  6
CONTINUOUS
 70
0
 71
3
 72
48
 73
44
 74
0
 42
0.0000001
 43
0.0000001
 44
0.0000000001
 40
0.0
 40
0.0
 40
0.0
 40
0.0
 40
0.0283417621
 40
0.0584502774
 40
0.0902091628
 40
0.1235021227
 40
0.1581964501
 40
0.1941367478
 40
0.2311565023
 40
0.2690796732
 40
0.307721407
 40
0.3468899846
 40
0.3863890132
 40
0.4260194134
 40
0.4655809204
 40
0.5048737395
 40
0.5437007363
 40
0.5818685123
 40
0.6191900011
 40
0.6554856702
 40
0.6905859207
 40
0.7243334934
 40
0.756585005
 40
0.7872156633
 40
0.8161198758
 40
0.8299007212
 40
0.843222797
 40
0.8560805001
 40
0.8684715876
 40
0.8803962135
 40
0.8918567848
 40
0.9028591579
 40
0.913413737
 40
0.9235345263
 40
0.9332396246
 40
0.9425528624
 40
0.9515039767
 40
0.9601281203
 40
0.9684664731
 40
0.9765670198
 40
0.9844833387
 40
0.9922736595
 40
1.0
 40
1.0
 40
1.0
 40
1.0
 10
16.1907057378
 20
13.4899636299
 30
0.0
 10
16.2008384893
 20
13.4693152533
 30
0.0
 10
16.2203646204
 20
13.4260496395
 30
0.0
 10
16.2467886288
 20
13.3577435877
 30
0.0
 10
16.2710876897
 20
13.2844088492
 30
0.0
 10
16.2931204412
 20
13.2064915615
 30
0.0
 10
16.3127561378
 20
13.1244450705
 30
0.0
 10
16.3298794215
 20
13.0387534902
 30
0.0
 10
16.34438564
 20
12.9499257458
 30
0.0
 10
16.3561881221
 20
12.8584888058
 30
0.0
 10
16.365218369
 20
12.7649853385
 30
0.0
 10
16.3714186388
 20
12.6699706649
 30
0.0
 10
16.3747562765
 20
12.5740099416
 30
0.0
 10
16.3752059726
 20
12.4776735122
 30
0.0
 10
16.3727708956
 20
12.3815341379
 30
0.0
 10
16.3674596563
 20
12.2861634064
 30
0.0
 10
16.3593097801
 20
12.1921279513
 30
0.0
 10
16.3483650989
 20
12.0999867362
 30
0.0
 10
16.3346951688
 20
12.0102866143
 30
0.0
 10
16.3183791207
 20
11.9235602269
 30
0.0
 10
16.2995157722
 20
11.840321436
 30
0.0
 10
16.2782182678
 20
11.7610631542
 30
0.0
 10
16.2546112452
 20
11.686253061
 30
0.0
 10
16.2288389865
 20
11.6163332463
 30
0.0
 10
16.2053194602
 20
11.5616416207
 30
0.0
 10
16.1854737201
 20
11.520743587
 30
0.0
 10
16.1703840505
 20
11.4920313397
 30
0.0
 10
16.1548727707
 20
11.4648352372
 30
0.0
 10
16.138963976
 20
11.4391942815
 30
0.0
 10
16.1226816701
 20
11.4151454871
 30
0.0
 10
16.1060485694
 20
11.392725245
 30
0.0
 10
16.0890873814
 20
11.3719678746
 30
0.0
 10
16.071824345
 20
11.3529022332
 30
0.0
 10
16.0542841572
 20
11.3355561408
 30
0.0
 10
16.0364898492
 20
11.3199577841
 30
0.0
 10
16.0184665099
 20
11.3061312349
 30
0.0
 10
16.0002407369
 20
11.2940960509
 30
0.0
 10
15.9818378465
 20
11.2838721822
 30
0.0
 10
15.9632826534
 20
11.275480998
 30
0.0
 10
15.9446041081
 20
11.2689362214
 30
0.0
 10
15.9258306453
 20
11.2642492783
 30
0.0
 10
15.9069944619
 20
11.2614320764
 30
0.0
 10
15.8943931063
 20
11.2608060658
 30
0.0
 10
15.8881228344
 20
11.2608063938
 30
0.0
  0
SPLINE
  5
262
100
AcDbEntity
  8
0
100
AcDbSpline
 62
7
  6
CONTINUOUS
 70
0
 71
3
 72
11
 73
7
 74
0
 42
0.0000001
 43
0.0000001
 44
0.0000000001
 40
0.0
 40
0.0
 40
0.0
 40
0.0
 40
0.2664252873
 40
0.5220109154
 40
0.766567524
 40
1.0
 40
1.0
 40
1.0
 40
1.0
 10
15.5734366131
 20
11.4924800104
 30
0.0
 10
15.5794242096
 20
11.4802785716
 30
0.0
 10
15.5915975778
 20
11.4565851768
 30
0.0
 10
15.6108724978
 20
11.4225465705
 30
0.0
 10
15.6307417434
 20
11.3908195452
 30
0.0
 10
15.644680653
 20
11.3707968198
 30
0.0
 10
15.6517489938
 20
11.3612131596
 30
0.0
  0
SPLINE
  5
263
100
AcDbEntity
  8
0
100
AcDbSpline
 62
7
  6
CONTINUOUS
 70
0
 71
3
 72
11
 73
7
 74
0
 42
0.0000001
 43
0.0000001
 44
0.0000000001
 40
0.0
 40
0.0
 40
0.0
 40
0.0
 40
0.2535828743
 40
0.5036724484
 40
0.7518822318
 40
1.0
 40
1.0
 40
1.0
 40
1.0
 10
15.4715557138
 20
14.161242878
 30
0.0
 10
15.4622550363
 20
14.1649569339
 30
0.0
 10
15.4434499486
 20
14.1715372458
 30
0.0
 10
15.4145940568
 20
14.1787233858
 30
0.0
 10
15.3853941707
 20
14.1830806447
 30
0.0
 10
15.3657788387
 20
14.1840549929
 30
0.0
 10
15.3559798442
 20
14.1840549929
 30
0.0
  0
SPLINE
  5
264
100
AcDbEntity
  8
0
100
AcDbSpline
 62
7
  6
CONTINUOUS
 70
0
 71
3
 72
9
 73
5
 74
0
 42
0.0000001
 43
0.0000001
 44
0.0000000001
 40
0.0
 40
0.0
 40
0.0
 40
0.0
 40
0.4902903319
 40
1.0
 40
1.0
 40
1.0
 40
1.0
 10
15.1484243506
 20
11.2172424514
 30
0.0
 10
15.1395468404
 20
11.2353329152
 30
0.0
 10
15.1222170642
 20
11.2726152054
 30
0.0
 10
15.1063124383
 20
11.3105247003
 30
0.0
 10
15.0985410959
 20
11.3299794131
 30
0.0
  0
SPLINE
  5
265
100
AcDbEntity
  8
0
100
AcDbSpline
 62
7
  6
CONTINUOUS
 70
0
 71
3
 72
48
 73
44
 74
0
 42
0.0000001
 43
0.0000001
 44
0.0000000001
 40
0.0
 40
0.0
 40
0.0
 40
0.0
 40
0.0303693187
 40
0.0621876338
 40
0.0953675333
 40
0.1297957029
 40
0.1653381698
 40
0.201849781
 40
0.2391771959
 40
0.2771569675
 40
0.3156200138
 40
0.3543919951
 40
0.3932963007
 40
0.4321546163
 40
0.4707893379
 40
0.50902474
 40
0.5466891603
 40
0.5836160431
 40
0.6196469263
 40
0.6546316507
 40
0.688433099
 40
0.7209261796
 40
0.7520050729
 40
0.7815812828
 40
0.8095936532
 40
0.8230023572
 40
0.8360103413
 40
0.8486191845
 40
0.8608322945
 40
0.8726562301
 40
0.8841012951
 40
0.8951807504
 40
0.9059110944
 40
0.91631225
 40
0.9264087245
 40
0.9362305613
 40
0.9458110055
 40
0.9551755954
 40
0.9643520192
 40
0.9733750454
 40
0.9822884866
 40
0.9911444594
 40
1.0
 40
1.0
 40
1.0
 40
1.0
 10
15.0985410959
 20
11.3299794131
 30
0.0
 10
15.0867508725
 20
11.359494959
 30
0.0
 10
15.0641815879
 20
11.4205718587
 30
0.0
 10
15.0339043947
 20
11.515707365
 30
0.0
 10
15.0065081083
 20
11.6161210274
 30
0.0
 10
14.9821119126
 20
11.7213065876
 30
0.0
 10
14.9608410791
 20
11.8307205932
 30
0.0
 10
14.9427970677
 20
11.9437846174
 30
0.0
 10
14.9280764881
 20
12.0598994751
 30
0.0
 10
14.916748735
 20
12.178445026
 30
0.0
 10
14.9088798004
 20
12.2987847079
 30
0.0
 10
14.9045043848
 20
12.4202697631
 30
0.0
 10
14.9036513496
 20
12.5422441121
 30
0.0
 10
14.9063202271
 20
12.6640486028
 30
0.0
 10
14.9125007866
 20
12.7850248276
 30
0.0
 10
14.9221580777
 20
12.904520282
 30
0.0
 10
14.9352426075
 20
13.0218917744
 30
0.0
 10
14.9516870792
 20
13.136510688
 30
0.0
 10
14.9714053037
 20
13.2477665258
 30
0.0
 10
14.994301403
 20
13.355071743
 30
0.0
 10
15.0202584274
 20
13.4578660794
 30
0.0
 10
15.049158356
 20
13.555620069
 30
0.0
 10
15.0808651841
 20
13.6478413795
 30
0.0
 10
15.115250651
 20
13.734072264
 30
0.0
 10
15.1464641386
 20
13.8015511862
 30
0.0
 10
15.1727532296
 20
13.852094743
 30
0.0
 10
15.1927756326
 20
13.887701801
 30
0.0
 10
15.213377874
 20
13.9215203304
 30
0.0
 10
15.2345486751
 20
13.9535112472
 30
0.0
 10
15.2562795371
 20
13.9836362561
 30
0.0
 10
15.2785651714
 20
14.0118579757
 30
0.0
 10
15.3014012489
 20
14.0381397547
 30
0.0
 10
15.3247818812
 20
14.0624462224
 30
0.0
 10
15.3487104252
 20
14.084732951
 30
0.0
 10
15.3731944152
 20
14.10494905
 30
0.0
 10
15.3982377684
 20
14.1230418429
 30
0.0
 10
15.423828489
 20
14.1389496162
 30
0.0
 10
15.4499309271
 20
14.1526068547
 30
0.0
 10
15.476495338
 20
14.1639357656
 30
0.0
 10
15.5034697558
 20
14.1728531126
 30
0.0
 10
15.5308008904
 20
14.1792860492
 30
0.0
 10
15.5584294133
 20
14.1831836763
 30
0.0
 10
15.5769772484
 20
14.1840549929
 30
0.0
 10
15.5862450927
 20
14.1840549929
 30
0.0
  0
SPLINE
  5
266
100
AcDbEntity
  8
0
100
AcDbSpline
 62
7
  6
CONTINUOUS
 70
0
 71
3
 72
23
 73
19
 74
0
 42
0.0000001
 43
0.0000001
 44
0.0000000001
 40
0.0
 40
0.0
 40
0.0
 40
0.0
 40
0.0520845961
 40
0.1042231694
 40
0.1568496667
 40
0.2103468053
 40
0.2650149303
 40
0.3210859464
 40
0.3787549922
 40
0.4382667791
 40
0.49984524
 40
0.5636673442
 40
0.6298839736
 40
0.6986246256
 40
0.7699920878
 40
0.844032231
 40
0.9207176388
 40
1.0
 40
1.0
 40
1.0
 40
1.0
 10
15.5862450927
 20
10.8375549929
 30
0.0
 10
15.5756602516
 20
10.8375549929
 30
0.0
 10
15.5544622288
 20
10.8386929829
 30
0.0
 10
15.5229385313
 20
10.8437777031
 30
0.0
 10
15.4918288895
 20
10.8521571856
 30
0.0
 10
15.4612226549
 20
10.8637453873
 30
0.0
 10
15.4311946946
 20
10.8784183514
 30
0.0
 10
15.4018197118
 20
10.8960573763
 30
0.0
 10
15.3731549606
 20
10.9165622524
 30
0.0
 10
15.3452233967
 20
10.9398378223
 30
0.0
 10
15.3180207845
 20
10.9658014135
 30
0.0
 10
15.2915332208
 20
10.9943767819
 30
0.0
 10
15.2657600397
 20
11.0255088177
 30
0.0
 10
15.24070622
 20
11.0591519724
 30
0.0
 10
15.2163779067
 20
11.0952547496
 30
0.0
 10
15.1927897875
 20
11.133750351
 30
0.0
 10
15.1699679379
 20
11.1745560723
 30
0.0
 10
15.1555224101
 20
11.2027781268
 30
0.0
 10
15.1484243506
 20
11.2172424514
 30
0.0
  0
SPLINE
  5
267
100
AcDbEntity
  8
0
100
AcDbSpline
 62
7
  6
CONTINUOUS
 70
0
 71
3
 72
22
 73
18
 74
0
 42
0.0000001
 43
0.0000001
 44
0.0000000001
 40
0.0
 40
0.0
 40
0.0
 40
0.0
 40
0.0512327048
 40
0.1026092339
 40
0.1545595177
 40
0.2074694598
 40
0.2616589617
 40
0.3173849189
 40
0.4342464525
 40
0.4959168664
 40
0.5599650377
 40
0.6265332726
 40
0.6957403995
 40
0.7676792464
 40
0.8423910233
 40
0.9198476024
 40
1.0
 40
1.0
 40
1.0
 40
1.0
 10
15.8522014547
 20
14.1840549929
 30
0.0
 10
15.8624671374
 20
14.1840549929
 30
0.0
 10
15.8830441842
 20
14.1829474119
 30
0.0
 10
15.9136705336
 20
14.1779979315
 30
0.0
 10
15.9439480217
 20
14.1698288659
 30
0.0
 10
15.9737915836
 20
14.1585103345
 30
0.0
 10
16.0031344124
 20
14.1441446773
 30
0.0
 10
16.0421108297
 20
14.1206964273
 30
0.0
 10
16.0792502653
 20
14.0916586156
 30
0.0
 10
16.1144055671
 20
14.0580664355
 30
0.0
 10
16.1406005951
 20
14.0297774866
 30
0.0
 10
16.1661309089
 20
13.9989098914
 30
0.0
 10
16.1909884543
 20
13.9655066319
 30
0.0
 10
16.215158044
 20
13.9296201677
 30
0.0
 10
16.2386192092
 20
13.8913159942
 30
0.0
 10
16.2613428395
 20
13.8506756469
 30
0.0
 10
16.2757345746
 20
13.8225561136
 30
0.0
 10
16.2828098783
 20
13.8081381606
 30
0.0
  0
SPLINE
  5
268
100
AcDbEntity
  8
0
100
AcDbSpline
 62
7
  6
CONTINUOUS
 70
0
 71
3
 72
50
 73
46
 74
0
 42
0.0000001
 43
0.0000001
 44
0.0000000001
 40
0.0
 40
0.0
 40
0.0
 40
0.0
 40
0.0141010754
 40
0.0286269964
 40
0.0588968082
 40
0.0907080768
 40
0.1239624341
 40
0.1585362653
 40
0.1942830685
 40
0.2310440377
 40
0.2686512544
 40
0.3069260157
 40
0.3456837007
 40
0.3847342695
 40
0.4238853996
 40
0.4629432939
 40
0.5017155228
 40
0.5400118804
 40
0.5776476698
 40
0.6144439201
 40
0.6502316717
 40
0.6848520176
 40
0.718160612
 40
0.7500293943
 40
0.7803500352
 40
0.7949041366
 40
0.8090424311
 40
0.8227583518
 40
0.8360485352
 40
0.8489124432
 40
0.8613513579
 40
0.8733691175
 40
0.8849738039
 40
0.8961768384
 40
0.9069930017
 40
0.9174410303
 40
0.927544572
 40
0.9373329216
 40
0.9468402481
 40
0.9560966657
 40
0.9651341057
 40
0.9739918934
 40
0.9827177791
 40
0.9913670283
 40
1.0
 40
1.0
 40
1.0
 40
1.0
 10
16.2895063707
 20
13.794306558
 30
0.0
 10
16.2960841016
 20
13.7805360576
 30
0.0
 10
16.3090061164
 20
13.7523720003
 30
0.0
 10
16.3339247235
 20
13.6936964472
 30
0.0
 10
16.3632061867
 20
13.6160888134
 30
0.0
 10
16.3949547645
 20
13.5178824715
 30
0.0
 10
16.423627872
 20
13.4138971154
 30
0.0
 10
16.4490851187
 20
13.3047041388
 30
0.0
 10
16.4711833973
 20
13.1909163124
 30
0.0
 10
16.4898061742
 20
13.0731855574
 30
0.0
 10
16.5048445001
 20
12.952187609
 30
0.0
 10
16.5162198755
 20
12.8286214059
 30
0.0
 10
16.5238617163
 20
12.7032039729
 30
0.0
 10
16.5277307897
 20
12.5766651045
 30
0.0
 10
16.5278026179
 20
12.4497423343
 30
0.0
 10
16.524076908
 20
12.3231754959
 30
0.0
 10
16.5165770728
 20
12.1977023891
 30
0.0
 10
16.5053418815
 20
12.0740530733
 30
0.0
 10
16.490440737
 20
11.9529450237
 30
0.0
 10
16.4719513196
 20
11.8350785087
 30
0.0
 10
16.4499829821
 20
11.721130342
 30
0.0
 10
16.4246508373
 20
11.6117509522
 30
0.0
 10
16.3960946645
 20
11.507555958
 30
0.0
 10
16.3644605412
 20
11.4091280479
 30
0.0
 10
16.3352793729
 20
11.3313253814
 30
0.0
 10
16.3104349116
 20
11.2724813574
 30
0.0
 10
16.2913849003
 20
11.230717939
 30
0.0
 10
16.2716835703
 20
11.1907770148
 30
0.0
 10
16.2513493919
 20
11.1527103722
 30
0.0
 10
16.2304005128
 20
11.1165663782
 30
0.0
 10
16.2088538383
 20
11.0823916748
 30
0.0
 10
16.1867246218
 20
11.050230998
 30
0.0
 10
16.1640256296
 20
11.0201272281
 30
0.0
 10
16.1407680196
 20
10.9921215225
 30
0.0
 10
16.1169632734
 20
10.9662539183
 30
0.0
 10
16.0926183211
 20
10.9425676555
 30
0.0
 10
16.0677330543
 20
10.9211132312
 30
0.0
 10
16.0423096457
 20
10.9019417244
 30
0.0
 10
16.0163612595
 20
10.8851123662
 30
0.0
 10
15.9899219804
 20
10.8706868736
 30
0.0
 10
15.9630389855
 20
10.8587371255
 30
0.0
 10
15.9357633515
 20
10.8493414837
 30
0.0
 10
15.9081493758
 20
10.8425702853
 30
0.0
 10
15.8802608235
 20
10.8384714776
 30
0.0
 10
15.8615444582
 20
10.8375549929
 30
0.0
 10
15.8522014547
 20
10.8375549929
 30
0.0
  0
SPLINE
  5
269
100
AcDbEntity
  8
0
100
AcDbSpline
 62
7
  6
CONTINUOUS
 70
0
 71
3
 72
50
 73
46
 74
0
 42
0.0000001
 43
0.0000001
 44
0.0000000001
 40
0.0
 40
0.0
 40
0.0
 40
0.0
 40
0.0086384437
 40
0.0172934225
 40
0.0260260419
 40
0.0348922016
 40
0.0439400664
 40
0.0532092263
 40
0.0627317835
 40
0.0725383039
 40
0.0826632477
 40
0.0931359935
 40
0.1039802079
 40
0.1152145937
 40
0.1268538645
 40
0.1389093506
 40
0.1513889449
 40
0.1642962631
 40
0.1776324175
 40
0.191396677
 40
0.2055853126
 40
0.2201914942
 40
0.2506205414
 40
0.2826010947
 40
0.3160224351
 40
0.3507536326
 40
0.3866477661
 40
0.4235430506
 40
0.4612678274
 40
0.4996404097
 40
0.5384734365
 40
0.5775742207
 40
0.6167479315
 40
0.6557985987
 40
0.6945319635
 40
0.7327562945
 40
0.770285568
 40
0.8069403217
 40
0.8425519364
 40
0.8769615897
 40
0.9100231003
 40
0.9416165895
 40
0.9716435453
 40
0.9860376021
 40
1.0
 40
1.0
 40
1.0
 40
1.0
 10
15.0900234822
 20
14.1840549929
 30
0.0
 10
15.0806303187
 20
14.1840549929
 30
0.0
 10
15.0618130643
 20
14.183128644
 30
0.0
 10
15.0337760043
 20
14.1789857825
 30
0.0
 10
15.0060175002
 20
14.1721421704
 30
0.0
 10
14.9786021582
 20
14.1626467197
 30
0.0
 10
14.9515848394
 20
14.1505714153
 30
0.0
 10
14.9250173745
 20
14.1359957761
 30
0.0
 10
14.8989473863
 20
14.1189925647
 30
0.0
 10
14.8734089486
 20
14.0996243191
 30
0.0
 10
14.8484148379
 20
14.0779510127
 30
0.0
 10
14.8239670908
 20
14.0540243632
 30
0.0
 10
14.8000655603
 20
14.0278955854
 30
0.0
 10
14.776717721
 20
13.9996082016
 30
0.0
 10
14.7539352173
 20
13.969202964
 30
0.0
 10
14.7317294986
 20
13.9367217394
 30
0.0
 10
14.710113684
 20
13.9022082365
 30
0.0
 10
14.6891034337
 20
13.8657080636
 30
0.0
 10
14.6687160009
 20
13.8272687629
 30
0.0
 10
14.6489699651
 20
13.7869397285
 30
0.0
 10
14.629884087
 20
13.744773955
 30
0.0
 10
14.6050037067
 20
13.68536845
 30
0.0
 10
14.5758037981
 20
13.6068369716
 30
0.0
 10
14.5441876018
 20
13.5075095464
 30
0.0
 10
14.5156927259
 20
13.4023899151
 30
0.0
 10
14.4904658522
 20
13.2920728643
 30
0.0
 10
14.4686488265
 20
13.1771864202
 30
0.0
 10
14.4503567936
 20
13.0583938209
 30
0.0
 10
14.4356993104
 20
12.9363849218
 30
0.0
 10
14.4247541384
 20
12.811872961
 30
0.0
 10
14.4175886309
 20
12.6855884567
 30
0.0
 10
14.4142417076
 20
12.5582741336
 30
0.0
 10
14.4147329011
 20
12.4306801907
 30
0.0
 10
14.4190614883
 20
12.3035583424
 30
0.0
 10
14.4271983053
 20
12.1776572947
 30
0.0
 10
14.4391021097
 20
12.0537174349
 30
0.0
 10
14.4546980844
 20
11.932465157
 30
0.0
 10
14.4739033598
 20
11.8146078614
 30
0.0
 10
14.496606387
 20
11.7008289223
 30
0.0
 10
14.5226833769
 20
11.5917862992
 30
0.0
 10
14.5519904526
 20
11.4880958799
 30
0.0
 10
14.5843816703
 20
11.3903323988
 30
0.0
 10
14.614219178
 20
11.3132049979
 30
0.0
 10
14.6395829251
 20
11.2549999716
 30
0.0
 10
14.6527266253
 20
11.2271014194
 30
0.0
 10
14.6594150587
 20
11.2134718252
 30
0.0
  0
SPLINE
  5
26A
100
AcDbEntity
  8
0
100
AcDbSpline
 62
7
  6
CONTINUOUS
 70
0
 71
3
 72
22
 73
18
 74
0
 42
0.0000001
 43
0.0000001
 44
0.0000000001
 40
0.0
 40
0.0
 40
0.0
 40
0.0
 40
0.0795788996
 40
0.156498848
 40
0.2307203814
 40
0.3022392229
 40
0.3711218922
 40
0.4374651963
 40
0.5013898292
 40
0.5630369558
 40
0.6801576565
 40
0.7361442006
 40
0.7906667695
 40
0.8439763185
 40
0.8963826199
 40
0.9482545761
 40
1.0
 40
1.0
 40
1.0
 40
1.0
 10
14.6708202834
 20
11.1907534063
 30
0.0
 10
14.6777976713
 20
11.1771690314
 30
0.0
 10
14.6919724753
 20
11.1506833901
 30
0.0
 10
14.7142970541
 20
11.1124353206
 30
0.0
 10
14.7372977902
 20
11.076409911
 30
0.0
 10
14.7609520954
 20
11.0426758248
 30
0.0
 10
14.785243442
 20
11.011285818
 30
0.0
 10
14.8101603026
 20
10.982284618
 30
0.0
 10
14.8356947933
 20
10.9557113714
 30
0.0
 10
14.8699590199
 20
10.9241412555
 30
0.0
 10
14.906079293
 20
10.8968996535
 30
0.0
 10
14.9438844239
 20
10.8749298347
 30
0.0
 10
14.9723388331
 20
10.8614666048
 30
0.0
 10
15.0012519937
 20
10.8508672294
 30
0.0
 10
15.0305625156
 20
10.843221644
 30
0.0
 10
15.0601934459
 20
10.8385908991
 30
0.0
 10
15.0800933243
 20
10.8375549929
 30
0.0
 10
15.0900234822
 20
10.8375549929
 30
0.0
  0
SPLINE
  5
26B
100
AcDbEntity
  8
0
100
AcDbSpline
 62
7
  6
CONTINUOUS
 70
0
 71
3
 72
39
 73
35
 74
0
 42
0.0000001
 43
0.0000001
 44
0.0000000001
 40
0.0
 40
0.0
 40
0.0
 40
0.0
 40
0.0215462627
 40
0.0444530412
 40
0.0687151898
 40
0.0943067494
 40
0.1211885493
 40
0.1493072925
 40
0.1785986267
 40
0.2089894964
 40
0.2403969157
 40
0.2727326736
 40
0.305900421
 40
0.3397999755
 40
0.3743257779
 40
0.4093687222
 40
0.4448170004
 40
0.4805558565
 40
0.516469524
 40
0.5524408117
 40
0.5883522945
 40
0.6240871584
 40
0.6595291315
 40
0.6945639888
 40
0.7290796386
 40
0.7629668076
 40
0.7961211628
 40
0.8284413148
 40
0.8598319272
 40
0.8902020962
 40
0.9194725025
 40
0.9475740838
 40
0.9744392556
 40
1.0
 40
1.0
 40
1.0
 40
1.0
 10
15.651749079
 20
13.6603964155
 30
0.0
 10
15.6421941559
 20
13.6474404872
 30
0.0
 10
15.6234630673
 20
13.6199770098
 30
0.0
 10
15.5972445762
 20
13.575803851
 30
0.0
 10
15.5721461287
 20
13.5275524456
 30
0.0
 10
15.5482565106
 20
13.4754106479
 30
0.0
 10
15.525670606
 20
13.4195727666
 30
0.0
 10
15.5044718279
 20
13.3602521606
 30
0.0
 10
15.4847409605
 20
13.2976744423
 30
0.0
 10
15.4665566475
 20
13.2320780716
 30
0.0
 10
15.4499837953
 20
13.1637145643
 30
0.0
 10
15.4350924246
 20
13.0928447621
 30
0.0
 10
15.4219336742
 20
13.0197410127
 30
0.0
 10
15.4105635473
 20
12.9446830394
 30
0.0
 10
15.4010224666
 20
12.8679591993
 30
0.0
 10
15.3933484238
 20
12.7898637576
 30
0.0
 10
15.3875722598
 20
12.7106965966
 30
0.0
 10
15.3837129362
 20
12.6307617286
 30
0.0
 10
15.3817902804
 20
12.5503660936
 30
0.0
 10
15.3818060738
 20
12.4698185364
 30
0.0
 10
15.3837656305
 20
12.3894283977
 30
0.0
 10
15.3876571656
 20
12.3095044442
 30
0.0
 10
15.3934680397
 20
12.2303535667
 30
0.0
 10
15.4011756844
 20
12.1522798843
 30
0.0
 10
15.4107480235
 20
12.0755829622
 30
0.0
 10
15.4221524105
 20
12.000557353
 30
0.0
 10
15.4353394956
 20
11.9274900991
 30
0.0
 10
15.4502646521
 20
11.8566623595
 30
0.0
 10
15.4668638907
 20
11.7883461049
 30
0.0
 10
15.4850765819
 20
11.7228028408
 30
0.0
 10
15.5048333594
 20
11.6602794775
 30
0.0
 10
15.5260603315
 20
11.6010118412
 30
0.0
 10
15.5486735603
 20
11.5452386022
 30
0.0
 10
15.5650232937
 20
11.5096245527
 30
0.0
 10
15.5734366131
 20
11.4924800104
 30
0.0
  0
SPLINE
  5
26C
100
AcDbEntity
  8
0
100
AcDbSpline
 62
7
  6
CONTINUOUS
 70
0
 71
3
 72
22
 73
18
 74
0
 42
0.0000001
 43
0.0000001
 44
0.0000000001
 40
0.0
 40
0.0
 40
0.0
 40
0.0
 40
0.0409544585
 40
0.083007057
 40
0.1266971956
 40
0.1725719067
 40
0.2211251481
 40
0.2727465746
 40
0.3865478781
 40
0.4492750636
 40
0.5159734693
 40
0.586688142
 40
0.6614290285
 40
0.7401730168
 40
0.8228805378
 40
0.9095065486
 40
1.0
 40
1.0
 40
1.0
 40
1.0
 10
15.8522014547
 20
11.6249549929
 30
0.0
 10
15.8487082888
 20
11.6249549929
 30
0.0
 10
15.8416229657
 20
11.6253211001
 30
0.0
 10
15.8309281564
 20
11.6269922576
 30
0.0
 10
15.8200506213
 20
11.6298429868
 30
0.0
 10
15.8089805992
 20
11.6339221706
 30
0.0
 10
15.7977141668
 20
11.63927497
 30
0.0
 10
15.7819339427
 20
11.6484803536
 30
0.0
 10
15.7663686112
 20
11.6602950149
 30
0.0
 10
15.7511029164
 20
11.6743524991
 30
0.0
 10
15.7392528366
 20
11.686655506
 30
0.0
 10
15.7274376288
 20
11.7003718454
 30
0.0
 10
15.7157030413
 20
11.7154805476
 30
0.0
 10
15.7040907302
 20
11.7319508555
 30
0.0
 10
15.6926455359
 20
11.7497549905
 30
0.0
 10
15.6814046935
 20
11.7688601807
 30
0.0
 10
15.674221509
 20
11.7821545354
 30
0.0
 10
15.6706657282
 20
11.7890052499
 30
0.0
  0
SPLINE
  5
26D
100
AcDbEntity
  8
0
100
AcDbSpline
 62
7
  6
CONTINUOUS
 70
0
 71
3
 72
34
 73
30
 74
0
 42
0.0000001
 43
0.0000001
 44
0.0000000001
 40
0.0
 40
0.0
 40
0.0
 40
0.0
 40
0.025485229
 40
0.0524504899
 40
0.0808144324
 40
0.1104878334
 40
0.141374836
 40
0.1733736009
 40
0.2402599666
 40
0.3102338486
 40
0.3460769577
 40
0.38232015
 40
0.4188350814
 40
0.4554916241
 40
0.5287013829
 40
0.6009129965
 40
0.6711031035
 40
0.7051337298
 40
0.7382937176
 40
0.7704691149
 40
0.8015512652
 40
0.8314360524
 40
0.8600270556
 40
0.8872338394
 40
0.9129742912
 40
0.9371749699
 40
0.9597745124
 40
0.980726311
 40
1.0
 40
1.0
 40
1.0
 40
1.0
 10
15.66333795
 20
11.8035262662
 30
0.0
 10
15.6574208533
 20
11.8155840416
 30
0.0
 10
15.6459080897
 20
11.8407300539
 30
0.0
 10
15.6299923465
 20
11.8802497759
 30
0.0
 10
15.6150278975
 20
11.9224884175
 30
0.0
 10
15.6010963046
 20
11.9672463808
 30
0.0
 10
15.5882685312
 20
12.0143209233
 30
0.0
 10
15.5724964536
 20
12.0808816785
 30
0.0
 10
15.5560911362
 20
12.1684075381
 30
0.0
 10
15.5443591858
 20
12.258713651
 30
0.0
 10
15.5376161577
 20
12.3332855634
 30
0.0
 10
15.5339224469
 20
12.390408363
 30
0.0
 10
15.5316530057
 20
12.4480343113
 30
0.0
 10
15.5305345924
 20
12.5251793266
 30
0.0
 10
15.5327056794
 20
12.6211580466
 30
0.0
 10
15.5409511278
 20
12.7345374567
 30
0.0
 10
15.5525153759
 20
12.8268506431
 30
0.0
 10
15.5645500331
 20
12.89825533
 30
0.0
 10
15.5747675805
 20
12.9496257353
 30
0.0
 10
15.5862219539
 20
12.9991412128
 30
0.0
 10
15.5988536248
 20
13.0465864562
 30
0.0
 10
15.6126064091
 20
13.0917488106
 30
0.0
 10
15.6274005685
 20
13.1344262099
 30
0.0
 10
15.6431627218
 20
13.1744185601
 30
0.0
 10
15.6597943551
 20
13.2115375338
 30
0.0
 10
15.6771889557
 20
13.2456026111
 30
0.0
 10
15.6952315573
 20
13.2764417478
 30
0.0
 10
15.7137673267
 20
13.3039068604
 30
0.0
 10
15.7269146006
 20
13.3205718692
 30
0.0
 10
15.7335503002
 20
13.328262585
 30
0.0
  0
SPLINE
  5
26E
100
AcDbEntity
  8
0
100
AcDbSpline
 62
7
  6
CONTINUOUS
 70
0
 71
3
 72
15
 73
11
 74
0
 42
0.0000001
 43
0.0000001
 44
0.0000000001
 40
0.0
 40
0.0
 40
0.0
 40
0.0
 40
0.1622502253
 40
0.311916675
 40
0.4494577723
 40
0.5758852073
 40
0.6923320022
 40
0.8003773725
 40
0.9021980302
 40
1.0
 40
1.0
 40
1.0
 40
1.0
 10
15.7335503002
 20
13.328262585
 30
0.0
 10
15.7385372654
 20
13.3340424326
 30
0.0
 10
15.7484961457
 20
13.3448425502
 30
0.0
 10
15.7640103017
 20
13.3592473411
 30
0.0
 10
15.779404081
 20
13.3712005446
 30
0.0
 10
15.7945691329
 20
13.3807662589
 30
0.0
 10
15.8094358061
 20
13.3880305338
 30
0.0
 10
15.823978477
 20
13.3930793169
 30
0.0
 10
15.8381955435
 20
13.3960152205
 30
0.0
 10
15.8475998546
 20
13.3966549929
 30
0.0
 10
15.8522014547
 20
13.3966549929
 30
0.0
  0
SPLINE
  5
26F
100
AcDbEntity
  8
0
100
AcDbSpline
 62
7
  6
CONTINUOUS
 70
0
 71
3
 72
23
 73
19
 74
0
 42
0.0000001
 43
0.0000001
 44
0.0000000001
 40
0.0
 40
0.0
 40
0.0
 40
0.0
 40
0.0478958518
 40
0.0962579628
 40
0.1455374085
 40
0.1961541626
 40
0.2484855953
 40
0.3028647637
 40
0.3595753862
 40
0.4188462331
 40
0.4808628245
 40
0.5457734258
 40
0.6136885841
 40
0.6846878993
 40
0.7588264493
 40
0.8361167082
 40
0.9165248262
 40
1.0
 40
1.0
 40
1.0
 40
1.0
 10
15.8881228326
 20
13.760803592
 30
0.0
 10
15.894933298
 20
13.7608032357
 30
0.0
 10
15.9086316905
 20
13.7600620623
 30
0.0
 10
15.929094646
 20
13.7567386714
 30
0.0
 10
15.9494755575
 20
13.7512069157
 30
0.0
 10
15.9697321397
 20
13.7434835346
 30
0.0
 10
15.9898300872
 20
13.7335900678
 30
0.0
 10
16.0097339048
 20
13.7215457417
 30
0.0
 10
16.0294090905
 20
13.7073738922
 30
0.0
 10
16.0488256487
 20
13.6911060795
 30
0.0
 10
16.0679516158
 20
13.6727720731
 30
0.0
 10
16.0867534884
 20
13.6524019335
 30
0.0
 10
16.1052023536
 20
13.630031865
 30
0.0
 10
16.1232694539
 20
13.6056992569
 30
0.0
 10
16.1409223759
 20
13.5794436301
 30
0.0
 10
16.15812934
 20
13.5513140767
 30
0.0
 10
16.1748595064
 20
13.521369633
 30
0.0
 10
16.1854766703
 20
13.5006193491
 30
0.0
 10
16.1907057378
 20
13.4899636299
 30
0.0
  0
SPLINE
  5
270
100
AcDbEntity
  8
0
100
AcDbSpline
 62
7
  6
CONTINUOUS
 70
0
 71
3
 72
35
 73
31
 74
0
 42
0.0000001
 43
0.0000001
 44
0.0000000001
 40
0.0
 40
0.0
 40
0.0
 40
0.0
 40
0.0858037243
 40
0.1266291946
 40
0.1660439629
 40
0.2040416967
 40
0.2406360459
 40
0.2758505963
 40
0.3097171708
 40
0.3422779771
 40
0.3735880292
 40
0.4037144638
 40
0.4327377798
 40
0.487841942
 40
0.5142095603
 40
0.5399641289
 40
0.5652661666
 40
0.5902879173
 40
0.6152081436
 40
0.6402083802
 40
0.6654685522
 40
0.6911611257
 40
0.7174477775
 40
0.7444774718
 40
0.772383697
 40
0.8012817696
 40
0.8624081053
 40
0.8948204409
 40
0.928532898
 40
1.0
 40
1.0
 40
1.0
 40
1.0
 10
16.2028090539
 20
13.5291299754
 30
0.0
 10
16.1935579097
 20
13.5479818253
 30
0.0
 10
16.1791100649
 20
13.5754297227
 30
0.0
 10
16.158381116
 20
13.6103897749
 30
0.0
 10
16.1427383326
 20
13.6347429109
 30
0.0
 10
16.1267622188
 20
13.6576270272
 30
0.0
 10
16.1104750362
 20
13.6790133823
 30
0.0
 10
16.0938972426
 20
13.6988764204
 30
0.0
 10
16.0770484539
 20
13.7171912576
 30
0.0
 10
16.0599477687
 20
13.7339335627
 30
0.0
 10
16.0426186869
 20
13.7490828625
 30
0.0
 10
16.0250801171
 20
13.7626206485
 30
0.0
 10
16.0018581312
 20
13.7782203743
 30
0.0
 10
15.9778452477
 20
13.790926195
 30
0.0
 10
15.9532962759
 20
13.8002728134
 30
0.0
 10
15.9350548966
 20
13.805492398
 30
0.0
 10
15.9167451918
 20
13.8090090713
 30
0.0
 10
15.8983931279
 20
13.8108202224
 30
0.0
 10
15.8800257578
 20
13.8109226863
 30
0.0
 10
15.8616702461
 20
13.8093141682
 30
0.0
 10
15.8433543807
 20
13.8059959418
 30
0.0
 10
15.8251042054
 20
13.8009780081
 30
0.0
 10
15.8069446602
 20
13.7942697292
 30
0.0
 10
15.7889007417
 20
13.7858805085
 30
0.0
 10
15.7709958322
 20
13.7758222594
 30
0.0
 10
15.7468895126
 20
13.7599146287
 30
0.0
 10
15.7236070742
 20
13.7409064603
 30
0.0
 10
15.7012091567
 20
13.7192544262
 30
0.0
 10
15.6782545008
 20
13.6945984709
 30
0.0
 10
15.6621305012
 20
13.6744730291
 30
0.0
 10
15.651749079
 20
13.6603964155
 30
0.0
  0
SPLINE
  5
271
100
AcDbEntity
  8
0
100
AcDbSpline
 62
7
  6
CONTINUOUS
 70
0
 71
3
 72
47
 73
43
 74
0
 42
0.0000001
 43
0.0000001
 44
0.0000000001
 40
0.0
 40
0.0
 40
0.0
 40
0.0
 40
0.0078564021
 40
0.015917387
 40
0.0242279463
 40
0.0328276715
 40
0.0510181534
 40
0.0606720337
 40
0.070722327
 40
0.081184638
 40
0.0920705177
 40
0.1033874109
 40
0.115140126
 40
0.1273312141
 40
0.1399600728
 40
0.1530236237
 40
0.1665173553
 40
0.180435224
 40
0.194768697
 40
0.224640019
 40
0.2560421695
 40
0.2888632772
 40
0.322977631
 40
0.3582454884
 40
0.3945169699
 40
0.4316328205
 40
0.469426657
 40
0.5077265435
 40
0.54635624
 40
0.5851370099
 40
0.6238887924
 40
0.6624317341
 40
0.7005878515
 40
0.7381820032
 40
0.7750437139
 40
0.8110089042
 40
0.8459216007
 40
0.8796344678
 40
0.9120101806
 40
0.9429315788
 40
0.9722959661
 40
1.0
 40
1.0
 40
1.0
 40
1.0
 10
15.3393027477
 20
14.0757848011
 30
0.0
 10
15.3317050989
 20
14.0737768595
 30
0.0
 10
15.3164889933
 20
14.0690072818
 30
0.0
 10
15.2940477357
 20
14.0597887418
 30
0.0
 10
15.2717642312
 20
14.0484448345
 30
0.0
 10
15.2417495964
 20
14.0301758826
 30
0.0
 10
15.2127325309
 20
14.0079027403
 30
0.0
 10
15.1848220261
 20
13.9822383452
 30
0.0
 10
15.1637714009
 20
13.9605964551
 30
0.0
 10
15.1430535966
 20
13.9369758394
 30
0.0
 10
15.1226936991
 20
13.9114062031
 30
0.0
 10
15.1027174157
 20
13.8839249043
 30
0.0
 10
15.0831512626
 20
13.854568719
 30
0.0
 10
15.0640234788
 20
13.8233758359
 30
0.0
 10
15.045358775
 20
13.7903893719
 30
0.0
 10
15.0271811774
 20
13.7556551605
 30
0.0
 10
15.0095159629
 20
13.7192197992
 30
0.0
 10
14.9923887202
 20
13.6811316271
 30
0.0
 10
14.9699903977
 20
13.6274747751
 30
0.0
 10
14.9435787573
 20
13.5565740647
 30
0.0
 10
14.9148030278
 20
13.4669308748
 30
0.0
 10
14.8886741564
 20
13.3720731062
 30
0.0
 10
14.8653400663
 20
13.2725170171
 30
0.0
 10
14.8449256414
 20
13.1688038068
 30
0.0
 10
14.8275442724
 20
13.0614985647
 30
0.0
 10
14.8132920375
 20
12.9511862443
 30
0.0
 10
14.8022451649
 20
12.8384690712
 30
0.0
 10
14.7944680566
 20
12.723962101
 30
0.0
 10
14.7899986671
 20
12.6082908553
 30
0.0
 10
14.7888673129
 20
12.492086979
 30
0.0
 10
14.7910740487
 20
12.3759853076
 30
0.0
 10
14.796612869
 20
12.2606201064
 30
0.0
 10
14.8054476882
 20
12.1466213057
 30
0.0
 10
14.8175346697
 20
12.0346118465
 30
0.0
 10
14.8328034908
 20
11.9252028992
 30
0.0
 10
14.8511724944
 20
11.8189910974
 30
0.0
 10
14.8725409326
 20
11.7165554887
 30
0.0
 10
14.8967890072
 20
11.6184551352
 30
0.0
 10
14.9237858373
 20
11.5252220026
 30
0.0
 10
14.953384363
 20
11.4373546669
 30
0.0
 10
14.9854259988
 20
11.3553445802
 30
0.0
 10
15.008993974
 20
11.3033133769
 30
0.0
 10
15.0212020506
 20
11.2784359323
 30
0.0
  0
SPLINE
  5
272
100
AcDbEntity
  8
0
100
AcDbSpline
 62
7
  6
CONTINUOUS
 70
0
 71
3
 72
21
 73
17
 74
0
 42
0.0000001
 43
0.0000001
 44
0.0000000001
 40
0.0
 40
0.0
 40
0.0
 40
0.0
 40
0.1586092941
 40
0.2341077715
 40
0.3070202999
 40
0.3773377326
 40
0.4450854525
 40
0.5103046934
 40
0.5730515474
 40
0.6334015127
 40
0.691451945
 40
0.8010955911
 40
0.8530649194
 40
0.9033782588
 40
0.9522694302
 40
1.0
 40
1.0
 40
1.0
 40
1.0
 10
15.0212020506
 20
11.2784359323
 30
0.0
 10
15.0323016539
 20
11.255817319
 30
0.0
 10
15.049630232
 20
11.2228768446
 30
0.0
 10
15.0744760508
 20
11.1809010063
 30
0.0
 10
15.0932253868
 20
11.1516389608
 30
0.0
 10
15.1123715516
 20
11.1241218055
 30
0.0
 10
15.1318884861
 20
11.0983830154
 30
0.0
 10
15.1517525674
 20
11.074452862
 30
0.0
 10
15.1719405155
 20
11.052361973
 30
0.0
 10
15.192430922
 20
11.032136474
 30
0.0
 10
15.2195935102
 20
11.0081518327
 30
0.0
 10
15.2477795126
 20
10.9873819278
 30
0.0
 10
15.2768720053
 20
10.9703924054
 30
0.0
 10
15.2984767177
 20
10.9598515189
 30
0.0
 10
15.3202223241
 20
10.9513039859
 30
0.0
 10
15.3349489079
 20
10.9469002601
 30
0.0
 10
15.3423019813
 20
10.945050936
 30
0.0
  0
SPLINE
  5
273
100
AcDbEntity
  8
0
100
AcDbSpline
 62
7
  6
CONTINUOUS
 70
0
 71
3
 72
48
 73
44
 74
0
 42
0.0000001
 43
0.0000001
 44
0.0000000001
 40
0.0
 40
0.0
 40
0.0
 40
0.0
 40
0.0283417621
 40
0.0584502774
 40
0.0902091628
 40
0.1235021227
 40
0.1581964501
 40
0.1941367478
 40
0.2311565023
 40
0.2690796732
 40
0.307721407
 40
0.3468899846
 40
0.3863890132
 40
0.4260194134
 40
0.4655809204
 40
0.5048737395
 40
0.5437007363
 40
0.5818685123
 40
0.6191900011
 40
0.6554856702
 40
0.6905859207
 40
0.7243334934
 40
0.756585005
 40
0.7872156633
 40
0.8161198758
 40
0.8299007212
 40
0.843222797
 40
0.8560805001
 40
0.8684715876
 40
0.8803962135
 40
0.8918567848
 40
0.9028591579
 40
0.913413737
 40
0.9235345263
 40
0.9332396246
 40
0.9425528624
 40
0.9515039767
 40
0.9601281203
 40
0.9684664731
 40
0.9765670198
 40
0.9844833387
 40
0.9922736595
 40
1.0
 40
1.0
 40
1.0
 40
1.0
 10
15.5855399293
 20
11.5316463559
 30
0.0
 10
15.5754071777
 20
11.5522947325
 30
0.0
 10
15.5558810466
 20
11.5955603463
 30
0.0
 10
15.5294570382
 20
11.6638663981
 30
0.0
 10
15.5051579773
 20
11.7372011366
 30
0.0
 10
15.4831252258
 20
11.8151184243
 30
0.0
 10
15.4634895292
 20
11.8971649153
 30
0.0
 10
15.4463662456
 20
11.9828564956
 30
0.0
 10
15.431860027
 20
12.07168424
 30
0.0
 10
15.4200575449
 20
12.1631211801
 30
0.0
 10
15.411027298
 20
12.2566246473
 30
0.0
 10
15.4048270282
 20
12.3516393209
 30
0.0
 10
15.4014893905
 20
12.4476000442
 30
0.0
 10
15.4010396944
 20
12.5439364736
 30
0.0
 10
15.4034747715
 20
12.6400758479
 30
0.0
 10
15.4087860107
 20
12.7354465794
 30
0.0
 10
15.4169358869
 20
12.8294820345
 30
0.0
 10
15.4278805681
 20
12.9216232496
 30
0.0
 10
15.4415504982
 20
13.0113233715
 30
0.0
 10
15.4578665464
 20
13.0980497589
 30
0.0
 10
15.4767298948
 20
13.1812885498
 30
0.0
 10
15.4980273992
 20
13.2605468316
 30
0.0
 10
15.5216344218
 20
13.3353569248
 30
0.0
 10
15.5474066806
 20
13.4052767396
 30
0.0
 10
15.5709262068
 20
13.4599683651
 30
0.0
 10
15.5907719469
 20
13.5008663988
 30
0.0
 10
15.6058616165
 20
13.5295786461
 30
0.0
 10
15.6213728963
 20
13.5567747486
 30
0.0
 10
15.637281691
 20
13.5824157043
 30
0.0
 10
15.6535639969
 20
13.6064644987
 30
0.0
 10
15.6701970976
 20
13.6288847408
 30
0.0
 10
15.6871582856
 20
13.6496421112
 30
0.0
 10
15.704421322
 20
13.6687077526
 30
0.0
 10
15.7219615098
 20
13.6860538451
 30
0.0
 10
15.7397558178
 20
13.7016522017
 30
0.0
 10
15.7577791571
 20
13.7154787509
 30
0.0
 10
15.7760049301
 20
13.7275139349
 30
0.0
 10
15.7944078205
 20
13.7377378036
 30
0.0
 10
15.8129630136
 20
13.7461289879
 30
0.0
 10
15.831641559
 20
13.7526737644
 30
0.0
 10
15.8504150217
 20
13.7573607075
 30
0.0
 10
15.8692512051
 20
13.7601779094
 30
0.0
 10
15.8818525607
 20
13.76080392
 30
0.0
 10
15.8881228326
 20
13.760803592
 30
0.0
  0
SPLINE
  5
274
100
AcDbEntity
  8
0
100
AcDbSpline
 62
7
  6
CONTINUOUS
 70
0
 71
3
 72
59
 73
55
 74
0
 42
0.0000001
 43
0.0000001
 44
0.0000000001
 40
0.0
 40
0.0
 40
0.0
 40
0.0
 40
0.0120473681
 40
0.0235133988
 40
0.0344182985
 40
0.0447905994
 40
0.0546674423
 40
0.0640957196
 40
0.0731347446
 40
0.0818552107
 40
0.0903380815
 40
0.0986738065
 40
0.106958723
 40
0.1152913266
 40
0.1237681971
 40
0.1324796127
 40
0.1415073414
 40
0.1509223135
 40
0.1607834264
 40
0.1711391782
 40
0.1820275182
 40
0.1934760133
 40
0.2055048304
 40
0.2181268842
 40
0.2313475464
 40
0.245167594
 40
0.2595832374
 40
0.27458516
 40
0.2901611404
 40
0.3062961148
 40
0.3229708101
 40
0.3401639666
 40
0.3578525575
 40
0.376010311
 40
0.4136187079
 40
0.4527514119
 40
0.4931457129
 40
0.5345210247
 40
0.5765846537
 40
0.619034683
 40
0.6615644351
 40
0.7038663899
 40
0.745635578
 40
0.7865741178
 40
0.8263944517
 40
0.86482473
 40
0.8834397408
 40
0.9016135113
 40
0.9193181001
 40
0.9365296276
 40
0.9532257196
 40
0.9693845108
 40
0.9849831486
 40
1.0
 40
1.0
 40
1.0
 40
1.0
 10
15.6517489938
 20
11.3612131596
 30
0.0
 10
15.6584769818
 20
11.3520909689
 30
0.0
 10
15.672075201
 20
11.3346236854
 30
0.0
 10
15.6934467539
 20
11.3102681856
 30
0.0
 10
15.7152446449
 20
11.2884644644
 30
0.0
 10
15.7374235341
 20
11.2692578444
 30
0.0
 10
15.7599390795
 20
11.2526893867
 30
0.0
 10
15.7827504769
 20
11.238803738
 30
0.0
 10
15.8058103429
 20
11.2276349378
 30
0.0
 10
15.8290697172
 20
11.2192111215
 30
0.0
 10
15.852478905
 20
11.213564818
 30
0.0
 10
15.8759801265
 20
11.2107148078
 30
0.0
 10
15.899513219
 20
11.2106677977
 30
0.0
 10
15.9230165927
 20
11.2134300029
 30
0.0
 10
15.9464288745
 20
11.2189895789
 30
0.0
 10
15.9696950631
 20
11.2273216307
 30
0.0
 10
15.9927617838
 20
11.2384041821
 30
0.0
 10
16.0155801698
 20
11.2522052068
 30
0.0
 10
16.038107592
 20
11.2686851174
 30
0.0
 10
16.0602981159
 20
11.287808507
 30
0.0
 10
16.0821074567
 20
11.3095331373
 30
0.0
 10
16.1034960715
 20
11.3338087314
 30
0.0
 10
16.1244193222
 20
11.3605859312
 30
0.0
 10
16.1448332515
 20
11.3898092182
 30
0.0
 10
16.1646995384
 20
11.4214146106
 30
0.0
 10
16.1839755115
 20
11.4553369008
 30
0.0
 10
16.2026188234
 20
11.4915057061
 30
0.0
 10
16.2205937457
 20
11.5298428445
 30
0.0
 10
16.2378613555
 20
11.5702679307
 30
0.0
 10
16.2543826178
 20
11.6126964029
 30
0.0
 10
16.2701256515
 20
11.6570370066
 30
0.0
 10
16.2850564766
 20
11.7031958311
 30
0.0
 10
16.2991407652
 20
11.7510759383
 30
0.0
 10
16.3169628794
 20
11.8178555476
 30
0.0
 10
16.3368351447
 20
11.9049385863
 30
0.0
 10
16.3566190898
 20
12.0133886648
 30
0.0
 10
16.3724380961
 20
12.126066369
 30
0.0
 10
16.384160059
 20
12.2420131023
 30
0.0
 10
16.3916822986
 20
12.3602448136
 30
0.0
 10
16.3949389424
 20
12.4797566136
 30
0.0
 10
16.3939050951
 20
12.5995323964
 30
0.0
 10
16.3885871499
 20
12.7185537947
 30
0.0
 10
16.3790306564
 20
12.8358088816
 30
0.0
 10
16.3653206912
 20
12.9503020556
 30
0.0
 10
16.3475717655
 20
13.0610595646
 30
0.0
 10
16.329354561
 20
13.1503908348
 30
0.0
 10
16.3128143154
 20
13.2192073806
 30
0.0
 10
16.2996376759
 20
13.2687615216
 30
0.0
 10
16.2855840311
 20
13.3166997937
 30
0.0
 10
16.2706845058
 20
13.3629238853
 30
0.0
 10
16.2549689698
 20
13.4073376705
 30
0.0
 10
16.2384692393
 20
13.4498431606
 30
0.0
 10
16.2212291315
 20
13.4903421152
 30
0.0
 10
16.2090333866
 20
13.516446119
 30
0.0
 10
16.2028090539
 20
13.5291299754
 30
0.0
  0
SPLINE
  5
275
100
AcDbEntity
  8
0
100
AcDbSpline
 62
7
  6
CONTINUOUS
 70
0
 71
3
 72
16
 73
12
 74
0
 42
0.0000001
 43
0.0000001
 44
0.0000000001
 40
0.0
 40
0.0
 40
0.0
 40
0.0
 40
0.1466875789
 40
0.2855455309
 40
0.4171565633
 40
0.4804967021
 40
0.5423280898
 40
0.6619304528
 40
0.7771619364
 40
0.8893598562
 40
1.0
 40
1.0
 40
1.0
 40
1.0
 10
15.6551836209
 20
13.6602963826
 30
0.0
 10
15.6625097008
 20
13.6683335699
 30
0.0
 10
15.6773051254
 20
13.6835059825
 30
0.0
 10
15.7005702249
 20
13.7039313642
 30
0.0
 10
15.7205392368
 20
13.7186144433
 30
0.0
 10
15.7366631538
 20
13.7287492886
 30
0.0
 10
15.7524999811
 20
13.7376227281
 30
0.0
 10
15.7725160419
 20
13.7468533946
 30
0.0
 10
15.797022001
 20
13.754886992
 30
0.0
 10
15.8216787963
 20
13.7597264444
 30
0.0
 10
15.838219175
 20
13.7608044211
 30
0.0
 10
15.846421797
 20
13.7608039739
 30
0.0
  0
SPLINE
  5
276
100
AcDbEntity
  8
0
100
AcDbSpline
 62
7
  6
CONTINUOUS
 70
0
 71
3
 72
15
 73
11
 74
0
 42
0.0000001
 43
0.0000001
 44
0.0000000001
 40
0.0
 40
0.0
 40
0.0
 40
0.0
 40
0.1105207236
 40
0.2226122736
 40
0.3377699847
 40
0.4573386448
 40
0.5824828389
 40
0.7141693711
 40
0.8531485709
 40
1.0
 40
1.0
 40
1.0
 40
1.0
 10
15.846421797
 20
11.2608060119
 30
0.0
 10
15.8381729773
 20
11.2608064615
 30
0.0
 10
15.8215383952
 20
11.2618981432
 30
0.0
 10
15.7967417481
 20
11.2667877853
 30
0.0
 10
15.7720995767
 20
11.2749161572
 30
0.0
 10
15.7476839562
 20
11.2862408356
 30
0.0
 10
15.7235554579
 20
11.3007229232
 30
0.0
 10
15.6997743701
 20
11.3183186632
 30
0.0
 10
15.676392606
 20
11.3389689998
 30
0.0
 10
15.6615291522
 20
11.3543032696
 30
0.0
 10
15.6541709003
 20
11.3624264724
 30
0.0
  0
SPLINE
  5
277
100
AcDbEntity
  8
0
100
AcDbSpline
 62
7
  6
CONTINUOUS
 70
0
 71
3
 72
9
 73
5
 74
0
 42
0.0000001
 43
0.0000001
 44
0.0000000001
 40
0.0
 40
0.0
 40
0.0
 40
0.0
 40
0.2447956536
 40
1.0
 40
1.0
 40
1.0
 40
1.0
 10
15.6541709003
 20
11.3624264724
 30
0.0
 10
15.6522192717
 20
11.3645809889
 30
0.0
 10
15.6443259426
 20
11.3734537888
 30
0.0
 10
15.6367447727
 20
11.3826031583
 30
0.0
 10
15.6311856227
 20
11.3896406332
 30
0.0
  0
SPLINE
  5
278
100
AcDbEntity
  8
0
100
AcDbSpline
 62
7
  6
CONTINUOUS
 70
0
 71
3
 72
23
 73
19
 74
0
 42
0.0000001
 43
0.0000001
 44
0.0000000001
 40
0.0
 40
0.0
 40
0.0
 40
0.0
 40
0.0478958518
 40
0.0962579628
 40
0.1455374085
 40
0.1961541626
 40
0.2484855953
 40
0.3028647637
 40
0.3595753862
 40
0.4188462331
 40
0.4808628245
 40
0.5457734258
 40
0.6136885841
 40
0.6846878993
 40
0.7588264493
 40
0.8361167082
 40
0.9165248262
 40
1.0
 40
1.0
 40
1.0
 40
1.0
 10
15.8881228344
 20
11.2608063938
 30
0.0
 10
15.881312369
 20
11.2608067501
 30
0.0
 10
15.8676139765
 20
11.2615479235
 30
0.0
 10
15.847151021
 20
11.2648713145
 30
0.0
 10
15.8267701095
 20
11.2704030701
 30
0.0
 10
15.8065135273
 20
11.2781264512
 30
0.0
 10
15.7864155798
 20
11.2880199181
 30
0.0
 10
15.7665117622
 20
11.3000642441
 30
0.0
 10
15.7468365766
 20
11.3142360936
 30
0.0
 10
15.7274200183
 20
11.3305039063
 30
0.0
 10
15.7082940512
 20
11.3488379127
 30
0.0
 10
15.6894921787
 20
11.3692080523
 30
0.0
 10
15.6710433134
 20
11.3915781208
 30
0.0
 10
15.6529762131
 20
11.4159107289
 30
0.0
 10
15.6353232911
 20
11.4421663557
 30
0.0
 10
15.618116327
 20
11.4702959091
 30
0.0
 10
15.6013861606
 20
11.5002403528
 30
0.0
 10
15.5907689967
 20
11.5209906368
 30
0.0
 10
15.5855399293
 20
11.5316463559
 30
0.0
  0
ENDSEC
  0
SECTION
  2
OBJECTS
  0
DICTIONARY
  5
C
100
AcDbDictionary
280
0
281
1
  3
ACAD_GROUP
350
D
  3
ACAD_MLINESTYLE
350
17
  3
ACAD_LAYOUT
350
1A
  3
ACAD_PLOTSETTINGS
350
19
  3
ACAD_PLOTSTYLENAME
350
E
  0
DICTIONARY
  5
D
102
{ACAD_REACTORS
330
C
102
}
100
AcDbDictionary
280
0
281
1
  0
ACDBDICTIONARYWDFLT
  5
E
102
{ACAD_REACTORS
330
C
102
}
100
AcDbDictionary
281
1
  3
Normal
350
F
100
AcDbDictionaryWithDefault
340
F
  0
DICTIONARY
  5
17
102
{ACAD_REACTORS
330
C
102
}
100
AcDbDictionary
280
0
281
1
  3
Standard
350
18
  0
DICTIONARY
  5
19
102
{ACAD_REACTORS
330
C
102
}
100
AcDbDictionary
281
1
  0
DICTIONARY
  5
1A
102
{ACAD_REACTORS
330
C
102
}
100
AcDbDictionary
281
1
  3
Model
350
279
  3
Layout1
350
27A
  0
ACDBPLACEHOLDER
  5
F
102
{ACAD_REACTORS
330
E
102
}
  0
MLINESTYLE
  5
18
102
{ACAD_REACTORS
330
17
102
}
100
AcDbMlineStyle
  2
STANDARD
 70
0
  3

 62
256
 51
90.0
 52
90.0
 71
2
 49
0.5
 62
256
  6
BYLAYER
 49
-0.5
 62
256
  6
BYLAYER
  0
LAYOUT
  5
279
102
{ACAD_REACTORS
330
1A
102
}
100
AcDbPlotSettings
  1

  2
none_device
  4
ANSI_C_(22.00_x_17.00_Inches)
  6

 40
0.0
 41
0.0
 42
0.0
 43
0.0
 44
558.8
 45
431.8
 46
0.0
 47
0.0
 48
0.0
 49
0.0
140
0.0
141
0.0
142
1.0
143
1.0
 70
1024
 72
0
 73
0
 74
0
  7

 75
0
147
1.0
148
0.0
149
0.0
100
AcDbLayout
  1
Model
 70
0
 71
0
 10
0.0
 20
0.0
 11
22.0
 21
17.0
 12
0.0
 22
0.0
 32
0.0
 14
0.0
 24
0.0
 34
0.0
 15
0.0
 25
0.0
 35
0.0
146
0.0
 13
0.0
 23
0.0
 33
0.0
 16
1.0
 26
0.0
 36
0.0
 17
0.0
 27
1.0
 37
0.0
 76
0
330
222
345
0
346
0
  0
LAYOUT
  5
27A
102
{ACAD_REACTORS
330
1A
102
}
100
AcDbPlotSettings
  1

  2
none_device
  4
ANSI_C_(22.00_x_17.00_Inches)
  6

 40
0.0
 41
0.0
 42
0.0
 43
0.0
 44
558.8
 45
431.8
 46
0.0
 47
0.0
 48
0.0
 49
0.0
140
0.0
141
0.0
142
1.0
143
1.0
 70
0
 72
0
 73
0
 74
0
  7

 75
0
147
1.0
148
0.0
149
0.0
100
AcDbLayout
  1
Layout1
 70
0
 71
1
 10
0.0
 20
0.0
 11
22.0
 21
17.0
 12
0.0
 22
0.0
 32
0.0
 14
0.0
 24
0.0
 34
0.0
 15
0.0
 25
0.0
 35
0.0
146
0.0
 13
0.0
 23
0.0
 33
0.0
 16
1.0
 26
0.0
 36
0.0
 17
0.0
 27
1.0
 37
0.0
 76
0
330
223
345
0
346
0
  0
ENDSEC
  0
EOF