999
DXF file: _cgs_temp_output.dxf
999
Pro/ENGINEER 2016360 by Parametric Technology Corporation
  0
SECTION
  2
HEADER
  9
$ACADVER
  1
AC1021
  9
$DWGCODEPAGE
  3
ANSI_1252
  9
$EXTMAX
 10
22.0
 20
17.0
 30
0.0
  9
$EXTMIN
 10
0.0
 20
0.0
 30
0.0
  9
$LIMMIN
 10
0.0
 20
0.0
  9
$LIMMAX
 10
22.0
 20
17.0
  9
$VIEWCTR
 10
11.0
 20
8.5
  9
$VIEWSIZE
 40
17.0
  9
$CLAYER
  8
0
  9
$LTSCALE
 40
1.21
  9
$CELTYPE
  6
BYLAYER
  9
$DIMSCALE
 40
1.0
  9
$DIMASZ
 40
0.1875
  9
$DIMEXO
 40
0.0625
  9
$DIMDLI
 40
0.836
  9
$DIMEXE
 40
0.125
  9
$DIMCEN
 40
0.198
  9
$DIMLFAC
 40
1.0
  9
$DIMBLK
  1
_CLOSED
  9
$DIMALT
 70
0
  9
$DIMALTF
 40
25.4
  9
$DIMTXT
 40
0.15625
  9
$DIMTOL
 70
0
  9
$DIMLIM
 70
0
  9
$DIMTFAC
 40
1.0
  9
$DIMGAP
 40
0.09
  9
$DIMDSEP
 70
46
  9
$AUNITS
 70
0
  9
$PDMODE
 70
3
  9
$PDSIZE
 40
0.3125
  9
$HANDSEED
  5
2F6
  9
$TILEMODE
 70
1
  9
$MEASUREMENT
 70
0
  9
$INSUNITS
 70
1
  0
ENDSEC
  0
SECTION
  2
CLASSES
  0
CLASS
  1
ACDBDICTIONARYWDFLT
  2
AcDbDictionaryWithDefault
  3
AutoCAD 2000
 90
0
 91
1
280
0
281
0
  0
CLASS
  1
ACDBPLACEHOLDER
  2
AcDbPlaceHolder
  3
AutoCAD 2000
 90
0
 91
1
280
0
281
0
  0
CLASS
  1
LAYOUT
  2
AcDbLayout
  3
AutoCAD 2000
 90
0
 91
0
280
0
281
0
  0
ENDSEC
  0
SECTION
  2
TABLES
  0
TABLE
  2
VPORT
  5
8
100
AcDbSymbolTable
 70
2
  0
VPORT
  5
1F4
100
AcDbSymbolTableRecord
100
AcDbViewportTableRecord
  2
*ACTIVE
 70
0
 10
0.0
 20
0.0
 11
1.0
 21
1.0
 12
11.0
 22
8.5
 13
0.0
 23
0.0
 14
1.0
 24
1.0
 15
0.0
 25
0.0
 16
0.0
 26
0.0
 36
1.0
 17
0.0
 27
0.0
 37
0.0
 40
17.0
 41
1.2941176471
 42
50.0
 43
0.0
 44
0.0
 50
0.0
 51
0.0
 71
0
 72
100
 73
1
 74
1
 75
0
 76
0
 77
0
 78
0
  0
ENDTAB
  0
TABLE
  2
LTYPE
  5
5
100
AcDbSymbolTable
 70
6
  0
LTYPE
  5
14
100
AcDbSymbolTableRecord
100
AcDbLinetypeTableRecord
  2
BYBLOCK
 70
0
  3

 72
65
 73
0
 40
0.0
  0
LTYPE
  5
15
100
AcDbSymbolTableRecord
100
AcDbLinetypeTableRecord
  2
BYLAYER
 70
0
  3

 72
65
 73
0
 40
0.0
  0
LTYPE
  5
16
100
AcDbSymbolTableRecord
100
AcDbLinetypeTableRecord
  2
CONTINUOUS
 70
64
  3
Solid line
 72
65
 73
0
 40
0.0
  0
LTYPE
  5
1F5
100
AcDbSymbolTableRecord
100
AcDbLinetypeTableRecord
  2
CENTER
 70
64
  3
____ _ ____ _ ____ _ ____ _ ____ _ ____ _ ____
 72
65
 73
4
 40
0.6
 49
0.375
 74
0
 49
-0.075
 74
0
 49
0.075
 74
0
 49
-0.075
 74
0
  0
LTYPE
  5
1F6
100
AcDbSymbolTableRecord
100
AcDbLinetypeTableRecord
  2
HIDDEN
 70
64
  3
- - - - - - - - - - - - - - - - - - - -
 72
65
 73
2
 40
0.2
 49
0.1
 74
0
 49
-0.1
 74
0
  0
LTYPE
  5
1F7
100
AcDbSymbolTableRecord
100
AcDbLinetypeTableRecord
  2
PHANTOM
 70
64
  3
_____ _ _ _____ _ _ _____ _ _ _____
 72
65
 73
6
 40
0.8
 49
0.45
 74
0
 49
-0.05
 74
0
 49
0.1
 74
0
 49
-0.05
 74
0
 49
0.1
 74
0
 49
-0.05
 74
0
  0
LTYPE
  5
1F8
100
AcDbSymbolTableRecord
100
AcDbLinetypeTableRecord
  2
DOT
 70
64
  3
. . . . . . . . . . . . . . . . . . . .
 72
65
 73
2
 40
0.2
 49
0.1
 74
0
 49
-0.1
 74
0
  0
LTYPE
  5
1F9
100
AcDbSymbolTableRecord
100
AcDbLinetypeTableRecord
  2
DASHED
 70
64
  3
- - - - - - - - - - - - - - - - - - - -
 72
65
 73
2
 40
0.2
 49
0.1
 74
0
 49
-0.1
 74
0
  0
ENDTAB
  0
TABLE
  2
LAYER
  5
2
100
AcDbSymbolTable
 70
36
  0
LAYER
  5
10
100
AcDbSymbolTableRecord
100
AcDbLayerTableRecord
  2
0
 70
0
 62
7
  6
CONTINUOUS
370
-3
390
F
  0
LAYER
  5
1FA
100
AcDbSymbolTableRecord
100
AcDbLayerTableRecord
  2
DEFAULT_1
 70
0
 62
7
  6
CENTER
370
-3
390
F
  0
LAYER
  5
1FB
100
AcDbSymbolTableRecord
100
AcDbLayerTableRecord
  2
DEFAULT_2
 70
0
 62
8
  6
HIDDEN
370
-3
390
F
  0
LAYER
  5
1FC
100
AcDbSymbolTableRecord
100
AcDbLayerTableRecord
  2
DEFAULT_3
 70
0
 62
7
  6
PHANTOM
370
-3
390
F
  0
LAYER
  5
1FD
100
AcDbSymbolTableRecord
100
AcDbLayerTableRecord
  2
01_ALL_DTM_PLN
 70
0
 62
7
  6
CONTINUOUS
370
-3
390
F
  0
LAYER
  5
1FE
100
AcDbSymbolTableRecord
100
AcDbLayerTableRecord
  2
01__ASM_ALL_DTM_PLN
 70
0
 62
7
  6
CONTINUOUS
370
-3
390
F
  0
LAYER
  5
1FF
100
AcDbSymbolTableRecord
100
AcDbLayerTableRecord
  2
01__ASM_DEF_DTM_PLN
 70
0
 62
7
  6
CONTINUOUS
370
-3
390
F
  0
LAYER
  5
200
100
AcDbSymbolTableRecord
100
AcDbLayerTableRecord
  2
01___PRT_ALL_DTM_PLN
 70
0
 62
7
  6
CONTINUOUS
370
-3
390
F
  0
LAYER
  5
201
100
AcDbSymbolTableRecord
100
AcDbLayerTableRecord
  2
01___PRT_DEF_DTM_PLN
 70
0
 62
7
  6
CONTINUOUS
370
-3
390
F
  0
LAYER
  5
202
100
AcDbSymbolTableRecord
100
AcDbLayerTableRecord
  2
02_ALL_AXES
 70
0
 62
7
  6
CONTINUOUS
370
-3
390
F
  0
LAYER
  5
203
100
AcDbSymbolTableRecord
100
AcDbLayerTableRecord
  2
02__ASM_ALL_AXES
 70
0
 62
7
  6
CONTINUOUS
370
-3
390
F
  0
LAYER
  5
204
100
AcDbSymbolTableRecord
100
AcDbLayerTableRecord
  2
02___PRT_ALL_AXES
 70
0
 62
7
  6
CONTINUOUS
370
-3
390
F
  0
LAYER
  5
205
100
AcDbSymbolTableRecord
100
AcDbLayerTableRecord
  2
03_ALL_CURVES
 70
0
 62
7
  6
CONTINUOUS
370
-3
390
F
  0
LAYER
  5
206
100
AcDbSymbolTableRecord
100
AcDbLayerTableRecord
  2
03__ASM_ALL_CURVES
 70
0
 62
7
  6
CONTINUOUS
370
-3
390
F
  0
LAYER
  5
207
100
AcDbSymbolTableRecord
100
AcDbLayerTableRecord
  2
03___PRT_ALL_CURVES
 70
0
 62
7
  6
CONTINUOUS
370
-3
390
F
  0
LAYER
  5
208
100
AcDbSymbolTableRecord
100
AcDbLayerTableRecord
  2
04_ALL_DTM_PNT
 70
0
 62
7
  6
CONTINUOUS
370
-3
390
F
  0
LAYER
  5
209
100
AcDbSymbolTableRecord
100
AcDbLayerTableRecord
  2
04__ASM_ALL_DTM_PNT
 70
0
 62
7
  6
CONTINUOUS
370
-3
390
F
  0
LAYER
  5
20A
100
AcDbSymbolTableRecord
100
AcDbLayerTableRecord
  2
04___PRT_ALL_DTM_PNT
 70
0
 62
7
  6
CONTINUOUS
370
-3
390
F
  0
LAYER
  5
20B
100
AcDbSymbolTableRecord
100
AcDbLayerTableRecord
  2
05_ALL_DTM_CSYS
 70
0
 62
7
  6
CONTINUOUS
370
-3
390
F
  0
LAYER
  5
20C
100
AcDbSymbolTableRecord
100
AcDbLayerTableRecord
  2
05__ASM_ALL_DTM_CSYS
 70
0
 62
7
  6
CONTINUOUS
370
-3
390
F
  0
LAYER
  5
20D
100
AcDbSymbolTableRecord
100
AcDbLayerTableRecord
  2
05__ASM_DEF_DTM_CSYS
 70
0
 62
7
  6
CONTINUOUS
370
-3
390
F
  0
LAYER
  5
20E
100
AcDbSymbolTableRecord
100
AcDbLayerTableRecord
  2
05___PRT_ALL_DTM_CSYS
 70
0
 62
7
  6
CONTINUOUS
370
-3
390
F
  0
LAYER
  5
20F
100
AcDbSymbolTableRecord
100
AcDbLayerTableRecord
  2
05___PRT_DEF_DTM_CSYS
 70
0
 62
7
  6
CONTINUOUS
370
-3
390
F
  0
LAYER
  5
210
100
AcDbSymbolTableRecord
100
AcDbLayerTableRecord
  2
06_ALL_SURFS
 70
0
 62
7
  6
CONTINUOUS
370
-3
390
F
  0
LAYER
  5
211
100
AcDbSymbolTableRecord
100
AcDbLayerTableRecord
  2
06__ASM_ALL_SURFS
 70
0
 62
7
  6
CONTINUOUS
370
-3
390
F
  0
LAYER
  5
212
100
AcDbSymbolTableRecord
100
AcDbLayerTableRecord
  2
06___PRT_ALL_SURFS
 70
0
 62
7
  6
CONTINUOUS
370
-3
390
F
  0
LAYER
  5
213
100
AcDbSymbolTableRecord
100
AcDbLayerTableRecord
  2
07__ASM_ALL_SKELETONS
 70
0
 62
7
  6
CONTINUOUS
370
-3
390
F
  0
ENDTAB
  0
TABLE
  2
STYLE
  5
3
100
AcDbSymbolTable
 70
1
  0
STYLE
  5
11
100
AcDbSymbolTableRecord
100
AcDbTextStyleTableRecord
  2
STANDARD
 70
0
 40
0.0
 41
0.8
 50
0.0
 71
0
 42
0.2
  3
txt
  4

  0
STYLE
  5
214
100
AcDbSymbolTableRecord
100
AcDbTextStyleTableRecord
  2
TEXTSTYLE_1
 70
0
 40
0.0
 41
0.8
 50
0.0
 71
0
 42
0.2
  3
gdt
  4

  0
ENDTAB
  0
TABLE
  2
VIEW
  5
6
100
AcDbSymbolTable
 70
0
  0
ENDTAB
  0
TABLE
  2
UCS
  5
7
100
AcDbSymbolTable
 70
0
  0
ENDTAB
  0
TABLE
  2
APPID
  5
9
100
AcDbSymbolTable
 70
1
  0
APPID
  5
215
100
AcDbSymbolTableRecord
100
AcDbRegAppTableRecord
  2
ACAD
 70
0
  0
ENDTAB
  0
TABLE
  2
BLOCK_RECORD
  5
1
100
AcDbSymbolTable
 70
0
  0
BLOCK_RECORD
  5
216
100
AcDbSymbolTableRecord
100
AcDbBlockTableRecord
  2
*Model_Space
  0
BLOCK_RECORD
  5
217
100
AcDbSymbolTableRecord
100
AcDbBlockTableRecord
  2
*Paper_Space
  0
ENDTAB
  0
TABLE
  2
DIMSTYLE
  5
A
100
AcDbSymbolTable
 70
1
100
AcDbDimStyleTable
 71
0
  0
DIMSTYLE
105
218
100
AcDbSymbolTableRecord
100
AcDbDimStyleTableRecord
  2
STANDARD
 70
0
  3

  4

 40
1.0
 41
0.1875
 42
0.0625
 43
0.38
 44
0.125
 45
0.0
 46
0.0
 47
0.0001
 48
0.0001
140
0.15625
141
0.09
142
0.0
143
25.4
144
1.0
145
0.0
146
1.0
147
0.09
 71
0.0
 72
0.0
 73
1
 74
1
 75
0
 76
0
 77
0
 78
4
 79
1
170
0
171
3
172
0
173
0
174
0
175
0
176
0
177
0
178
0
270
2
179
4
271
4
272
4
273
2
274
2
275
0
280
0
281
0
282
0
283
1
284
4
285
0
286
0
287
3
288
0
340
11
278
46
  0
ENDTAB
  0
ENDSEC
  0
SECTION
  2
BLOCKS
  0
BLOCK
  5
20
100
AcDbEntity
  8
0
100
AcDbBlockBegin
  2
*Model_Space
 70
0
 10
0.0
 20
0.0
 30
0.0
  3
*Model_Space
  1

  0
ENDBLK
  5
21
100
AcDbEntity
  8
0
100
AcDbBlockEnd
  0
BLOCK
  5
1C
100
AcDbEntity
  8
0
100
AcDbBlockBegin
  2
*Paper_Space
 70
0
 10
0.0
 20
0.0
 30
0.0
  3
*Paper_Space
  1

  0
ENDBLK
  5
1D
100
AcDbEntity
  8
0
100
AcDbBlockEnd
  0
ENDSEC
  0
SECTION
  2
ENTITIES
  0
MTEXT
  5
219
100
AcDbEntity
  8
0
100
AcDbMText
 62
7
  6
CONTINUOUS
  7
STANDARD
 71
1
 72
1
 10
15.9560215477
 20
0.9479130325
 30
0.0
 11
1.0
 21
0.0
 31
0.0
 44
0.9
  1
SCALE: 1:1.000
 40
0.3
 41
3.36
  0
LINE
  5
21A
100
AcDbEntity
  8
0
100
AcDbLine
 62
7
  6
CONTINUOUS
 10
0.0
 20
0.0
 11
0.0
 21
17.0
  0
LINE
  5
21B
100
AcDbEntity
  8
0
100
AcDbLine
 62
7
  6
CONTINUOUS
 10
0.0
 20
0.0
 11
22.0
 21
0.0
  0
LINE
  5
21C
100
AcDbEntity
  8
0
100
AcDbLine
 62
7
  6
CONTINUOUS
 10
0.0
 20
17.0
 11
22.0
 21
17.0
  0
LINE
  5
21D
100
AcDbEntity
  8
0
100
AcDbLine
 62
7
  6
CONTINUOUS
 10
22.0
 20
0.0
 11
22.0
 21
17.0
  0
LINE
  5
21E
100
AcDbEntity
  8
0
100
AcDbLine
 62
7
  6
CONTINUOUS
 10
5.4428672762
 20
5.6506199078
 11
5.4428672762
 21
5.6092634686
  0
LINE
  5
21F
100
AcDbEntity
  8
0
100
AcDbLine
 62
7
  6
CONTINUOUS
 10
5.492243928
 20
5.3839961314
 11
5.4454302697
 21
5.5867683632
  0
LINE
  5
220
100
AcDbEntity
  8
0
100
AcDbLine
 62
7
  6
CONTINUOUS
 10
5.5166031797
 20
5.3646199078
 11
6.7441313727
 21
5.3646199078
  0
LINE
  5
221
100
AcDbEntity
  8
0
100
AcDbLine
 62
7
  6
CONTINUOUS
 10
5.4926698438
 20
5.4682865745
 11
6.7680647085
 21
5.4682865745
  0
LINE
  5
222
100
AcDbEntity
  8
0
100
AcDbLine
 62
7
  6
CONTINUOUS
 10
6.7928672762
 20
5.6756199078
 11
5.4678672762
 21
5.6756199078
  0
LINE
  5
223
100
AcDbEntity
  8
0
100
AcDbLine
 62
7
  6
CONTINUOUS
 10
6.8178672762
 20
5.6092634686
 11
6.8178672762
 21
5.6506199078
  0
LINE
  5
224
100
AcDbEntity
  8
0
100
AcDbLine
 62
7
  6
CONTINUOUS
 10
6.7684906243
 20
5.3839961314
 11
6.8153042826
 21
5.5867683632
  0
LINE
  5
225
100
AcDbEntity
  8
0
100
AcDbLine
 62
7
  6
CONTINUOUS
 10
6.7583720839
 20
10.6000477814
 11
5.3833720839
 21
10.6000477814
  0
LINE
  5
226
100
AcDbEntity
  8
0
100
AcDbLine
 62
7
  6
CONTINUOUS
 10
5.3833720839
 20
10.6000477814
 11
5.3833720839
 21
14.6000477814
  0
LINE
  5
227
100
AcDbEntity
  8
0
100
AcDbLine
 62
7
  6
CONTINUOUS
 10
6.7583720839
 20
10.6000477814
 11
6.7583720839
 21
14.6000477814
  0
LINE
  5
228
100
AcDbEntity
  8
0
100
AcDbLine
 62
7
  6
CONTINUOUS
 10
5.3833720839
 20
14.6000477814
 11
6.7583720839
 21
14.6000477814
  0
LINE
  5
229
100
AcDbEntity
  8
0
100
AcDbLine
 62
7
  6
CONTINUOUS
 10
13.5603552569
 20
5.4087913821
 11
13.5603552569
 21
5.6161247155
  0
LINE
  5
22A
100
AcDbEntity
  8
0
100
AcDbLine
 62
7
  6
CONTINUOUS
 10
13.6780259657
 20
5.388704697
 11
13.6926845482
 21
5.3252114007
  0
LINE
  5
22B
100
AcDbEntity
  8
0
100
AcDbLine
 62
7
  6
CONTINUOUS
 10
13.9280259657
 20
5.3252114007
 11
13.9426845482
 21
5.388704697
  0
LINE
  5
22C
100
AcDbEntity
  8
0
100
AcDbLine
 62
7
  6
CONTINUOUS
 10
14.1780259657
 20
5.388704697
 11
14.1926845482
 21
5.3252114007
  0
LINE
  5
22D
100
AcDbEntity
  8
0
100
AcDbLine
 62
7
  6
CONTINUOUS
 10
14.4280259657
 20
5.3252114007
 11
14.4426845482
 21
5.388704697
  0
LINE
  5
22E
100
AcDbEntity
  8
0
100
AcDbLine
 62
7
  6
CONTINUOUS
 10
14.6780259657
 20
5.388704697
 11
14.6926845482
 21
5.3252114007
  0
LINE
  5
22F
100
AcDbEntity
  8
0
100
AcDbLine
 62
7
  6
CONTINUOUS
 10
14.9280259657
 20
5.3252114007
 11
14.9426845482
 21
5.388704697
  0
LINE
  5
230
100
AcDbEntity
  8
0
100
AcDbLine
 62
7
  6
CONTINUOUS
 10
15.1780259657
 20
5.388704697
 11
15.1926845482
 21
5.3252114007
  0
LINE
  5
231
100
AcDbEntity
  8
0
100
AcDbLine
 62
7
  6
CONTINUOUS
 10
13.7179369723
 20
5.3051247155
 11
13.9027735415
 21
5.3051247155
  0
LINE
  5
232
100
AcDbEntity
  8
0
100
AcDbLine
 62
7
  6
CONTINUOUS
 10
14.2179369723
 20
5.3051247155
 11
14.4027735415
 21
5.3051247155
  0
LINE
  5
233
100
AcDbEntity
  8
0
100
AcDbLine
 62
7
  6
CONTINUOUS
 10
14.7179369723
 20
5.3051247155
 11
14.9027735415
 21
5.3051247155
  0
LINE
  5
234
100
AcDbEntity
  8
0
100
AcDbLine
 62
7
  6
CONTINUOUS
 10
15.2179369723
 20
5.3051247155
 11
15.4027735415
 21
5.3051247155
  0
LINE
  5
235
100
AcDbEntity
  8
0
100
AcDbLine
 62
7
  6
CONTINUOUS
 10
15.7179369723
 20
5.3051247155
 11
15.9027735415
 21
5.3051247155
  0
LINE
  5
236
100
AcDbEntity
  8
0
100
AcDbLine
 62
7
  6
CONTINUOUS
 10
16.2179369723
 20
5.3051247155
 11
16.4027735415
 21
5.3051247155
  0
LINE
  5
237
100
AcDbEntity
  8
0
100
AcDbLine
 62
7
  6
CONTINUOUS
 10
16.7179369723
 20
5.3051247155
 11
16.9027735415
 21
5.3051247155
  0
LINE
  5
238
100
AcDbEntity
  8
0
100
AcDbLine
 62
7
  6
CONTINUOUS
 10
17.2179369723
 20
5.3051247155
 11
17.4027735415
 21
5.3051247155
  0
LINE
  5
239
100
AcDbEntity
  8
0
100
AcDbLine
 62
7
  6
CONTINUOUS
 10
15.4280259657
 20
5.3252114007
 11
15.4426845482
 21
5.388704697
  0
LINE
  5
23A
100
AcDbEntity
  8
0
100
AcDbLine
 62
7
  6
CONTINUOUS
 10
13.5603552569
 20
5.4087913821
 11
13.6527735415
 21
5.4087913821
  0
LINE
  5
23B
100
AcDbEntity
  8
0
100
AcDbLine
 62
7
  6
CONTINUOUS
 10
13.9679369723
 20
5.4087913821
 11
14.1527735415
 21
5.4087913821
  0
LINE
  5
23C
100
AcDbEntity
  8
0
100
AcDbLine
 62
7
  6
CONTINUOUS
 10
14.4679369723
 20
5.4087913821
 11
14.6527735415
 21
5.4087913821
  0
LINE
  5
23D
100
AcDbEntity
  8
0
100
AcDbLine
 62
7
  6
CONTINUOUS
 10
14.9679369723
 20
5.4087913821
 11
15.1527735415
 21
5.4087913821
  0
LINE
  5
23E
100
AcDbEntity
  8
0
100
AcDbLine
 62
7
  6
CONTINUOUS
 10
15.4679369723
 20
5.4087913821
 11
15.6527735415
 21
5.4087913821
  0
LINE
  5
23F
100
AcDbEntity
  8
0
100
AcDbLine
 62
7
  6
CONTINUOUS
 10
15.9679369723
 20
5.4087913821
 11
16.1527735415
 21
5.4087913821
  0
LINE
  5
240
100
AcDbEntity
  8
0
100
AcDbLine
 62
7
  6
CONTINUOUS
 10
16.4679369723
 20
5.4087913821
 11
16.6527735415
 21
5.4087913821
  0
LINE
  5
241
100
AcDbEntity
  8
0
100
AcDbLine
 62
7
  6
CONTINUOUS
 10
16.9679369723
 20
5.4087913821
 11
17.1527735415
 21
5.4087913821
  0
LINE
  5
242
100
AcDbEntity
  8
0
100
AcDbLine
 62
7
  6
CONTINUOUS
 10
17.4679369723
 20
5.4087913821
 11
17.5603552569
 21
5.4087913821
  0
LINE
  5
243
100
AcDbEntity
  8
0
100
AcDbLine
 62
7
  6
CONTINUOUS
 10
15.6780259657
 20
5.388704697
 11
15.6926845482
 21
5.3252114007
  0
LINE
  5
244
100
AcDbEntity
  8
0
100
AcDbLine
 62
7
  6
CONTINUOUS
 10
13.5603552569
 20
5.6161247155
 11
17.5603552569
 21
5.6161247155
  0
LINE
  5
245
100
AcDbEntity
  8
0
100
AcDbLine
 62
7
  6
CONTINUOUS
 10
15.9280259657
 20
5.3252114007
 11
15.9426845482
 21
5.388704697
  0
LINE
  5
246
100
AcDbEntity
  8
0
100
AcDbLine
 62
7
  6
CONTINUOUS
 10
16.1780259657
 20
5.388704697
 11
16.1926845482
 21
5.3252114007
  0
LINE
  5
247
100
AcDbEntity
  8
0
100
AcDbLine
 62
7
  6
CONTINUOUS
 10
16.4280259657
 20
5.3252114007
 11
16.4426845482
 21
5.388704697
  0
LINE
  5
248
100
AcDbEntity
  8
0
100
AcDbLine
 62
7
  6
CONTINUOUS
 10
16.6780259657
 20
5.388704697
 11
16.6926845482
 21
5.3252114007
  0
LINE
  5
249
100
AcDbEntity
  8
0
100
AcDbLine
 62
7
  6
CONTINUOUS
 10
16.9280259657
 20
5.3252114007
 11
16.9426845482
 21
5.388704697
  0
LINE
  5
24A
100
AcDbEntity
  8
0
100
AcDbLine
 62
7
  6
CONTINUOUS
 10
17.1780259657
 20
5.388704697
 11
17.1926845482
 21
5.3252114007
  0
LINE
  5
24B
100
AcDbEntity
  8
0
100
AcDbLine
 62
7
  6
CONTINUOUS
 10
17.5603552569
 20
5.4087913821
 11
17.5603552569
 21
5.6161247155
  0
LINE
  5
24C
100
AcDbEntity
  8
0
100
AcDbLine
 62
7
  6
CONTINUOUS
 10
17.4280259657
 20
5.3252114007
 11
17.4426845482
 21
5.388704697
  0
LINE
  5
24D
100
AcDbEntity
  8
0
100
AcDbLine
 62
7
  6
CONTINUOUS
 10
14.3630662801
 20
10.9533604012
 11
14.4143717993
 21
10.891755394
  0
LWPOLYLINE
  5
24E
100
AcDbEntity
  8
0
100
AcDbPolyline
 62
7
  6
CONTINUOUS
 90
6
 70
0
 10
15.6573225462
 20
10.9289024297
 10
15.6616323201
 20
10.9292754892
 10
15.6673180789
 20
10.9309814408
 10
15.6721506122
 20
10.9337577985
 10
15.6760424173
 20
10.937293784
 10
15.678947759
 20
10.9412697768
  0
LINE
  5
24F
100
AcDbEntity
  8
0
100
AcDbLine
 62
7
  6
CONTINUOUS
 10
14.4427187152
 20
10.8797109403
 11
15.617435177
 21
10.8797109403
  0
LINE
  5
250
100
AcDbEntity
  8
0
100
AcDbLine
 62
7
  6
CONTINUOUS
 10
15.6463745267
 20
10.9289020967
 11
15.6573285715
 21
10.9289020967
  0
LINE
  5
251
100
AcDbEntity
  8
0
100
AcDbLine
 62
7
  6
CONTINUOUS
 10
14.3412282124
 20
10.9930511578
 11
14.3538436578
 21
10.967343583
  0
LINE
  5
252
100
AcDbEntity
  8
0
100
AcDbLine
 62
7
  6
CONTINUOUS
 10
15.5770345076
 20
11.008591407
 11
14.3566286906
 21
11.008591407
  0
LWPOLYLINE
  5
253
100
AcDbEntity
  8
0
100
AcDbPolyline
 62
7
  6
CONTINUOUS
 90
6
 70
0
 10
15.7783557079
 20
11.3205658845
 10
15.7826654818
 20
11.320938944
 10
15.7883512406
 20
11.3226448956
 10
15.7931837739
 20
11.3254212533
 10
15.797075579
 20
11.3289572388
 10
15.7999809207
 20
11.3329332317
  0
LINE
  5
254
100
AcDbEntity
  8
0
100
AcDbLine
 62
7
  6
CONTINUOUS
 10
15.7674076884
 20
11.3205655515
 11
15.7783617332
 21
11.3205655515
  0
LWPOLYLINE
  5
255
100
AcDbEntity
  8
0
100
AcDbPolyline
 62
7
  6
CONTINUOUS
 90
6
 70
0
 10
15.8993888696
 20
11.7122293393
 10
15.9036986435
 20
11.7126023988
 10
15.9093844023
 20
11.7143083504
 10
15.9142169356
 20
11.7170847081
 10
15.9181087407
 20
11.7206206937
 10
15.9210140824
 20
11.7245966865
  0
LINE
  5
256
100
AcDbEntity
  8
0
100
AcDbLine
 62
7
  6
CONTINUOUS
 10
15.8884408501
 20
11.7122290064
 11
15.8993948949
 21
11.7122290064
  0
LINE
  5
257
100
AcDbEntity
  8
0
100
AcDbLine
 62
7
  6
CONTINUOUS
 10
14.3403692161
 20
11.0004323421
 11
15.3086345097
 21
14.1337399806
  0
LINE
  5
258
100
AcDbEntity
  8
0
100
AcDbLine
 62
7
  6
CONTINUOUS
 10
15.6203025245
 20
10.967343583
 11
15.6076870791
 21
10.9930511578
  0
LWPOLYLINE
  5
259
100
AcDbEntity
  8
0
100
AcDbPolyline
 62
7
  6
CONTINUOUS
 90
6
 70
0
 10
16.0204220313
 20
12.1038927941
 10
16.0247318052
 20
12.1042658536
 10
16.030417564
 20
12.1059718053
 10
16.0352500973
 20
12.1087481629
 10
16.0391419024
 20
12.1122841485
 10
16.0420472441
 20
12.1162601413
  0
LINE
  5
25A
100
AcDbEntity
  8
0
100
AcDbLine
 62
7
  6
CONTINUOUS
 10
16.0094740118
 20
12.1038924612
 11
16.0204280566
 21
12.1038924612
  0
LWPOLYLINE
  5
25B
100
AcDbEntity
  8
0
100
AcDbPolyline
 62
7
  6
CONTINUOUS
 90
6
 70
0
 10
16.141455193
 20
12.4955562489
 10
16.1457649669
 20
12.4959293084
 10
16.1514507257
 20
12.4976352601
 10
16.156283259
 20
12.5004116178
 10
16.1601750641
 20
12.5039476033
 10
16.1630804058
 20
12.5079235961
  0
LINE
  5
25C
100
AcDbEntity
  8
0
100
AcDbLine
 62
7
  6
CONTINUOUS
 10
16.1305071735
 20
12.495555916
 11
16.1414612183
 21
12.495555916
  0
LINE
  5
25D
100
AcDbEntity
  8
0
100
AcDbLine
 62
7
  6
CONTINUOUS
 10
15.6339609741
 20
10.891755394
 11
15.6248038001
 21
10.9533604012
  0
LINE
  5
25E
100
AcDbEntity
  8
0
100
AcDbLine
 62
7
  6
CONTINUOUS
 10
15.7274003991
 20
11.1013140459
 11
15.7250820831
 21
11.152264575
  0
LWPOLYLINE
  5
25F
100
AcDbEntity
  8
0
100
AcDbPolyline
 62
7
  6
CONTINUOUS
 90
6
 70
0
 10
15.7250815461
 20
11.1522782647
 10
15.7250051774
 20
11.1546413927
 10
15.7252717483
 20
11.1658496405
 10
15.7265620067
 20
11.1792064324
 10
15.7287580268
 20
11.1926123945
 10
15.7314495763
 20
11.2040434295
  0
LINE
  5
260
100
AcDbEntity
  8
0
100
AcDbLine
 62
7
  6
CONTINUOUS
 10
15.7274142423
 20
11.0991840178
 11
15.7273998271
 21
11.10132668
  0
LINE
  5
261
100
AcDbEntity
  8
0
100
AcDbLine
 62
7
  6
CONTINUOUS
 10
15.633693156
 20
10.8878704657
 11
15.6339609741
 21
10.891755394
  0
LINE
  5
262
100
AcDbEntity
  8
0
100
AcDbLine
 62
7
  6
CONTINUOUS
 10
15.8484335608
 20
11.4929775007
 11
15.8461152448
 21
11.5439280298
  0
LWPOLYLINE
  5
263
100
AcDbEntity
  8
0
100
AcDbPolyline
 62
7
  6
CONTINUOUS
 90
6
 70
0
 10
15.8461147078
 20
11.5439417195
 10
15.8460383391
 20
11.5463048476
 10
15.8463049101
 20
11.5575130953
 10
15.8475951684
 20
11.5708698872
 10
15.8497911885
 20
11.5842758493
 10
15.852482738
 20
11.5957068844
  0
LINE
  5
264
100
AcDbEntity
  8
0
100
AcDbLine
 62
7
  6
CONTINUOUS
 10
15.848447404
 20
11.4908474726
 11
15.8484329888
 21
11.4929901348
  0
LINE
  5
265
100
AcDbEntity
  8
0
100
AcDbLine
 62
7
  6
CONTINUOUS
 10
16.5064032833
 20
13.7101045313
 11
16.5067514902
 21
13.710745385
  0
LWPOLYLINE
  5
266
100
AcDbEntity
  8
0
100
AcDbPolyline
 62
7
  6
CONTINUOUS
 90
6
 70
0
 10
16.2624883547
 20
12.8872197037
 10
16.2667981286
 20
12.8875927632
 10
16.2724838874
 20
12.8892987149
 10
16.2773164207
 20
12.8920750726
 10
16.2812082258
 20
12.8956110581
 10
16.2841135675
 20
12.8995870509
  0
LINE
  5
267
100
AcDbEntity
  8
0
100
AcDbLine
 62
7
  6
CONTINUOUS
 10
16.2515403353
 20
12.8872193708
 11
16.26249438
 21
12.8872193708
  0
LINE
  5
268
100
AcDbEntity
  8
0
100
AcDbLine
 62
7
  6
CONTINUOUS
 10
15.9694667225
 20
11.8846409556
 11
15.9671484066
 21
11.9355914846
  0
LWPOLYLINE
  5
269
100
AcDbEntity
  8
0
100
AcDbPolyline
 62
7
  6
CONTINUOUS
 90
6
 70
0
 10
15.9671478695
 20
11.9356051743
 10
15.9670715008
 20
11.9379683024
 10
15.9673380718
 20
11.9491765502
 10
15.9686283301
 20
11.9625333421
 10
15.9708243502
 20
11.9759393041
 10
15.9735158997
 20
11.9873703392
  0
LINE
  5
26A
100
AcDbEntity
  8
0
100
AcDbLine
 62
7
  6
CONTINUOUS
 10
15.9694805657
 20
11.8825109274
 11
15.9694661505
 21
11.8846535896
  0
LINE
  5
26B
100
AcDbEntity
  8
0
100
AcDbLine
 62
7
  6
CONTINUOUS
 10
16.5051637789
 20
13.7072888162
 11
16.5064032833
 21
13.7101045313
  0
LINE
  5
26C
100
AcDbEntity
  8
0
100
AcDbLine
 62
7
  6
CONTINUOUS
 10
16.3841306172
 20
13.3156253614
 11
16.3853701216
 21
13.3184410765
  0
LWPOLYLINE
  5
26D
100
AcDbEntity
  8
0
100
AcDbPolyline
 62
7
  6
CONTINUOUS
 90
3
 70
0
 10
16.5261798909
 20
13.6829139605
 10
16.5281556796
 20
13.687058373
 10
16.5286436233
 20
13.6884894142
  0
LWPOLYLINE
  5
26E
100
AcDbEntity
  8
0
100
AcDbPolyline
 62
7
  6
CONTINUOUS
 90
3
 70
0
 10
16.4051467292
 20
13.2912505057
 10
16.4071225179
 20
13.2953949181
 10
16.4076104616
 20
13.2968259594
  0
LINE
  5
26F
100
AcDbEntity
  8
0
100
AcDbLine
 62
7
  6
CONTINUOUS
 10
16.3853701216
 20
13.3184410765
 11
16.3857183285
 21
13.3190819302
  0
LINE
  5
270
100
AcDbEntity
  8
0
100
AcDbLine
 62
7
  6
CONTINUOUS
 10
16.2643369599
 20
12.9267776217
 11
16.2646851668
 21
12.9274184754
  0
LINE
  5
271
100
AcDbEntity
  8
0
100
AcDbLine
 62
7
  6
CONTINUOUS
 10
16.0904998842
 20
12.2763044104
 11
16.0881815683
 21
12.3272549394
  0
LWPOLYLINE
  5
272
100
AcDbEntity
  8
0
100
AcDbPolyline
 62
7
  6
CONTINUOUS
 90
6
 70
0
 10
16.0881810312
 20
12.3272686291
 10
16.0881046625
 20
12.3296317572
 10
16.0883712335
 20
12.340840005
 10
16.0896614918
 20
12.3541967969
 10
16.0918575119
 20
12.3676027589
 10
16.0945490614
 20
12.379033794
  0
LINE
  5
273
100
AcDbEntity
  8
0
100
AcDbLine
 62
7
  6
CONTINUOUS
 10
16.0905137274
 20
12.2741743822
 11
16.0904993122
 21
12.2763170445
  0
LWPOLYLINE
  5
274
100
AcDbEntity
  8
0
100
AcDbPolyline
 62
7
  6
CONTINUOUS
 90
4
 70
0
 10
15.7261596582
 20
11.0916505312
 10
15.7265721115
 20
11.0931289688
 10
15.7271482988
 20
11.0961001243
 10
15.7274142423
 20
11.0991840178
  0
LWPOLYLINE
  5
275
100
AcDbEntity
  8
0
100
AcDbPolyline
 62
7
  6
CONTINUOUS
 90
4
 70
0
 10
15.8471928199
 20
11.483313986
 10
15.8476052732
 20
11.4847924236
 10
15.8481814605
 20
11.4877635791
 10
15.848447404
 20
11.4908474726
  0
LWPOLYLINE
  5
276
100
AcDbEntity
  8
0
100
AcDbPolyline
 62
7
  6
CONTINUOUS
 90
4
 70
0
 10
15.9682259816
 20
11.8749774408
 10
15.9686384349
 20
11.8764558785
 10
15.9692146222
 20
11.8794270339
 10
15.9694805657
 20
11.8825109274
  0
LWPOLYLINE
  5
277
100
AcDbEntity
  8
0
100
AcDbPolyline
 62
7
  6
CONTINUOUS
 90
4
 70
0
 10
16.0892591433
 20
12.2666408956
 10
16.0896715966
 20
12.2681193333
 10
16.0902477839
 20
12.2710904887
 10
16.0905137274
 20
12.2741743822
  0
LWPOLYLINE
  5
278
100
AcDbEntity
  8
0
100
AcDbPolyline
 62
7
  6
CONTINUOUS
 90
4
 70
0
 10
16.210292305
 20
12.6583043504
 10
16.2107047583
 20
12.6597827881
 10
16.2112809456
 20
12.6627539436
 10
16.2115468891
 20
12.6658378371
  0
LINE
  5
279
100
AcDbEntity
  8
0
100
AcDbLine
 62
7
  6
CONTINUOUS
 10
15.7314495763
 20
11.2040434295
 11
15.7323517339
 21
11.2071254552
  0
LINE
  5
27A
100
AcDbEntity
  8
0
100
AcDbLine
 62
7
  6
CONTINUOUS
 10
15.852482738
 20
11.5957068844
 11
15.8533848956
 21
11.59878891
  0
LINE
  5
27B
100
AcDbEntity
  8
0
100
AcDbLine
 62
7
  6
CONTINUOUS
 10
15.9735158997
 20
11.9873703392
 11
15.9744180573
 21
11.9904523648
  0
LINE
  5
27C
100
AcDbEntity
  8
0
100
AcDbLine
 62
7
  6
CONTINUOUS
 10
16.0945490614
 20
12.379033794
 11
16.095451219
 21
12.3821158196
  0
LINE
  5
27D
100
AcDbEntity
  8
0
100
AcDbLine
 62
7
  6
CONTINUOUS
 10
16.2155822231
 20
12.7706972488
 11
16.2164843807
 21
12.7737792744
  0
LINE
  5
27E
100
AcDbEntity
  8
0
100
AcDbLine
 62
7
  6
CONTINUOUS
 10
16.3366153848
 20
13.1623607036
 11
16.3375175424
 21
13.1654427292
  0
LINE
  5
27F
100
AcDbEntity
  8
0
100
AcDbLine
 62
7
  6
CONTINUOUS
 10
16.4576485465
 20
13.5540241584
 11
16.4585507041
 21
13.557106184
  0
LINE
  5
280
100
AcDbEntity
  8
0
100
AcDbLine
 62
7
  6
CONTINUOUS
 10
16.5786817082
 20
13.9456876132
 11
16.5795838658
 21
13.9487696389
  0
LINE
  5
281
100
AcDbEntity
  8
0
100
AcDbLine
 62
7
  6
CONTINUOUS
 10
15.6348138789
 20
10.8914918265
 11
15.656066005
 21
10.960263732
  0
LINE
  5
282
100
AcDbEntity
  8
0
100
AcDbLine
 62
7
  6
CONTINUOUS
 10
15.7323564588
 20
11.2071397307
 11
15.7770991667
 21
11.3519271868
  0
LINE
  5
283
100
AcDbEntity
  8
0
100
AcDbLine
 62
7
  6
CONTINUOUS
 10
15.8533896205
 20
11.5988031855
 11
15.8981323284
 21
11.7435906416
  0
LINE
  5
284
100
AcDbEntity
  8
0
100
AcDbLine
 62
7
  6
CONTINUOUS
 10
15.9744227822
 20
11.9904666404
 11
16.0191654902
 21
12.1352540965
  0
LINE
  5
285
100
AcDbEntity
  8
0
100
AcDbLine
 62
7
  6
CONTINUOUS
 10
16.0954559439
 20
12.3821300952
 11
16.1401986519
 21
12.5269175513
  0
LINE
  5
286
100
AcDbEntity
  8
0
100
AcDbLine
 62
7
  6
CONTINUOUS
 10
16.2164891056
 20
12.77379355
 11
16.2612318136
 21
12.9185810061
  0
LINE
  5
287
100
AcDbEntity
  8
0
100
AcDbLine
 62
7
  6
CONTINUOUS
 10
16.3375222673
 20
13.1654570048
 11
16.3822649753
 21
13.3102444609
  0
LINE
  5
288
100
AcDbEntity
  8
0
100
AcDbLine
 62
7
  6
CONTINUOUS
 10
16.458555429
 20
13.5571204596
 11
16.503298137
 21
13.7019079157
  0
LINE
  5
289
100
AcDbEntity
  8
0
100
AcDbLine
 62
7
  6
CONTINUOUS
 10
16.5795885907
 20
13.9487839144
 11
16.6019599451
 21
14.0211776437
  0
LINE
  5
28A
100
AcDbEntity
  8
0
100
AcDbLine
 62
7
  6
CONTINUOUS
 10
15.6814184893
 20
10.94686777
 11
15.7261612058
 21
11.0916552535
  0
LINE
  5
28B
100
AcDbEntity
  8
0
100
AcDbLine
 62
7
  6
CONTINUOUS
 10
15.8024516511
 20
11.3385312248
 11
15.8471943675
 21
11.4833187084
  0
LINE
  5
28C
100
AcDbEntity
  8
0
100
AcDbLine
 62
7
  6
CONTINUOUS
 10
15.9234848128
 20
11.7301946796
 11
15.9682275292
 21
11.8749821632
  0
LINE
  5
28D
100
AcDbEntity
  8
0
100
AcDbLine
 62
7
  6
CONTINUOUS
 10
16.0445179745
 20
12.1218581344
 11
16.0892606909
 21
12.266645618
  0
LINE
  5
28E
100
AcDbEntity
  8
0
100
AcDbLine
 62
7
  6
CONTINUOUS
 10
16.1655511362
 20
12.5135215892
 11
16.2102938526
 21
12.6583090728
  0
LINE
  5
28F
100
AcDbEntity
  8
0
100
AcDbLine
 62
7
  6
CONTINUOUS
 10
16.2865842979
 20
12.905185044
 11
16.3313270143
 21
13.0499725276
  0
LINE
  5
290
100
AcDbEntity
  8
0
100
AcDbLine
 62
7
  6
CONTINUOUS
 10
16.4076174596
 20
13.2968484988
 11
16.452360176
 21
13.4416359824
  0
LINE
  5
291
100
AcDbEntity
  8
0
100
AcDbLine
 62
7
  6
CONTINUOUS
 10
16.5286506213
 20
13.6885119537
 11
16.5733933377
 21
13.8332994372
  0
LINE
  5
292
100
AcDbEntity
  8
0
100
AcDbLine
 62
7
  6
CONTINUOUS
 10
16.5032986691
 20
13.7019103713
 11
16.5051637789
 21
13.7072888162
  0
LINE
  5
293
100
AcDbEntity
  8
0
100
AcDbLine
 62
7
  6
CONTINUOUS
 10
16.3822655074
 20
13.3102469165
 11
16.3841306172
 21
13.3156253614
  0
LINE
  5
294
100
AcDbEntity
  8
0
100
AcDbLine
 62
7
  6
CONTINUOUS
 10
16.2612323457
 20
12.9185834617
 11
16.2630974555
 21
12.9239619066
  0
LINE
  5
295
100
AcDbEntity
  8
0
100
AcDbLine
 62
7
  6
CONTINUOUS
 10
16.140199184
 20
12.5269200069
 11
16.1420642938
 21
12.5322984518
  0
LINE
  5
296
100
AcDbEntity
  8
0
100
AcDbLine
 62
7
  6
CONTINUOUS
 10
16.0191660223
 20
12.1352565521
 11
16.0210311321
 21
12.140634997
  0
LINE
  5
297
100
AcDbEntity
  8
0
100
AcDbLine
 62
7
  6
CONTINUOUS
 10
15.8981328606
 20
11.7435930973
 11
15.8999979704
 21
11.7489715421
  0
LINE
  5
298
100
AcDbEntity
  8
0
100
AcDbLine
 62
7
  6
CONTINUOUS
 10
15.7770996989
 20
11.3519296424
 11
15.7789648087
 21
11.3573080873
  0
LINE
  5
299
100
AcDbEntity
  8
0
100
AcDbLine
 62
7
  6
CONTINUOUS
 10
16.2630974555
 20
12.9239619066
 11
16.2643369599
 21
12.9267776217
  0
LINE
  5
29A
100
AcDbEntity
  8
0
100
AcDbLine
 62
7
  6
CONTINUOUS
 10
16.1420642938
 20
12.5322984518
 11
16.1433037982
 21
12.5351141669
  0
LINE
  5
29B
100
AcDbEntity
  8
0
100
AcDbLine
 62
7
  6
CONTINUOUS
 10
16.0210311321
 20
12.140634997
 11
16.0222706365
 21
12.1434507121
  0
LWPOLYLINE
  5
29C
100
AcDbEntity
  8
0
100
AcDbPolyline
 62
7
  6
CONTINUOUS
 90
3
 70
0
 10
16.2841135675
 20
12.8995870509
 10
16.2860893562
 20
12.9037314633
 10
16.2865772999
 20
12.9051625045
  0
LWPOLYLINE
  5
29D
100
AcDbEntity
  8
0
100
AcDbPolyline
 62
7
  6
CONTINUOUS
 90
3
 70
0
 10
16.1630804058
 20
12.5079235961
 10
16.1650561945
 20
12.5120680085
 10
16.1655441382
 20
12.5134990497
  0
LINE
  5
29E
100
AcDbEntity
  8
0
100
AcDbLine
 62
7
  6
CONTINUOUS
 10
16.1433037982
 20
12.5351141669
 11
16.1436520051
 21
12.5357550206
  0
LINE
  5
29F
100
AcDbEntity
  8
0
100
AcDbLine
 62
7
  6
CONTINUOUS
 10
16.0222706365
 20
12.1434507121
 11
16.0226188434
 21
12.1440915657
  0
LINE
  5
2A0
100
AcDbEntity
  8
0
100
AcDbLine
 62
7
  6
CONTINUOUS
 10
16.2115330459
 20
12.6679678652
 11
16.20921473
 21
12.7189183942
  0
LWPOLYLINE
  5
2A1
100
AcDbEntity
  8
0
100
AcDbPolyline
 62
7
  6
CONTINUOUS
 90
6
 70
0
 10
16.2092141929
 20
12.718932084
 10
16.2091378242
 20
12.721295212
 10
16.2094043952
 20
12.7325034598
 10
16.2106946535
 20
12.7458602517
 10
16.2128906736
 20
12.7592662137
 10
16.2155822231
 20
12.7706972488
  0
LINE
  5
2A2
100
AcDbEntity
  8
0
100
AcDbLine
 62
7
  6
CONTINUOUS
 10
16.2115468891
 20
12.6658378371
 11
16.2115324739
 21
12.6679804993
  0
LWPOLYLINE
  5
2A3
100
AcDbEntity
  8
0
100
AcDbPolyline
 62
7
  6
CONTINUOUS
 90
4
 70
0
 10
16.3313254667
 20
13.0499678052
 10
16.33173792
 20
13.0514462429
 10
16.3323141073
 20
13.0544173984
 10
16.3325800508
 20
13.0575012919
  0
LWPOLYLINE
  5
2A4
100
AcDbEntity
  8
0
100
AcDbPolyline
 62
7
  6
CONTINUOUS
 90
4
 70
0
 10
16.4523586285
 20
13.44163126
 10
16.4527710817
 20
13.4431096977
 10
16.453347269
 20
13.4460808532
 10
16.4536132126
 20
13.4491647467
  0
LWPOLYLINE
  5
2A5
100
AcDbEntity
  8
0
100
AcDbPolyline
 62
7
  6
CONTINUOUS
 90
4
 70
0
 10
16.5733917902
 20
13.8332947148
 10
16.5738042434
 20
13.8347731525
 10
16.5743804307
 20
13.837744308
 10
16.5746463743
 20
13.8408282015
  0
LINE
  5
2A6
100
AcDbEntity
  8
0
100
AcDbLine
 62
7
  6
CONTINUOUS
 10
15.6560665372
 20
10.9602661876
 11
15.657931647
 21
10.9656446325
  0
LINE
  5
2A7
100
AcDbEntity
  8
0
100
AcDbLine
 62
7
  6
CONTINUOUS
 10
15.8999979704
 20
11.7489715421
 11
15.9012374748
 21
11.7517872573
  0
LINE
  5
2A8
100
AcDbEntity
  8
0
100
AcDbLine
 62
7
  6
CONTINUOUS
 10
15.7789648087
 20
11.3573080873
 11
15.7802043131
 21
11.3601238025
  0
LINE
  5
2A9
100
AcDbEntity
  8
0
100
AcDbLine
 62
7
  6
CONTINUOUS
 10
15.657931647
 20
10.9656446325
 11
15.6591711514
 21
10.9684603476
  0
LWPOLYLINE
  5
2AA
100
AcDbEntity
  8
0
100
AcDbPolyline
 62
7
  6
CONTINUOUS
 90
3
 70
0
 10
16.0420472441
 20
12.1162601413
 10
16.0440230328
 20
12.1204045537
 10
16.0445109765
 20
12.1218355949
  0
LWPOLYLINE
  5
2AB
100
AcDbEntity
  8
0
100
AcDbPolyline
 62
7
  6
CONTINUOUS
 90
3
 70
0
 10
15.9210140824
 20
11.7245966865
 10
15.9229898711
 20
11.7287410989
 10
15.9234778148
 20
11.7301721401
  0
LWPOLYLINE
  5
2AC
100
AcDbEntity
  8
0
100
AcDbPolyline
 62
7
  6
CONTINUOUS
 90
3
 70
0
 10
15.7999809207
 20
11.3329332317
 10
15.8019567094
 20
11.3370776441
 10
15.802444653
 20
11.3385086853
  0
LINE
  5
2AD
100
AcDbEntity
  8
0
100
AcDbLine
 62
7
  6
CONTINUOUS
 10
15.9012374748
 20
11.7517872573
 11
15.9015856817
 21
11.7524281109
  0
LWPOLYLINE
  5
2AE
100
AcDbEntity
  8
0
100
AcDbPolyline
 62
7
  6
CONTINUOUS
 90
6
 70
0
 10
16.3835215164
 20
13.2788831585
 10
16.3878312903
 20
13.2792562181
 10
16.3935170491
 20
13.2809621697
 10
16.3983495824
 20
13.2837385274
 10
16.4022413875
 20
13.2872745129
 10
16.4051467292
 20
13.2912505057
  0
LINE
  5
2AF
100
AcDbEntity
  8
0
100
AcDbLine
 62
7
  6
CONTINUOUS
 10
16.372573497
 20
13.2788828256
 11
16.3835275417
 21
13.2788828256
  0
LINE
  5
2B0
100
AcDbEntity
  8
0
100
AcDbLine
 62
7
  6
CONTINUOUS
 10
16.3325662076
 20
13.05963132
 11
16.3302478917
 21
13.110581849
  0
LWPOLYLINE
  5
2B1
100
AcDbEntity
  8
0
100
AcDbPolyline
 62
7
  6
CONTINUOUS
 90
6
 70
0
 10
16.3302473546
 20
13.1105955388
 10
16.3301709859
 20
13.1129586668
 10
16.3304375569
 20
13.1241669146
 10
16.3317278152
 20
13.1375237065
 10
16.3339238353
 20
13.1509296685
 10
16.3366153848
 20
13.1623607036
  0
LINE
  5
2B2
100
AcDbEntity
  8
0
100
AcDbLine
 62
7
  6
CONTINUOUS
 10
16.3325800508
 20
13.0575012919
 11
16.3325656356
 21
13.0596439541
  0
LWPOLYLINE
  5
2B3
100
AcDbEntity
  8
0
100
AcDbPolyline
 62
7
  6
CONTINUOUS
 90
3
 70
0
 10
15.678947759
 20
10.9412697768
 10
15.6809235477
 20
10.9454141893
 10
15.6814114913
 20
10.9468452305
  0
LINE
  5
2B4
100
AcDbEntity
  8
0
100
AcDbLine
 62
7
  6
CONTINUOUS
 10
15.7802043131
 20
11.3601238025
 11
15.78055252
 21
11.3607646561
  0
LINE
  5
2B5
100
AcDbEntity
  8
0
100
AcDbLine
 62
7
  6
CONTINUOUS
 10
15.6591711514
 20
10.9684603476
 11
15.6595193583
 21
10.9691012013
  0
LINE
  5
2B6
100
AcDbEntity
  8
0
100
AcDbLine
 62
7
  6
CONTINUOUS
 10
16.4535993693
 20
13.4512947748
 11
16.4512810534
 21
13.5022453039
  0
LWPOLYLINE
  5
2B7
100
AcDbEntity
  8
0
100
AcDbPolyline
 62
7
  6
CONTINUOUS
 90
6
 70
0
 10
16.4512805163
 20
13.5022589936
 10
16.4512041476
 20
13.5046221216
 10
16.4514707186
 20
13.5158303694
 10
16.4527609769
 20
13.5291871613
 10
16.454956997
 20
13.5425931234
 10
16.4576485465
 20
13.5540241584
  0
LINE
  5
2B8
100
AcDbEntity
  8
0
100
AcDbLine
 62
7
  6
CONTINUOUS
 10
16.4536132126
 20
13.4491647467
 11
16.4535987973
 21
13.4513074089
  0
LINE
  5
2B9
100
AcDbEntity
  8
0
100
AcDbLine
 62
7
  6
CONTINUOUS
 10
16.6022262677
 20
14.0250630325
 11
16.6019584496
 21
14.0211781042
  0
LWPOLYLINE
  5
2BA
100
AcDbEntity
  8
0
100
AcDbPolyline
 62
7
  6
CONTINUOUS
 90
6
 70
0
 10
16.5045546781
 20
13.6705466133
 10
16.508864452
 20
13.6709196729
 10
16.5145502108
 20
13.6726256245
 10
16.5193827441
 20
13.6754019822
 10
16.5232745492
 20
13.6789379677
 10
16.5261798909
 20
13.6829139605
  0
LINE
  5
2BB
100
AcDbEntity
  8
0
100
AcDbLine
 62
7
  6
CONTINUOUS
 10
16.574632531
 20
13.8429582296
 11
16.5723142151
 21
13.8939087587
  0
LWPOLYLINE
  5
2BC
100
AcDbEntity
  8
0
100
AcDbPolyline
 62
7
  6
CONTINUOUS
 90
6
 70
0
 10
16.572313678
 20
13.8939224484
 10
16.5722373093
 20
13.8962855764
 10
16.5725038803
 20
13.9074938242
 10
16.5737941386
 20
13.9208506161
 10
16.5759901587
 20
13.9342565782
 10
16.5786817082
 20
13.9456876132
  0
LINE
  5
2BD
100
AcDbEntity
  8
0
100
AcDbLine
 62
7
  6
CONTINUOUS
 10
16.5746463743
 20
13.8408282015
 11
16.574631959
 21
13.8429708637
  0
LINE
  5
2BE
100
AcDbEntity
  8
0
100
AcDbLine
 62
7
  6
CONTINUOUS
 10
16.4936066587
 20
13.6705462804
 11
16.5045607034
 21
13.6705462804
  0
LINE
  5
2BF
100
AcDbEntity
  8
0
100
AcDbLine
 62
7
  6
CONTINUOUS
 10
16.6022262677
 20
14.0250630325
 11
16.5930690938
 21
14.0866680397
  0
LINE
  5
2C0
100
AcDbEntity
  8
0
100
AcDbLine
 62
7
  6
CONTINUOUS
 10
16.5452998012
 20
14.1418990455
 11
15.3248939842
 21
14.1418990455
  0
LINE
  5
2C1
100
AcDbEntity
  8
0
100
AcDbLine
 62
7
  6
CONTINUOUS
 10
16.5885678182
 20
14.1006512215
 11
16.5759523728
 21
14.1263587963
  0
ARC
  5
2C2
100
AcDbEntity
  8
0
100
AcDbCircle
 62
7
  6
CONTINUOUS
 10
5.4926698438
 20
5.4932865745
 40
0.025
100
AcDbArc
 50
193.0
 51
270.0
  0
ARC
  5
2C3
100
AcDbEntity
  8
0
100
AcDbCircle
 62
7
  6
CONTINUOUS
 10
5.5166031809
 20
5.3896199026
 40
0.025
100
AcDbArc
 50
192.999987829
 51
269.9999972621
  0
ARC
  5
2C4
100
AcDbEntity
  8
0
100
AcDbCircle
 62
7
  6
CONTINUOUS
 10
5.5428672762
 20
5.6092634686
 40
0.1
100
AcDbArc
 50
180.0
 51
193.0
  0
ARC
  5
2C5
100
AcDbEntity
  8
0
100
AcDbCircle
 62
7
  6
CONTINUOUS
 10
5.4678672762
 20
5.6506199078
 40
0.025
100
AcDbArc
 50
90.0
 51
180.0
  0
ARC
  5
2C6
100
AcDbEntity
  8
0
100
AcDbCircle
 62
7
  6
CONTINUOUS
 10
6.7680647085
 20
5.4932865745
 40
0.025
100
AcDbArc
 50
270.0
 51
347.0
  0
ARC
  5
2C7
100
AcDbEntity
  8
0
100
AcDbCircle
 62
7
  6
CONTINUOUS
 10
6.7441313727
 20
5.3896199078
 40
0.025
100
AcDbArc
 50
270.0
 51
347.0
  0
ARC
  5
2C8
100
AcDbEntity
  8
0
100
AcDbCircle
 62
7
  6
CONTINUOUS
 10
6.7178672762
 20
5.6092634686
 40
0.1
100
AcDbArc
 50
347.0
 51
360.0
  0
ARC
  5
2C9
100
AcDbEntity
  8
0
100
AcDbCircle
 62
7
  6
CONTINUOUS
 10
6.7928672762
 20
5.6506199078
 40
0.025
100
AcDbArc
 50
0.0
 51
90.0
  0
ARC
  5
2CA
100
AcDbEntity
  8
0
100
AcDbCircle
 62
7
  6
CONTINUOUS
 10
13.7179369723
 20
5.3310413821
 40
0.0259166667
100
AcDbArc
 50
193.0
 51
270.0
  0
ARC
  5
2CB
100
AcDbEntity
  8
0
100
AcDbCircle
 62
7
  6
CONTINUOUS
 10
13.9027735415
 20
5.3310413821
 40
0.0259166667
100
AcDbArc
 50
270.0
 51
347.0
  0
ARC
  5
2CC
100
AcDbEntity
  8
0
100
AcDbCircle
 62
7
  6
CONTINUOUS
 10
14.2179369723
 20
5.3310413821
 40
0.0259166667
100
AcDbArc
 50
193.0
 51
270.0
  0
ARC
  5
2CD
100
AcDbEntity
  8
0
100
AcDbCircle
 62
7
  6
CONTINUOUS
 10
14.4027735415
 20
5.3310413821
 40
0.0259166667
100
AcDbArc
 50
270.0
 51
347.0
  0
ARC
  5
2CE
100
AcDbEntity
  8
0
100
AcDbCircle
 62
7
  6
CONTINUOUS
 10
14.7179369723
 20
5.3310413821
 40
0.0259166667
100
AcDbArc
 50
193.0
 51
270.0
  0
ARC
  5
2CF
100
AcDbEntity
  8
0
100
AcDbCircle
 62
7
  6
CONTINUOUS
 10
14.9027735415
 20
5.3310413821
 40
0.0259166667
100
AcDbArc
 50
270.0
 51
347.0
  0
ARC
  5
2D0
100
AcDbEntity
  8
0
100
AcDbCircle
 62
7
  6
CONTINUOUS
 10
15.2179369723
 20
5.3310413821
 40
0.0259166667
100
AcDbArc
 50
193.0
 51
270.0
  0
ARC
  5
2D1
100
AcDbEntity
  8
0
100
AcDbCircle
 62
7
  6
CONTINUOUS
 10
15.4027735415
 20
5.3310413821
 40
0.0259166667
100
AcDbArc
 50
270.0
 51
347.0
  0
ARC
  5
2D2
100
AcDbEntity
  8
0
100
AcDbCircle
 62
7
  6
CONTINUOUS
 10
13.6527735415
 20
5.3828747155
 40
0.0259166667
100
AcDbArc
 50
13.0
 51
90.0
  0
ARC
  5
2D3
100
AcDbEntity
  8
0
100
AcDbCircle
 62
7
  6
CONTINUOUS
 10
13.9679369723
 20
5.3828747155
 40
0.0259166667
100
AcDbArc
 50
90.0
 51
167.0
  0
ARC
  5
2D4
100
AcDbEntity
  8
0
100
AcDbCircle
 62
7
  6
CONTINUOUS
 10
14.1527735415
 20
5.3828747155
 40
0.0259166667
100
AcDbArc
 50
13.0
 51
90.0
  0
ARC
  5
2D5
100
AcDbEntity
  8
0
100
AcDbCircle
 62
7
  6
CONTINUOUS
 10
14.4679369723
 20
5.3828747155
 40
0.0259166667
100
AcDbArc
 50
90.0
 51
167.0
  0
ARC
  5
2D6
100
AcDbEntity
  8
0
100
AcDbCircle
 62
7
  6
CONTINUOUS
 10
14.6527735415
 20
5.3828747155
 40
0.0259166667
100
AcDbArc
 50
13.0
 51
90.0
  0
ARC
  5
2D7
100
AcDbEntity
  8
0
100
AcDbCircle
 62
7
  6
CONTINUOUS
 10
14.9679369723
 20
5.3828747155
 40
0.0259166667
100
AcDbArc
 50
90.0
 51
167.0
  0
ARC
  5
2D8
100
AcDbEntity
  8
0
100
AcDbCircle
 62
7
  6
CONTINUOUS
 10
15.1527735415
 20
5.3828747155
 40
0.0259166667
100
AcDbArc
 50
13.0
 51
90.0
  0
ARC
  5
2D9
100
AcDbEntity
  8
0
100
AcDbCircle
 62
7
  6
CONTINUOUS
 10
15.4679369723
 20
5.3828747155
 40
0.0259166667
100
AcDbArc
 50
90.0
 51
167.0
  0
ARC
  5
2DA
100
AcDbEntity
  8
0
100
AcDbCircle
 62
7
  6
CONTINUOUS
 10
17.4027735415
 20
5.3310413821
 40
0.0259166667
100
AcDbArc
 50
270.0
 51
347.0
  0
ARC
  5
2DB
100
AcDbEntity
  8
0
100
AcDbCircle
 62
7
  6
CONTINUOUS
 10
17.2179369723
 20
5.3310413821
 40
0.0259166667
100
AcDbArc
 50
193.0
 51
270.0
  0
ARC
  5
2DC
100
AcDbEntity
  8
0
100
AcDbCircle
 62
7
  6
CONTINUOUS
 10
16.9027735415
 20
5.3310413821
 40
0.0259166667
100
AcDbArc
 50
270.0
 51
347.0
  0
ARC
  5
2DD
100
AcDbEntity
  8
0
100
AcDbCircle
 62
7
  6
CONTINUOUS
 10
16.7179369723
 20
5.3310413821
 40
0.0259166667
100
AcDbArc
 50
193.0
 51
270.0
  0
ARC
  5
2DE
100
AcDbEntity
  8
0
100
AcDbCircle
 62
7
  6
CONTINUOUS
 10
16.4027735415
 20
5.3310413821
 40
0.0259166667
100
AcDbArc
 50
270.0
 51
347.0
  0
ARC
  5
2DF
100
AcDbEntity
  8
0
100
AcDbCircle
 62
7
  6
CONTINUOUS
 10
16.2179369723
 20
5.3310413821
 40
0.0259166667
100
AcDbArc
 50
193.0
 51
270.0
  0
ARC
  5
2E0
100
AcDbEntity
  8
0
100
AcDbCircle
 62
7
  6
CONTINUOUS
 10
15.9027735415
 20
5.3310413821
 40
0.0259166667
100
AcDbArc
 50
270.0
 51
347.0
  0
ARC
  5
2E1
100
AcDbEntity
  8
0
100
AcDbCircle
 62
7
  6
CONTINUOUS
 10
15.7179369723
 20
5.3310413821
 40
0.0259166667
100
AcDbArc
 50
193.0
 51
270.0
  0
ARC
  5
2E2
100
AcDbEntity
  8
0
100
AcDbCircle
 62
7
  6
CONTINUOUS
 10
17.4679369723
 20
5.3828747155
 40
0.0259166667
100
AcDbArc
 50
90.0
 51
167.0
  0
ARC
  5
2E3
100
AcDbEntity
  8
0
100
AcDbCircle
 62
7
  6
CONTINUOUS
 10
17.1527735415
 20
5.3828747155
 40
0.0259166667
100
AcDbArc
 50
13.0
 51
90.0
  0
ARC
  5
2E4
100
AcDbEntity
  8
0
100
AcDbCircle
 62
7
  6
CONTINUOUS
 10
16.9679369723
 20
5.3828747155
 40
0.0259166667
100
AcDbArc
 50
90.0
 51
167.0
  0
ARC
  5
2E5
100
AcDbEntity
  8
0
100
AcDbCircle
 62
7
  6
CONTINUOUS
 10
16.6527735415
 20
5.3828747155
 40
0.0259166667
100
AcDbArc
 50
13.0
 51
90.0
  0
ARC
  5
2E6
100
AcDbEntity
  8
0
100
AcDbCircle
 62
7
  6
CONTINUOUS
 10
16.4679369723
 20
5.3828747155
 40
0.0259166667
100
AcDbArc
 50
90.0
 51
167.0
  0
ARC
  5
2E7
100
AcDbEntity
  8
0
100
AcDbCircle
 62
7
  6
CONTINUOUS
 10
16.1527735415
 20
5.3828747155
 40
0.0259166667
100
AcDbArc
 50
13.0
 51
90.0
  0
ARC
  5
2E8
100
AcDbEntity
  8
0
100
AcDbCircle
 62
7
  6
CONTINUOUS
 10
15.9679369723
 20
5.3828747155
 40
0.0259166667
100
AcDbArc
 50
90.0
 51
167.0
  0
ARC
  5
2E9
100
AcDbEntity
  8
0
100
AcDbCircle
 62
7
  6
CONTINUOUS
 10
15.6527735415
 20
5.3828747155
 40
0.0259166667
100
AcDbArc
 50
13.0
 51
90.0
  0
SPLINE
  5
2EA
100
AcDbEntity
  8
0
100
AcDbSpline
 62
7
  6
CONTINUOUS
 70
0
 71
3
 72
15
 73
11
 74
0
 42
0.0000001
 43
0.0000001
 44
0.0000000001
 40
0.0
 40
0.0
 40
0.0
 40
0.0
 40
0.1295684251
 40
0.2645755202
 40
0.4012659894
 40
0.5362717112
 40
0.6662157724
 40
0.7881012254
 40
0.8998144528
 40
1.0
 40
1.0
 40
1.0
 40
1.0
 10
16.5452998012
 20
14.1418990455
 30
0.0
 10
16.5468480586
 20
14.1418990455
 30
0.0
 10
16.5500120087
 20
14.1416838187
 30
0.0
 10
16.5547345239
 20
14.1407999258
 30
0.0
 10
16.5593908328
 20
14.139372474
 30
0.0
 10
16.5638027024
 20
14.1374571549
 30
0.0
 10
16.5678088924
 20
14.1351284679
 30
0.0
 10
16.5712609748
 20
14.1324671334
 30
0.0
 10
16.5740268283
 20
14.1295710888
 30
0.0
 10
16.5754249765
 20
14.127433517
 30
0.0
 10
16.5759523728
 20
14.1263587963
 30
0.0
  0
SPLINE
  5
2EB
100
AcDbEntity
  8
0
100
AcDbSpline
 62
7
  6
CONTINUOUS
 70
0
 71
3
 72
15
 73
11
 74
0
 42
0.0000001
 43
0.0000001
 44
0.0000000001
 40
0.0
 40
0.0
 40
0.0
 40
0.0
 40
0.0996461296
 40
0.2028720903
 40
0.3125943917
 40
0.4308574397
 40
0.5588156819
 40
0.696831654
 40
0.844398509
 40
1.0
 40
1.0
 40
1.0
 40
1.0
 10
15.3086344951
 20
14.1337399887
 30
0.0
 10
15.3088246103
 20
14.1343552304
 30
0.0
 10
15.3093632491
 20
14.1355661743
 30
0.0
 10
15.3105942378
 20
14.1371871201
 30
0.0
 10
15.3122176267
 20
14.1386022868
 30
0.0
 10
15.3142017941
 20
14.1397863449
 30
0.0
 10
15.3165093379
 20
14.1407249757
 30
0.0
 10
15.3191009511
 20
14.1414037028
 30
0.0
 10
15.3219278249
 20
14.1418113635
 30
0.0
 10
15.3238884366
 20
14.1418990455
 30
0.0
 10
15.3248939842
 20
14.1418990455
 30
0.0
  0
SPLINE
  5
2EC
100
AcDbEntity
  8
0
100
AcDbSpline
 62
7
  6
CONTINUOUS
 70
0
 71
3
 72
11
 73
7
 74
0
 42
0.0000001
 43
0.0000001
 44
0.0000000001
 40
0.0
 40
0.0
 40
0.0
 40
0.0
 40
0.2336947436
 40
0.4747282169
 40
0.7289544506
 40
1.0
 40
1.0
 40
1.0
 40
1.0
 10
14.3403692015
 20
11.0004323502
 30
0.0
 10
14.3401943468
 20
10.9998664936
 30
0.0
 10
14.3399640349
 20
10.9986743457
 30
0.0
 10
14.3400063238
 20
10.9968150672
 30
0.0
 10
14.3404241323
 20
10.9949078928
 30
0.0
 10
14.3409255968
 20
10.9936678235
 30
0.0
 10
14.3412282124
 20
10.9930511578
 30
0.0
  0
SPLINE
  5
2ED
100
AcDbEntity
  8
0
100
AcDbSpline
 62
7
  6
CONTINUOUS
 70
0
 71
3
 72
9
 73
5
 74
0
 42
0.0000001
 43
0.0000001
 44
0.0000000001
 40
0.0
 40
0.0
 40
0.0
 40
0.0
 40
0.5155721168
 40
1.0
 40
1.0
 40
1.0
 40
1.0
 10
16.5885678182
 20
14.1006512215
 30
0.0
 10
16.589683307
 20
14.0983780942
 30
0.0
 10
16.591562333
 20
14.0938206191
 30
0.0
 10
16.5927192962
 20
14.0890213074
 30
0.0
 10
16.5930690938
 20
14.0866680397
 30
0.0
  0
SPLINE
  5
2EE
100
AcDbEntity
  8
0
100
AcDbSpline
 62
7
  6
CONTINUOUS
 70
0
 71
3
 72
14
 73
10
 74
0
 42
0.0000001
 43
0.0000001
 44
0.0000000001
 40
0.0
 40
0.0
 40
0.0
 40
0.0
 40
0.1556084254
 40
0.3032498256
 40
0.5688436772
 40
0.6871579595
 40
0.7968877198
 40
0.9001724303
 40
1.0
 40
1.0
 40
1.0
 40
1.0
 10
15.617435177
 20
10.8797109403
 30
0.0
 10
15.6184401911
 20
10.8797109403
 30
0.0
 10
15.6204010755
 20
10.8797988376
 30
0.0
 10
15.6240390412
 20
10.8803235493
 30
0.0
 10
15.6273599518
 20
10.8813676757
 30
0.0
 10
15.6301103927
 20
10.8830063895
 30
0.0
 10
15.6317341289
 20
10.8844208283
 30
0.0
 10
15.6329651119
 20
10.8860422511
 30
0.0
 10
15.6335040519
 20
10.8872540732
 30
0.0
 10
15.6336937286
 20
10.8878702889
 30
0.0
  0
SPLINE
  5
2EF
100
AcDbEntity
  8
0
100
AcDbSpline
 62
7
  6
CONTINUOUS
 70
0
 71
3
 72
15
 73
11
 74
0
 42
0.0000001
 43
0.0000001
 44
0.0000000001
 40
0.0
 40
0.0
 40
0.0
 40
0.0
 40
0.108908247
 40
0.2266170021
 40
0.3512073183
 40
0.4806317595
 40
0.6126739289
 40
0.744958812
 40
0.8750051135
 40
1.0
 40
1.0
 40
1.0
 40
1.0
 10
14.4143717993
 20
10.891755394
 30
0.0
 10
14.4151074064
 20
10.8908721152
 30
0.0
 10
14.4167880422
 20
10.8891568212
 30
0.0
 10
14.4197053457
 20
10.8868567197
 30
0.0
 10
14.4230509226
 20
10.8847921966
 30
0.0
 10
14.4267256109
 20
10.8830162577
 30
0.0
 10
14.4306320828
 20
10.8815797142
 30
0.0
 10
14.4346636694
 20
10.8805181904
 30
0.0
 10
14.438706053
 20
10.8798682571
 30
0.0
 10
14.44139945
 20
10.8797109403
 30
0.0
 10
14.4427187152
 20
10.8797109403
 30
0.0
  0
SPLINE
  5
2F0
100
AcDbEntity
  8
0
100
AcDbSpline
 62
7
  6
CONTINUOUS
 70
0
 71
3
 72
9
 73
5
 74
0
 42
0.0000001
 43
0.0000001
 44
0.0000000001
 40
0.0
 40
0.0
 40
0.0
 40
0.0
 40
0.2380066508
 40
1.0
 40
1.0
 40
1.0
 40
1.0
 10
14.3538436578
 20
10.967343583
 30
0.0
 10
14.3544299068
 20
10.9661489332
 30
0.0
 10
14.3570659145
 20
10.9612146949
 30
0.0
 10
14.3603398054
 20
10.9566342106
 30
0.0
 10
14.3630662801
 20
10.9533604012
 30
0.0
  0
SPLINE
  5
2F1
100
AcDbEntity
  8
0
100
AcDbSpline
 62
7
  6
CONTINUOUS
 70
0
 71
3
 72
9
 73
5
 74
0
 42
0.0000001
 43
0.0000001
 44
0.0000000001
 40
0.0
 40
0.0
 40
0.0
 40
0.0
 40
0.4844278832
 40
1.0
 40
1.0
 40
1.0
 40
1.0
 10
15.6248038001
 20
10.9533604012
 30
0.0
 10
15.6244540026
 20
10.9557136689
 30
0.0
 10
15.6232970394
 20
10.9605129806
 30
0.0
 10
15.6214180134
 20
10.9650704557
 30
0.0
 10
15.6203025245
 20
10.967343583
 30
0.0
  0
SPLINE
  5
2F2
100
AcDbEntity
  8
0
100
AcDbSpline
 62
7
  6
CONTINUOUS
 70
0
 71
3
 72
15
 73
11
 74
0
 42
0.0000001
 43
0.0000001
 44
0.0000000001
 40
0.0
 40
0.0
 40
0.0
 40
0.0
 40
0.1001855472
 40
0.2118987746
 40
0.3337842276
 40
0.4637282888
 40
0.5987340106
 40
0.7354244798
 40
0.8704315749
 40
1.0
 40
1.0
 40
1.0
 40
1.0
 10
15.6076870791
 20
10.9930511578
 30
0.0
 10
15.6071596828
 20
10.9941258785
 30
0.0
 10
15.6057615347
 20
10.9962634503
 30
0.0
 10
15.6029956811
 20
10.9991594949
 30
0.0
 10
15.5995435988
 20
11.0018208294
 30
0.0
 10
15.5955374088
 20
11.0041495164
 30
0.0
 10
15.5911255391
 20
11.0060648355
 30
0.0
 10
15.5864692303
 20
11.0074922873
 30
0.0
 10
15.5817467151
 20
11.0083761802
 30
0.0
 10
15.578582765
 20
11.008591407
 30
0.0
 10
15.5770345076
 20
11.008591407
 30
0.0
  0
SPLINE
  5
2F3
100
AcDbEntity
  8
0
100
AcDbSpline
 62
7
  6
CONTINUOUS
 70
0
 71
3
 72
15
 73
11
 74
0
 42
0.0000001
 43
0.0000001
 44
0.0000000001
 40
0.0
 40
0.0
 40
0.0
 40
0.0
 40
0.155601491
 40
0.303168346
 40
0.4411843181
 40
0.5691425603
 40
0.6874056083
 40
0.7971279097
 40
0.9003538704
 40
1.0
 40
1.0
 40
1.0
 40
1.0
 10
14.3566286906
 20
11.008591407
 30
0.0
 10
14.355623143
 20
11.008591407
 30
0.0
 10
14.3536625312
 20
11.008503725
 30
0.0
 10
14.3508356575
 20
11.0080960643
 30
0.0
 10
14.3482440443
 20
11.0074173372
 30
0.0
 10
14.3459365004
 20
11.0064787064
 30
0.0
 10
14.3439523331
 20
11.0052946483
 30
0.0
 10
14.3423289441
 20
11.0038794816
 30
0.0
 10
14.3410979555
 20
11.0022585358
 30
0.0
 10
14.3405593167
 20
11.0010475919
 30
0.0
 10
14.3403692015
 20
11.0004323502
 30
0.0
  0
ENDSEC
  0
SECTION
  2
OBJECTS
  0
DICTIONARY
  5
C
100
AcDbDictionary
280
0
281
1
  3
ACAD_GROUP
350
D
  3
ACAD_MLINESTYLE
350
17
  3
ACAD_LAYOUT
350
1A
  3
ACAD_PLOTSETTINGS
350
19
  3
ACAD_PLOTSTYLENAME
350
E
  0
DICTIONARY
  5
D
102
{ACAD_REACTORS
330
C
102
}
100
AcDbDictionary
280
0
281
1
  0
ACDBDICTIONARYWDFLT
  5
E
102
{ACAD_REACTORS
330
C
102
}
100
AcDbDictionary
281
1
  3
Normal
350
F
100
AcDbDictionaryWithDefault
340
F
  0
DICTIONARY
  5
17
102
{ACAD_REACTORS
330
C
102
}
100
AcDbDictionary
280
0
281
1
  3
Standard
350
18
  0
DICTIONARY
  5
19
102
{ACAD_REACTORS
330
C
102
}
100
AcDbDictionary
281
1
  0
DICTIONARY
  5
1A
102
{ACAD_REACTORS
330
C
102
}
100
AcDbDictionary
281
1
  3
Model
350
2F4
  3
Layout1
350
2F5
  0
ACDBPLACEHOLDER
  5
F
102
{ACAD_REACTORS
330
E
102
}
  0
MLINESTYLE
  5
18
102
{ACAD_REACTORS
330
17
102
}
100
AcDbMlineStyle
  2
STANDARD
 70
0
  3

 62
256
 51
90.0
 52
90.0
 71
2
 49
0.5
 62
256
  6
BYLAYER
 49
-0.5
 62
256
  6
BYLAYER
  0
LAYOUT
  5
2F4
102
{ACAD_REACTORS
330
1A
102
}
100
AcDbPlotSettings
  1

  2
none_device
  4
ANSI_C_(22.00_x_17.00_Inches)
  6

 40
0.0
 41
0.0
 42
0.0
 43
0.0
 44
558.8
 45
431.8
 46
0.0
 47
0.0
 48
0.0
 49
0.0
140
0.0
141
0.0
142
1.0
143
1.0
 70
1024
 72
0
 73
0
 74
0
  7

 75
0
147
1.0
148
0.0
149
0.0
100
AcDbLayout
  1
Model
 70
0
 71
0
 10
0.0
 20
0.0
 11
22.0
 21
17.0
 12
0.0
 22
0.0
 32
0.0
 14
0.0
 24
0.0
 34
0.0
 15
0.0
 25
0.0
 35
0.0
146
0.0
 13
0.0
 23
0.0
 33
0.0
 16
1.0
 26
0.0
 36
0.0
 17
0.0
 27
1.0
 37
0.0
 76
0
330
216
345
0
346
0
  0
LAYOUT
  5
2F5
102
{ACAD_REACTORS
330
1A
102
}
100
AcDbPlotSettings
  1

  2
none_device
  4
ANSI_C_(22.00_x_17.00_Inches)
  6

 40
0.0
 41
0.0
 42
0.0
 43
0.0
 44
558.8
 45
431.8
 46
0.0
 47
0.0
 48
0.0
 49
0.0
140
0.0
141
0.0
142
1.0
143
1.0
 70
0
 72
0
 73
0
 74
0
  7

 75
0
147
1.0
148
0.0
149
0.0
100
AcDbLayout
  1
Layout1
 70
0
 71
1
 10
0.0
 20
0.0
 11
22.0
 21
17.0
 12
0.0
 22
0.0
 32
0.0
 14
0.0
 24
0.0
 34
0.0
 15
0.0
 25
0.0
 35
0.0
146
0.0
 13
0.0
 23
0.0
 33
0.0
 16
1.0
 26
0.0
 36
0.0
 17
0.0
 27
1.0
 37
0.0
 76
0
330
217
345
0
346
0
  0
ENDSEC
  0
EOF