999
DXF file: _cgs_temp_output.dxf
999
Pro/ENGINEER 2016360 by Parametric Technology Corporation
  0
SECTION
  2
HEADER
  9
$ACADVER
  1
AC1021
  9
$DWGCODEPAGE
  3
ANSI_1252
  9
$EXTMAX
 10
22.0
 20
17.0
 30
0.0
  9
$EXTMIN
 10
0.0
 20
0.0
 30
0.0
  9
$LIMMIN
 10
0.0
 20
0.0
  9
$LIMMAX
 10
22.0
 20
17.0
  9
$VIEWCTR
 10
11.0
 20
8.5
  9
$VIEWSIZE
 40
17.0
  9
$CLAYER
  8
0
  9
$LTSCALE
 40
1.21
  9
$CELTYPE
  6
BYLAYER
  9
$DIMSCALE
 40
1.0
  9
$DIMASZ
 40
0.1875
  9
$DIMEXO
 40
0.0625
  9
$DIMDLI
 40
0.836
  9
$DIMEXE
 40
0.125
  9
$DIMCEN
 40
0.198
  9
$DIMLFAC
 40
1.0
  9
$DIMBLK
  1
_CLOSED
  9
$DIMALT
 70
0
  9
$DIMALTF
 40
25.4
  9
$DIMTXT
 40
0.15625
  9
$DIMTOL
 70
0
  9
$DIMLIM
 70
0
  9
$DIMTFAC
 40
1.0
  9
$DIMGAP
 40
0.09
  9
$DIMDSEP
 70
46
  9
$AUNITS
 70
0
  9
$PDMODE
 70
3
  9
$PDSIZE
 40
0.3125
  9
$HANDSEED
  5
27E
  9
$TILEMODE
 70
1
  9
$MEASUREMENT
 70
0
  9
$INSUNITS
 70
1
  0
ENDSEC
  0
SECTION
  2
CLASSES
  0
CLASS
  1
ACDBDICTIONARYWDFLT
  2
AcDbDictionaryWithDefault
  3
AutoCAD 2000
 90
0
 91
1
280
0
281
0
  0
CLASS
  1
ACDBPLACEHOLDER
  2
AcDbPlaceHolder
  3
AutoCAD 2000
 90
0
 91
1
280
0
281
0
  0
CLASS
  1
LAYOUT
  2
AcDbLayout
  3
AutoCAD 2000
 90
0
 91
0
280
0
281
0
  0
ENDSEC
  0
SECTION
  2
TABLES
  0
TABLE
  2
VPORT
  5
8
100
AcDbSymbolTable
 70
2
  0
VPORT
  5
1F4
100
AcDbSymbolTableRecord
100
AcDbViewportTableRecord
  2
*ACTIVE
 70
0
 10
0.0
 20
0.0
 11
1.0
 21
1.0
 12
11.0
 22
8.5
 13
0.0
 23
0.0
 14
1.0
 24
1.0
 15
0.0
 25
0.0
 16
0.0
 26
0.0
 36
1.0
 17
0.0
 27
0.0
 37
0.0
 40
17.0
 41
1.2941176471
 42
50.0
 43
0.0
 44
0.0
 50
0.0
 51
0.0
 71
0
 72
100
 73
1
 74
1
 75
0
 76
0
 77
0
 78
0
  0
ENDTAB
  0
TABLE
  2
LTYPE
  5
5
100
AcDbSymbolTable
 70
6
  0
LTYPE
  5
14
100
AcDbSymbolTableRecord
100
AcDbLinetypeTableRecord
  2
BYBLOCK
 70
0
  3

 72
65
 73
0
 40
0.0
  0
LTYPE
  5
15
100
AcDbSymbolTableRecord
100
AcDbLinetypeTableRecord
  2
BYLAYER
 70
0
  3

 72
65
 73
0
 40
0.0
  0
LTYPE
  5
16
100
AcDbSymbolTableRecord
100
AcDbLinetypeTableRecord
  2
CONTINUOUS
 70
64
  3
Solid line
 72
65
 73
0
 40
0.0
  0
LTYPE
  5
1F5
100
AcDbSymbolTableRecord
100
AcDbLinetypeTableRecord
  2
CENTER
 70
64
  3
____ _ ____ _ ____ _ ____ _ ____ _ ____ _ ____
 72
65
 73
4
 40
0.6
 49
0.375
 74
0
 49
-0.075
 74
0
 49
0.075
 74
0
 49
-0.075
 74
0
  0
LTYPE
  5
1F6
100
AcDbSymbolTableRecord
100
AcDbLinetypeTableRecord
  2
HIDDEN
 70
64
  3
- - - - - - - - - - - - - - - - - - - -
 72
65
 73
2
 40
0.2
 49
0.1
 74
0
 49
-0.1
 74
0
  0
LTYPE
  5
1F7
100
AcDbSymbolTableRecord
100
AcDbLinetypeTableRecord
  2
PHANTOM
 70
64
  3
_____ _ _ _____ _ _ _____ _ _ _____
 72
65
 73
6
 40
0.8
 49
0.45
 74
0
 49
-0.05
 74
0
 49
0.1
 74
0
 49
-0.05
 74
0
 49
0.1
 74
0
 49
-0.05
 74
0
  0
LTYPE
  5
1F8
100
AcDbSymbolTableRecord
100
AcDbLinetypeTableRecord
  2
DOT
 70
64
  3
. . . . . . . . . . . . . . . . . . . .
 72
65
 73
2
 40
0.2
 49
0.1
 74
0
 49
-0.1
 74
0
  0
LTYPE
  5
1F9
100
AcDbSymbolTableRecord
100
AcDbLinetypeTableRecord
  2
DASHED
 70
64
  3
- - - - - - - - - - - - - - - - - - - -
 72
65
 73
2
 40
0.2
 49
0.1
 74
0
 49
-0.1
 74
0
  0
ENDTAB
  0
TABLE
  2
LAYER
  5
2
100
AcDbSymbolTable
 70
36
  0
LAYER
  5
10
100
AcDbSymbolTableRecord
100
AcDbLayerTableRecord
  2
0
 70
0
 62
7
  6
CONTINUOUS
370
-3
390
F
  0
LAYER
  5
1FA
100
AcDbSymbolTableRecord
100
AcDbLayerTableRecord
  2
DEFAULT_1
 70
0
 62
7
  6
CENTER
370
-3
390
F
  0
LAYER
  5
1FB
100
AcDbSymbolTableRecord
100
AcDbLayerTableRecord
  2
DEFAULT_2
 70
0
 62
8
  6
HIDDEN
370
-3
390
F
  0
LAYER
  5
1FC
100
AcDbSymbolTableRecord
100
AcDbLayerTableRecord
  2
DEFAULT_3
 70
0
 62
7
  6
PHANTOM
370
-3
390
F
  0
LAYER
  5
1FD
100
AcDbSymbolTableRecord
100
AcDbLayerTableRecord
  2
01_ALL_DTM_PLN
 70
0
 62
7
  6
CONTINUOUS
370
-3
390
F
  0
LAYER
  5
1FE
100
AcDbSymbolTableRecord
100
AcDbLayerTableRecord
  2
01__ASM_ALL_DTM_PLN
 70
0
 62
7
  6
CONTINUOUS
370
-3
390
F
  0
LAYER
  5
1FF
100
AcDbSymbolTableRecord
100
AcDbLayerTableRecord
  2
01__ASM_DEF_DTM_PLN
 70
0
 62
7
  6
CONTINUOUS
370
-3
390
F
  0
LAYER
  5
200
100
AcDbSymbolTableRecord
100
AcDbLayerTableRecord
  2
01___PRT_ALL_DTM_PLN
 70
0
 62
7
  6
CONTINUOUS
370
-3
390
F
  0
LAYER
  5
201
100
AcDbSymbolTableRecord
100
AcDbLayerTableRecord
  2
01___PRT_DEF_DTM_PLN
 70
0
 62
7
  6
CONTINUOUS
370
-3
390
F
  0
LAYER
  5
202
100
AcDbSymbolTableRecord
100
AcDbLayerTableRecord
  2
02_ALL_AXES
 70
0
 62
7
  6
CONTINUOUS
370
-3
390
F
  0
LAYER
  5
203
100
AcDbSymbolTableRecord
100
AcDbLayerTableRecord
  2
02__ASM_ALL_AXES
 70
0
 62
7
  6
CONTINUOUS
370
-3
390
F
  0
LAYER
  5
204
100
AcDbSymbolTableRecord
100
AcDbLayerTableRecord
  2
02___PRT_ALL_AXES
 70
0
 62
7
  6
CONTINUOUS
370
-3
390
F
  0
LAYER
  5
205
100
AcDbSymbolTableRecord
100
AcDbLayerTableRecord
  2
03_ALL_CURVES
 70
0
 62
7
  6
CONTINUOUS
370
-3
390
F
  0
LAYER
  5
206
100
AcDbSymbolTableRecord
100
AcDbLayerTableRecord
  2
03__ASM_ALL_CURVES
 70
0
 62
7
  6
CONTINUOUS
370
-3
390
F
  0
LAYER
  5
207
100
AcDbSymbolTableRecord
100
AcDbLayerTableRecord
  2
03___PRT_ALL_CURVES
 70
0
 62
7
  6
CONTINUOUS
370
-3
390
F
  0
LAYER
  5
208
100
AcDbSymbolTableRecord
100
AcDbLayerTableRecord
  2
04_ALL_DTM_PNT
 70
0
 62
7
  6
CONTINUOUS
370
-3
390
F
  0
LAYER
  5
209
100
AcDbSymbolTableRecord
100
AcDbLayerTableRecord
  2
04__ASM_ALL_DTM_PNT
 70
0
 62
7
  6
CONTINUOUS
370
-3
390
F
  0
LAYER
  5
20A
100
AcDbSymbolTableRecord
100
AcDbLayerTableRecord
  2
04___PRT_ALL_DTM_PNT
 70
0
 62
7
  6
CONTINUOUS
370
-3
390
F
  0
LAYER
  5
20B
100
AcDbSymbolTableRecord
100
AcDbLayerTableRecord
  2
05_ALL_DTM_CSYS
 70
0
 62
7
  6
CONTINUOUS
370
-3
390
F
  0
LAYER
  5
20C
100
AcDbSymbolTableRecord
100
AcDbLayerTableRecord
  2
05__ASM_ALL_DTM_CSYS
 70
0
 62
7
  6
CONTINUOUS
370
-3
390
F
  0
LAYER
  5
20D
100
AcDbSymbolTableRecord
100
AcDbLayerTableRecord
  2
05__ASM_DEF_DTM_CSYS
 70
0
 62
7
  6
CONTINUOUS
370
-3
390
F
  0
LAYER
  5
20E
100
AcDbSymbolTableRecord
100
AcDbLayerTableRecord
  2
05___PRT_ALL_DTM_CSYS
 70
0
 62
7
  6
CONTINUOUS
370
-3
390
F
  0
LAYER
  5
20F
100
AcDbSymbolTableRecord
100
AcDbLayerTableRecord
  2
05___PRT_DEF_DTM_CSYS
 70
0
 62
7
  6
CONTINUOUS
370
-3
390
F
  0
LAYER
  5
210
100
AcDbSymbolTableRecord
100
AcDbLayerTableRecord
  2
06_ALL_SURFS
 70
0
 62
7
  6
CONTINUOUS
370
-3
390
F
  0
LAYER
  5
211
100
AcDbSymbolTableRecord
100
AcDbLayerTableRecord
  2
06__ASM_ALL_SURFS
 70
0
 62
7
  6
CONTINUOUS
370
-3
390
F
  0
LAYER
  5
212
100
AcDbSymbolTableRecord
100
AcDbLayerTableRecord
  2
06___PRT_ALL_SURFS
 70
0
 62
7
  6
CONTINUOUS
370
-3
390
F
  0
LAYER
  5
213
100
AcDbSymbolTableRecord
100
AcDbLayerTableRecord
  2
07__ASM_ALL_SKELETONS
 70
0
 62
7
  6
CONTINUOUS
370
-3
390
F
  0
LAYER
  5
214
100
AcDbSymbolTableRecord
100
AcDbLayerTableRecord
  2
ASM0001
 70
0
 62
7
  6
CONTINUOUS
370
-3
390
F
  0
LAYER
  5
215
100
AcDbSymbolTableRecord
100
AcDbLayerTableRecord
  2
COLOR2
 70
0
 62
7
  6
CONTINUOUS
370
-3
390
F
  0
LAYER
  5
216
100
AcDbSymbolTableRecord
100
AcDbLayerTableRecord
  2
COLOR6
 70
0
 62
7
  6
CONTINUOUS
370
-3
390
F
  0
LAYER
  5
217
100
AcDbSymbolTableRecord
100
AcDbLayerTableRecord
  2
INTFCLR_1205
 70
0
 62
7
  6
CONTINUOUS
370
-3
390
F
  0
LAYER
  5
218
100
AcDbSymbolTableRecord
100
AcDbLayerTableRecord
  2
INTFCLR_1205_1
 70
0
 62
7
  6
CONTINUOUS
370
-3
390
F
  0
LAYER
  5
219
100
AcDbSymbolTableRecord
100
AcDbLayerTableRecord
  2
INTFCLR_1205_2
 70
0
 62
7
  6
CONTINUOUS
370
-3
390
F
  0
LAYER
  5
21A
100
AcDbSymbolTableRecord
100
AcDbLayerTableRecord
  2
NONE
 70
0
 62
7
  6
CONTINUOUS
370
-3
390
F
  0
LAYER
  5
21B
100
AcDbSymbolTableRecord
100
AcDbLayerTableRecord
  2
NONE_1
 70
0
 62
7
  6
CONTINUOUS
370
-3
390
F
  0
LAYER
  5
21C
100
AcDbSymbolTableRecord
100
AcDbLayerTableRecord
  2
NONE_2
 70
0
 62
7
  6
CONTINUOUS
370
-3
390
F
  0
LAYER
  5
21D
100
AcDbSymbolTableRecord
100
AcDbLayerTableRecord
  2
_1433
 70
0
 62
7
  6
CONTINUOUS
370
-3
390
F
  0
LAYER
  5
21E
100
AcDbSymbolTableRecord
100
AcDbLayerTableRecord
  2
_1433_1
 70
0
 62
7
  6
CONTINUOUS
370
-3
390
F
  0
LAYER
  5
21F
100
AcDbSymbolTableRecord
100
AcDbLayerTableRecord
  2
_297
 70
0
 62
7
  6
CONTINUOUS
370
-3
390
F
  0
LAYER
  5
220
100
AcDbSymbolTableRecord
100
AcDbLayerTableRecord
  2
_297_1
 70
0
 62
7
  6
CONTINUOUS
370
-3
390
F
  0
LAYER
  5
221
100
AcDbSymbolTableRecord
100
AcDbLayerTableRecord
  2
_515
 70
0
 62
7
  6
CONTINUOUS
370
-3
390
F
  0
LAYER
  5
222
100
AcDbSymbolTableRecord
100
AcDbLayerTableRecord
  2
_515_1
 70
0
 62
7
  6
CONTINUOUS
370
-3
390
F
  0
LAYER
  5
223
100
AcDbSymbolTableRecord
100
AcDbLayerTableRecord
  2
___SHELL
 70
0
 62
7
  6
CONTINUOUS
370
-3
390
F
  0
ENDTAB
  0
TABLE
  2
STYLE
  5
3
100
AcDbSymbolTable
 70
1
  0
STYLE
  5
11
100
AcDbSymbolTableRecord
100
AcDbTextStyleTableRecord
  2
STANDARD
 70
0
 40
0.0
 41
0.8
 50
0.0
 71
0
 42
0.2
  3
txt
  4

  0
STYLE
  5
224
100
AcDbSymbolTableRecord
100
AcDbTextStyleTableRecord
  2
TEXTSTYLE_1
 70
0
 40
0.0
 41
0.8
 50
0.0
 71
0
 42
0.2
  3
gdt
  4

  0
ENDTAB
  0
TABLE
  2
VIEW
  5
6
100
AcDbSymbolTable
 70
0
  0
ENDTAB
  0
TABLE
  2
UCS
  5
7
100
AcDbSymbolTable
 70
0
  0
ENDTAB
  0
TABLE
  2
APPID
  5
9
100
AcDbSymbolTable
 70
1
  0
APPID
  5
225
100
AcDbSymbolTableRecord
100
AcDbRegAppTableRecord
  2
ACAD
 70
0
  0
ENDTAB
  0
TABLE
  2
BLOCK_RECORD
  5
1
100
AcDbSymbolTable
 70
0
  0
BLOCK_RECORD
  5
226
100
AcDbSymbolTableRecord
100
AcDbBlockTableRecord
  2
*Model_Space
  0
BLOCK_RECORD
  5
227
100
AcDbSymbolTableRecord
100
AcDbBlockTableRecord
  2
*Paper_Space
  0
ENDTAB
  0
TABLE
  2
DIMSTYLE
  5
A
100
AcDbSymbolTable
 70
1
100
AcDbDimStyleTable
 71
0
  0
DIMSTYLE
105
228
100
AcDbSymbolTableRecord
100
AcDbDimStyleTableRecord
  2
STANDARD
 70
0
  3

  4

 40
1.0
 41
0.1875
 42
0.0625
 43
0.38
 44
0.125
 45
0.0
 46
0.0
 47
0.0001
 48
0.0001
140
0.15625
141
0.09
142
0.0
143
25.4
144
1.0
145
0.0
146
1.0
147
0.09
 71
0.0
 72
0.0
 73
1
 74
1
 75
0
 76
0
 77
0
 78
4
 79
1
170
0
171
3
172
0
173
0
174
0
175
0
176
0
177
0
178
0
270
2
179
4
271
4
272
4
273
2
274
2
275
0
280
0
281
0
282
0
283
1
284
4
285
0
286
0
287
3
288
0
340
11
278
46
  0
ENDTAB
  0
ENDSEC
  0
SECTION
  2
BLOCKS
  0
BLOCK
  5
20
100
AcDbEntity
  8
0
100
AcDbBlockBegin
  2
*Model_Space
 70
0
 10
0.0
 20
0.0
 30
0.0
  3
*Model_Space
  1

  0
ENDBLK
  5
21
100
AcDbEntity
  8
0
100
AcDbBlockEnd
  0
BLOCK
  5
1C
100
AcDbEntity
  8
0
100
AcDbBlockBegin
  2
*Paper_Space
 70
0
 10
0.0
 20
0.0
 30
0.0
  3
*Paper_Space
  1

  0
ENDBLK
  5
1D
100
AcDbEntity
  8
0
100
AcDbBlockEnd
  0
ENDSEC
  0
SECTION
  2
ENTITIES
  0
MTEXT
  5
229
100
AcDbEntity
  8
0
100
AcDbMText
 62
7
  6
CONTINUOUS
  7
STANDARD
 71
1
 72
1
 10
15.9560215477
 20
0.9479130325
 30
0.0
 11
1.0
 21
0.0
 31
0.0
 44
0.9
  1
SCALE: 1:0.200
 40
0.3
 41
3.36
  0
LINE
  5
22A
100
AcDbEntity
  8
0
100
AcDbLine
 62
7
  6
CONTINUOUS
 10
0.0
 20
0.0
 11
0.0
 21
17.0
  0
LINE
  5
22B
100
AcDbEntity
  8
0
100
AcDbLine
 62
7
  6
CONTINUOUS
 10
0.0
 20
0.0
 11
22.0
 21
0.0
  0
LINE
  5
22C
100
AcDbEntity
  8
0
100
AcDbLine
 62
7
  6
CONTINUOUS
 10
0.0
 20
17.0
 11
22.0
 21
17.0
  0
LINE
  5
22D
100
AcDbEntity
  8
0
100
AcDbLine
 62
7
  6
CONTINUOUS
 10
22.0
 20
0.0
 11
22.0
 21
17.0
  0
LINE
  5
22E
100
AcDbEntity
  8
0
100
AcDbLine
 62
7
  6
CONTINUOUS
 10
6.4606972762
 20
4.1831001662
 11
6.1553672762
 21
4.1831001662
  0
LINE
  5
22F
100
AcDbEntity
  8
0
100
AcDbLine
 62
7
  6
CONTINUOUS
 10
6.1053672762
 20
4.1831001662
 11
5.8000372762
 21
4.1831001662
  0
LINE
  5
230
100
AcDbEntity
  8
0
100
AcDbLine
 62
7
  6
CONTINUOUS
 10
6.1453672762
 20
4.2031001662
 11
6.1153672762
 21
4.2031001662
  0
LINE
  5
231
100
AcDbEntity
  8
0
100
AcDbLine
 62
7
  6
CONTINUOUS
 10
5.7760372762
 20
6.8362490855
 11
5.7760372762
 21
4.207111247
  0
LINE
  5
232
100
AcDbEntity
  8
0
100
AcDbLine
 62
7
  6
CONTINUOUS
 10
6.1153672762
 20
6.8502601662
 11
6.1153672762
 21
4.1931001662
  0
LINE
  5
233
100
AcDbEntity
  8
0
100
AcDbLine
 62
7
  6
CONTINUOUS
 10
6.1453672762
 20
6.8502490452
 11
6.1453672762
 21
4.1931112872
  0
LINE
  5
234
100
AcDbEntity
  8
0
100
AcDbLine
 62
7
  6
CONTINUOUS
 10
6.4846972762
 20
4.207111247
 11
6.4846972762
 21
6.8362490855
  0
LINE
  5
235
100
AcDbEntity
  8
0
100
AcDbLine
 62
7
  6
CONTINUOUS
 10
6.1453672762
 20
6.8402601662
 11
6.1153672762
 21
6.8402601662
  0
LINE
  5
236
100
AcDbEntity
  8
0
100
AcDbLine
 62
7
  6
CONTINUOUS
 10
6.4606972762
 20
6.8602601662
 11
6.1553672762
 21
6.8602601662
  0
LINE
  5
237
100
AcDbEntity
  8
0
100
AcDbLine
 62
7
  6
CONTINUOUS
 10
6.1053672762
 20
6.8602601662
 11
5.8000372762
 21
6.8602601662
  0
LINE
  5
238
100
AcDbEntity
  8
0
100
AcDbLine
 62
7
  6
CONTINUOUS
 10
5.7405420839
 20
11.2614677814
 11
6.0458720839
 21
11.2614677814
  0
LINE
  5
239
100
AcDbEntity
  8
0
100
AcDbLine
 62
7
  6
CONTINUOUS
 10
6.0958720839
 20
11.2614677814
 11
6.4012020839
 21
11.2614677814
  0
LINE
  5
23A
100
AcDbEntity
  8
0
100
AcDbLine
 62
7
  6
CONTINUOUS
 10
6.0558720839
 20
11.2814677814
 11
6.0858720839
 21
11.2814677814
  0
LINE
  5
23B
100
AcDbEntity
  8
0
100
AcDbLine
 62
7
  6
CONTINUOUS
 10
5.7165420839
 20
13.9146277814
 11
5.7165420839
 21
11.2854677814
  0
LINE
  5
23C
100
AcDbEntity
  8
0
100
AcDbLine
 62
7
  6
CONTINUOUS
 10
6.0558720839
 20
11.2714677814
 11
6.0558720839
 21
13.9286277814
  0
LINE
  5
23D
100
AcDbEntity
  8
0
100
AcDbLine
 62
7
  6
CONTINUOUS
 10
6.0858720839
 20
13.9286277814
 11
6.0858720839
 21
11.2714677814
  0
LINE
  5
23E
100
AcDbEntity
  8
0
100
AcDbLine
 62
7
  6
CONTINUOUS
 10
6.4252020839
 20
11.2854677814
 11
6.4252020839
 21
13.9146277814
  0
LINE
  5
23F
100
AcDbEntity
  8
0
100
AcDbLine
 62
7
  6
CONTINUOUS
 10
6.0858720839
 20
13.9186277814
 11
6.0558720839
 21
13.9186277814
  0
LINE
  5
240
100
AcDbEntity
  8
0
100
AcDbLine
 62
7
  6
CONTINUOUS
 10
6.4012020839
 20
13.9386277814
 11
6.0958720839
 21
13.9386277814
  0
LINE
  5
241
100
AcDbEntity
  8
0
100
AcDbLine
 62
7
  6
CONTINUOUS
 10
6.0458720839
 20
13.9386277814
 11
5.7405420839
 21
13.9386277814
  0
LINE
  5
242
100
AcDbEntity
  8
03__ASM_ALL_CURVES
100
AcDbLine
 62
7
  6
CONTINUOUS
 10
15.5603552569
 20
4.5048657119
 11
15.5603552569
 21
4.2370757752
  0
LINE
  5
243
100
AcDbEntity
  8
03__ASM_ALL_CURVES
100
AcDbLine
 62
7
  6
CONTINUOUS
 10
15.5603552569
 20
6.4195042359
 11
15.5603552569
 21
6.6872941727
  0
LINE
  5
244
100
AcDbEntity
  8
0
100
AcDbLine
 62
7
  6
CONTINUOUS
 10
15.7753665466
 20
11.1722249929
 11
15.4941389933
 21
11.1722249929
  0
LINE
  5
245
100
AcDbEntity
  8
0
100
AcDbLine
 62
7
  6
CONTINUOUS
 10
15.4480859436
 20
11.1722249929
 11
15.1668583903
 21
11.1722249929
  0
LINE
  5
246
100
AcDbEntity
  8
0
100
AcDbLine
 62
7
  6
CONTINUOUS
 10
15.7974720105
 20
11.5508049929
 11
15.7648360563
 21
11.5508049929
  0
LINE
  5
247
100
AcDbEntity
  8
03__ASM_ALL_CURVES
100
AcDbLine
 62
7
  6
CONTINUOUS
 10
16.0790617687
 20
11.881936318
 11
16.1673859587
 21
11.7492649027
  0
LINE
  5
248
100
AcDbEntity
  8
03__ASM_ALL_CURVES
100
AcDbLine
 62
7
  6
CONTINUOUS
 10
15.4791946654
 20
13.0847494186
 11
15.419966765
 21
13.2723450831
  0
LINE
  5
249
100
AcDbEntity
  8
0
100
AcDbLine
 62
7
  6
CONTINUOUS
 10
15.7974720105
 20
13.4708049929
 11
15.7648360563
 21
13.4708049929
  0
LINE
  5
24A
100
AcDbEntity
  8
0
100
AcDbLine
 62
7
  6
CONTINUOUS
 10
15.7753665466
 20
13.8493849929
 11
15.4941389933
 21
13.8493849929
  0
LINE
  5
24B
100
AcDbEntity
  8
0
100
AcDbLine
 62
7
  6
CONTINUOUS
 10
15.4480859436
 20
13.8493849929
 11
15.1668583903
 21
13.8493849929
  0
ARC
  5
24C
100
AcDbEntity
  8
03__ASM_ALL_CURVES
100
AcDbCircle
 62
7
  6
CONTINUOUS
 10
5.8000372762
 20
4.2071001662
 40
0.024
100
AcDbArc
 50
180.0000000007
 51
270.0
  0
ARC
  5
24D
100
AcDbEntity
  8
0
100
AcDbCircle
 62
7
  6
CONTINUOUS
 10
5.8000372762
 20
6.8362601662
 40
0.024
100
AcDbArc
 50
90.0
 51
179.9999999993
  0
ARC
  5
24E
100
AcDbEntity
  8
0
100
AcDbCircle
 62
7
  6
CONTINUOUS
 10
5.8000372762
 20
4.2071001662
 40
0.024
100
AcDbArc
 50
180.0000000007
 51
270.0
  0
ARC
  5
24F
100
AcDbEntity
  8
0
100
AcDbCircle
 62
7
  6
CONTINUOUS
 10
6.4606972762
 20
4.2071001662
 40
0.024
100
AcDbArc
 50
270.0
 51
359.9999999993
  0
ARC
  5
250
100
AcDbEntity
  8
0
100
AcDbCircle
 62
7
  6
CONTINUOUS
 10
6.4606972762
 20
6.8362601662
 40
0.024
100
AcDbArc
 50
0.0000000007
 51
90.0
  0
ARC
  5
251
100
AcDbEntity
  8
0
100
AcDbCircle
 62
7
  6
CONTINUOUS
 10
6.1053672762
 20
4.1931001662
 40
0.01
100
AcDbArc
 50
270.0
 51
359.9999999983
  0
ARC
  5
252
100
AcDbEntity
  8
0
100
AcDbCircle
 62
7
  6
CONTINUOUS
 10
6.1053672762
 20
6.8502601662
 40
0.01
100
AcDbArc
 50
0.0000000017
 51
90.0
  0
ARC
  5
253
100
AcDbEntity
  8
0
100
AcDbCircle
 62
7
  6
CONTINUOUS
 10
6.1553672762
 20
4.1931001662
 40
0.01
100
AcDbArc
 50
180.0000000017
 51
270.0
  0
ARC
  5
254
100
AcDbEntity
  8
0
100
AcDbCircle
 62
7
  6
CONTINUOUS
 10
6.1553672762
 20
6.8502601662
 40
0.01
100
AcDbArc
 50
90.0
 51
179.9999999983
  0
ARC
  5
255
100
AcDbEntity
  8
0
100
AcDbCircle
 62
7
  6
CONTINUOUS
 10
5.7405420839
 20
11.2854677814
 40
0.024
100
AcDbArc
 50
180.0000000007
 51
270.0
  0
ARC
  5
256
100
AcDbEntity
  8
0
100
AcDbCircle
 62
7
  6
CONTINUOUS
 10
5.7405420839
 20
13.9146277814
 40
0.024
100
AcDbArc
 50
90.0
 51
179.9999999993
  0
ARC
  5
257
100
AcDbEntity
  8
0
100
AcDbCircle
 62
7
  6
CONTINUOUS
 10
6.4012020839
 20
13.9146277814
 40
0.024
100
AcDbArc
 50
0.0000000007
 51
90.0
  0
ARC
  5
258
100
AcDbEntity
  8
0
100
AcDbCircle
 62
7
  6
CONTINUOUS
 10
6.4012020839
 20
11.2854677814
 40
0.024
100
AcDbArc
 50
270.0
 51
359.9999999993
  0
ARC
  5
259
100
AcDbEntity
  8
0
100
AcDbCircle
 62
7
  6
CONTINUOUS
 10
6.0458720839
 20
13.9286277814
 40
0.01
100
AcDbArc
 50
0.0000000017
 51
90.0
  0
ARC
  5
25A
100
AcDbEntity
  8
0
100
AcDbCircle
 62
7
  6
CONTINUOUS
 10
6.0458720839
 20
11.2714677814
 40
0.01
100
AcDbArc
 50
270.0
 51
359.9999999983
  0
ARC
  5
25B
100
AcDbEntity
  8
0
100
AcDbCircle
 62
7
  6
CONTINUOUS
 10
6.0958720839
 20
11.2714677814
 40
0.01
100
AcDbArc
 50
180.0000000017
 51
270.0
  0
ARC
  5
25C
100
AcDbEntity
  8
0
100
AcDbCircle
 62
7
  6
CONTINUOUS
 10
6.0958720839
 20
13.9286277814
 40
0.01
100
AcDbArc
 50
90.0
 51
179.9999999983
  0
CIRCLE
  5
25D
100
AcDbEntity
  8
0
100
AcDbCircle
 62
7
  6
CONTINUOUS
 10
15.5603552569
 20
5.4621849739
 40
1.33858
  0
CIRCLE
  5
25E
100
AcDbEntity
  8
0
100
AcDbCircle
 62
7
  6
CONTINUOUS
 10
15.5603552569
 20
5.4621849739
 40
1.26
  0
CIRCLE
  5
25F
100
AcDbEntity
  8
0
100
AcDbCircle
 62
7
  6
CONTINUOUS
 10
15.5603552569
 20
5.4621849739
 40
0.96
  0
CIRCLE
  5
260
100
AcDbEntity
  8
0
100
AcDbCircle
 62
7
  6
CONTINUOUS
 10
15.5603552569
 20
5.4621849739
 40
0.86614
  0
ARC
  5
261
100
AcDbEntity
  8
0
100
AcDbCircle
 62
7
  6
CONTINUOUS
 10
15.0792335652
 20
13.0427926639
 40
1.1538965358
100
AcDbArc
 50
25.6693253118
 51
26.1379898337
  0
ARC
  5
262
100
AcDbEntity
  8
0
100
AcDbCircle
 62
7
  6
CONTINUOUS
 10
16.1773037376
 20
11.9631510285
 40
1.1292264613
100
AcDbArc
 50
206.1380296542
 51
206.4708053382
  0
ARC
  5
263
100
AcDbEntity
  8
0
100
AcDbCircle
 62
7
  6
CONTINUOUS
 10
15.8339729142
 20
11.9645587987
 40
1.1215642597
100
AcDbArc
 50
206.1371339932
 51
206.9379202861
  0
ARC
  5
264
100
AcDbEntity
  8
0
100
AcDbCircle
 62
7
  6
CONTINUOUS
 10
16.2227528282
 20
12.1387576913
 40
0.7143444462
100
AcDbArc
 50
206.134140008
 51
206.9385242302
  0
ARC
  5
265
100
AcDbEntity
  8
0
100
AcDbCircle
 62
7
  6
CONTINUOUS
 10
15.494309944
 20
11.387177215
 40
0.21495229
100
AcDbArc
 50
257.8851291918
 51
269.9544328888
  0
ARC
  5
266
100
AcDbEntity
  8
0
100
AcDbCircle
 62
7
  6
CONTINUOUS
 10
15.4943102885
 20
13.6344390423
 40
0.2149460189
100
AcDbArc
 50
90.045660271
 51
102.104982586
  0
ARC
  5
267
100
AcDbEntity
  8
0
100
AcDbCircle
 62
7
  6
CONTINUOUS
 10
15.4480394428
 20
13.6367549407
 40
0.2126300572
100
AcDbArc
 50
83.6838858032
 51
89.9874697845
  0
ARC
  5
268
100
AcDbEntity
  8
0
100
AcDbCircle
 62
7
  6
CONTINUOUS
 10
15.4480414556
 20
11.3847978858
 40
0.2125728975
100
AcDbArc
 50
270.0119910617
 51
276.2019881511
  0
SPLINE
  5
269
100
AcDbEntity
  8
0
100
AcDbSpline
 62
7
  6
CONTINUOUS
 70
0
 71
3
 72
35
 73
31
 74
0
 42
0.0000001
 43
0.0000001
 44
0.0000000001
 40
0.0
 40
0.0
 40
0.0
 40
0.0
 40
0.0168738032
 40
0.0340991134
 40
0.0520949631
 40
0.0711722667
 40
0.0915868129
 40
0.1135417491
 40
0.1371628846
 40
0.162517201
 40
0.1896180985
 40
0.2184397647
 40
0.2489190752
 40
0.2809661636
 40
0.3144667852
 40
0.3492872323
 40
0.3852781786
 40
0.4222759294
 40
0.4985789394
 40
0.5767242652
 40
0.6160073513
 40
0.6551653761
 40
0.7323179698
 40
0.8066739144
 40
0.8423649104
 40
0.8768436928
 40
0.9099620764
 40
0.9415968594
 40
0.9716457458
 40
1.0
 40
1.0
 40
1.0
 40
1.0
 10
15.1668583903
 20
13.8493849929
 30
0.0
 10
15.1521854378
 20
13.8493849929
 30
0.0
 10
15.122455639
 20
13.8464229978
 30
0.0
 10
15.0788360656
 20
13.8333226362
 30
0.0
 10
15.0364771278
 20
13.8119827012
 30
0.0
 10
14.995634133
 20
13.7828740013
 30
0.0
 10
14.9564442281
 20
13.7463656493
 30
0.0
 10
14.9189451882
 20
13.7028014651
 30
0.0
 10
14.8831964716
 20
13.6524456499
 30
0.0
 10
14.8492917239
 20
13.5955709806
 30
0.0
 10
14.8173415762
 20
13.5324748407
 30
0.0
 10
14.7874765917
 20
13.4634896016
 30
0.0
 10
14.7598318734
 20
13.3889860818
 30
0.0
 10
14.7345455107
 20
13.3093744588
 30
0.0
 10
14.711750058
 20
13.2251008542
 30
0.0
 10
14.6915670977
 20
13.1366455316
 30
0.0
 10
14.6741114609
 20
13.0445162865
 30
0.0
 10
14.6544020856
 20
12.9161794312
 30
0.0
 10
14.6373838521
 20
12.7504529137
 30
0.0
 10
14.6304929637
 20
12.5820232686
 30
0.0
 10
14.6310430087
 20
12.4458434802
 30
0.0
 10
14.635673993
 20
12.3106053597
 30
0.0
 10
14.6488638597
 20
12.1452224948
 30
0.0
 10
14.6721472601
 20
11.9839780289
 30
0.0
 10
14.6967495582
 20
11.8607090543
 30
0.0
 10
14.7176497539
 20
11.7733341004
 30
0.0
 10
14.7411285073
 20
11.6902741054
 30
0.0
 10
14.7670658832
 20
11.6119913837
 30
0.0
 10
14.7953269502
 20
11.5389409351
 30
0.0
 10
14.8162352587
 20
11.4926205578
 30
0.0
 10
14.8270972832
 20
11.470486079
 30
0.0
  0
SPLINE
  5
26A
100
AcDbEntity
  8
0
100
AcDbSpline
 62
7
  6
CONTINUOUS
 70
0
 71
3
 72
33
 73
29
 74
0
 42
0.0000001
 43
0.0000001
 44
0.0000000001
 40
0.0
 40
0.0
 40
0.0
 40
0.0
 40
0.0283448774
 40
0.0584587047
 40
0.09022339
 40
0.1235209084
 40
0.158220234
 40
0.1941659082
 40
0.2691095078
 40
0.3469221104
 40
0.4260544909
 40
0.5049115723
 40
0.5819080513
 40
0.6555249064
 40
0.6906305519
 40
0.7243828458
 40
0.7566395342
 40
0.7872742547
 40
0.8161833455
 40
0.8432861537
 40
0.8685350696
 40
0.8919176391
 40
0.913471499
 40
0.9332908572
 40
0.9515469294
 40
0.9684973471
 40
0.9844997744
 40
1.0
 40
1.0
 40
1.0
 40
1.0
 10
16.0298556809
 20
13.2627988261
 30
0.0
 10
16.0376373228
 20
13.2469415073
 30
0.0
 10
16.0526329206
 20
13.213713538
 30
0.0
 10
16.0729272803
 20
13.1612543136
 30
0.0
 10
16.0915890428
 20
13.1049323044
 30
0.0
 10
16.1085106467
 20
13.0450918139
 30
0.0
 10
16.1235902474
 20
12.9820799012
 30
0.0
 10
16.1413705861
 20
12.8930943356
 30
0.0
 10
16.1582232924
 20
12.7766152252
 30
0.0
 10
16.1697791949
 20
12.6324829441
 30
0.0
 10
16.1726523773
 20
12.4854771222
 30
0.0
 10
16.1667753259
 20
12.3390686933
 30
0.0
 10
16.1522892233
 20
12.1967135632
 30
0.0
 10
16.1330465017
 20
12.082484122
 30
0.0
 10
16.1134225599
 20
11.9958738272
 30
0.0
 10
16.0970643966
 20
11.9350032815
 30
0.0
 10
16.0789360564
 20
11.8775493234
 30
0.0
 10
16.0591406527
 20
11.8238503342
 30
0.0
 10
16.037799419
 20
11.7742200519
 30
0.0
 10
16.015031432
 20
11.7289491423
 30
0.0
 10
15.9909728056
 20
11.6882968153
 30
0.0
 10
15.9657500288
 20
11.6524994412
 30
0.0
 10
15.9395036376
 20
11.6217571699
 30
0.0
 10
15.9123546901
 20
11.5962560362
 30
0.0
 10
15.8844365713
 20
11.5761513106
 30
0.0
 10
15.8558647933
 20
11.561611999
 30
0.0
 10
15.8268153351
 20
11.5527878673
 30
0.0
 10
15.8071313327
 20
11.5508067451
 30
0.0
 10
15.7974720104
 20
11.5508066547
 30
0.0
  0
SPLINE
  5
26B
100
AcDbEntity
  8
0
100
AcDbSpline
 62
7
  6
CONTINUOUS
 70
0
 71
3
 72
17
 73
13
 74
0
 42
0.0000001
 43
0.0000001
 44
0.0000000001
 40
0.0
 40
0.0
 40
0.0
 40
0.0
 40
0.1581490406
 40
0.3051468755
 40
0.4411686563
 40
0.5670010588
 40
0.6838727302
 40
0.7934714897
 40
0.8462078158
 40
0.8979518432
 40
0.9490788745
 40
1.0
 40
1.0
 40
1.0
 40
1.0
 10
14.8341007345
 20
11.4564623384
 30
0.0
 10
14.8450768571
 20
11.4348665795
 30
0.0
 10
14.8676391935
 20
11.3938752197
 30
0.0
 10
14.9048481931
 20
11.3373678312
 30
0.0
 10
14.9440916928
 20
11.2884235672
 30
0.0
 10
14.9852687461
 20
11.2473552723
 30
0.0
 10
15.0283384196
 20
11.2145411695
 30
0.0
 10
15.0662202761
 20
11.1941944128
 30
0.0
 10
15.0970165109
 20
11.1828020585
 30
0.0
 10
15.1201060362
 20
11.1767236753
 30
0.0
 10
15.1434145547
 20
11.1730473387
 30
0.0
 10
15.1590583697
 20
11.1722249929
 30
0.0
 10
15.1668583903
 20
11.1722249929
 30
0.0
  0
SPLINE
  5
26C
100
AcDbEntity
  8
0
100
AcDbSpline
 62
7
  6
CONTINUOUS
 70
0
 71
3
 72
15
 73
11
 74
0
 42
0.0000001
 43
0.0000001
 44
0.0000000001
 40
0.0
 40
0.0
 40
0.0
 40
0.0
 40
0.0985383101
 40
0.2020021034
 40
0.31219421
 40
0.4304987339
 40
0.5579293763
 40
0.6951496081
 40
0.8425274153
 40
1.0
 40
1.0
 40
1.0
 40
1.0
 10
15.4491974052
 20
11.1770121707
 30
0.0
 10
15.4359442164
 20
11.1798402904
 30
0.0
 10
15.4092611649
 20
11.1881467267
 30
0.0
 10
15.3707813475
 20
11.2075523555
 30
0.0
 10
15.3332949176
 20
11.2338545743
 30
0.0
 10
15.2969604312
 20
11.26681416
 30
0.0
 10
15.2618732727
 20
11.3062034941
 30
0.0
 10
15.2281402554
 20
11.3518168405
 30
0.0
 10
15.195894791
 20
11.4034179564
 30
0.0
 10
15.1761169715
 20
11.4404216016
 30
0.0
 10
15.1664635691
 20
11.4598076522
 30
0.0
  0
SPLINE
  5
26D
100
AcDbEntity
  8
0
100
AcDbSpline
 62
7
  6
CONTINUOUS
 70
0
 71
3
 72
35
 73
31
 74
0
 42
0.0000001
 43
0.0000001
 44
0.0000000001
 40
0.0
 40
0.0
 40
0.0
 40
0.0
 40
0.0285653312
 40
0.0588036554
 40
0.0906080637
 40
0.1238763825
 40
0.1584827404
 40
0.1942787487
 40
0.2687778934
 40
0.3459887912
 40
0.3851468747
 40
0.4244126032
 40
0.5024779253
 40
0.5786531795
 40
0.6155742433
 40
0.6514827532
 40
0.6862172265
 40
0.7196303206
 40
0.7515905279
 40
0.7819854503
 40
0.8107272322
 40
0.8377544017
 40
0.8630427674
 40
0.8866069832
 40
0.9085149414
 40
0.9288928493
 40
0.9479435101
 40
0.9659210552
 40
0.9831346322
 40
1.0
 40
1.0
 40
1.0
 40
1.0
 10
16.1192509696
 20
13.5426336523
 30
0.0
 10
16.1299725863
 20
13.5203267731
 30
0.0
 10
16.1506014392
 20
13.4737039526
 30
0.0
 10
16.1784668392
 20
13.4002771103
 30
0.0
 10
16.2040099868
 20
13.3217155175
 30
0.0
 10
16.2270990869
 20
13.2384688025
 30
0.0
 10
16.2476178959
 20
13.1509972137
 30
0.0
 10
16.2717085794
 20
13.0277590591
 30
0.0
 10
16.2944012795
 20
12.8667593369
 30
0.0
 10
16.3070784524
 20
12.7017640095
 30
0.0
 10
16.3113343389
 20
12.566967658
 30
0.0
 10
16.3115397237
 20
12.4313637723
 30
0.0
 10
16.3042876107
 20
12.2637553717
 30
0.0
 10
16.2869914686
 20
12.0989115999
 30
0.0
 10
16.2671151747
 20
11.9713271728
 30
0.0
 10
16.2495660866
 20
11.8797771128
 30
0.0
 10
16.2293181748
 20
11.7919007884
 30
0.0
 10
16.206484976
 20
11.7081983518
 30
0.0
 10
16.1811877643
 20
11.6291425704
 30
0.0
 10
16.1535571518
 20
11.5551726297
 30
0.0
 10
16.1237302755
 20
11.4866920204
 30
0.0
 10
16.0918400042
 20
11.424065692
 30
0.0
 10
16.0580153178
 20
11.3676206253
 30
0.0
 10
16.0223647893
 20
11.3176498002
 30
0.0
 10
15.9849806945
 20
11.2744220905
 30
0.0
 10
15.9459209442
 20
11.2381991413
 30
0.0
 10
15.9052238759
 20
11.2093215464
 30
0.0
 10
15.8630267237
 20
11.1881539846
 30
0.0
 10
15.8195833124
 20
11.1751621674
 30
0.0
 10
15.78997914
 20
11.1722249929
 30
0.0
 10
15.7753665466
 20
11.1722249929
 30
0.0
  0
SPLINE
  5
26E
100
AcDbEntity
  8
0
100
AcDbSpline
 62
7
  6
CONTINUOUS
 70
0
 71
3
 72
17
 73
13
 74
0
 42
0.0000001
 43
0.0000001
 44
0.0000000001
 40
0.0
 40
0.0
 40
0.0
 40
0.0
 40
0.0505169074
 40
0.1012543706
 40
0.1526404062
 40
0.205064018
 40
0.3142031499
 40
0.4308864695
 40
0.5568434158
 40
0.6932964265
 40
0.8409965102
 40
1.0
 40
1.0
 40
1.0
 40
1.0
 10
15.7753665466
 20
13.8493849929
 30
0.0
 10
15.7833683816
 20
13.8493849929
 30
0.0
 10
15.7994201806
 20
13.8485192281
 30
0.0
 10
15.823329263
 20
13.8446497609
 30
0.0
 10
15.8470040874
 20
13.8382535152
 30
0.0
 10
15.8785818736
 20
13.8262629318
 30
0.0
 10
15.9173887502
 20
13.8048532764
 30
0.0
 10
15.9614052446
 20
13.77037686
 30
0.0
 10
16.003419567
 20
13.7272655316
 30
0.0
 10
16.0433849207
 20
13.6759122038
 30
0.0
 10
16.0811854656
 20
13.6166652014
 30
0.0
 10
16.1040321376
 20
13.5737341914
 30
0.0
 10
16.1151276537
 20
13.5511239068
 30
0.0
  0
SPLINE
  5
26F
100
AcDbEntity
  8
0
100
AcDbSpline
 62
7
  6
CONTINUOUS
 70
0
 71
3
 72
33
 73
29
 74
0
 42
0.0000001
 43
0.0000001
 44
0.0000000001
 40
0.0
 40
0.0
 40
0.0
 40
0.0
 40
0.0278492808
 40
0.0573516104
 40
0.0884036268
 40
0.1209051301
 40
0.1547403561
 40
0.1897714146
 40
0.2628076397
 40
0.3387316031
 40
0.4161442876
 40
0.4935957779
 40
0.5696347488
 40
0.6428584444
 40
0.6780076736
 40
0.7119766937
 40
0.7446277368
 40
0.7758388226
 40
0.8055032387
 40
0.8335369407
 40
0.8598780513
 40
0.8844970798
 40
0.9073984881
 40
0.9286332771
 40
0.9483054151
 40
0.9665870327
 40
0.9837149814
 40
1.0
 40
1.0
 40
1.0
 40
1.0
 10
15.1635572008
 20
11.4656871002
 30
0.0
 10
15.1530778873
 20
11.4870416959
 30
0.0
 10
15.132863314
 20
11.531697605
 30
0.0
 10
15.1054175963
 20
11.6020741018
 30
0.0
 10
15.0801065242
 20
11.6774490025
 30
0.0
 10
15.0570616127
 20
11.7574014889
 30
0.0
 10
15.0364026981
 20
11.8415057555
 30
0.0
 10
15.0118494579
 20
11.9602209819
 30
0.0
 10
14.988104318
 20
12.1156985828
 30
0.0
 10
14.9708555291
 20
12.3083953089
 30
0.0
 10
14.9648605432
 20
12.5055421997
 30
0.0
 10
14.9702511758
 20
12.70280461
 30
0.0
 10
14.9869089179
 20
12.8958454938
 30
0.0
 10
15.0101717265
 20
13.0517581998
 30
0.0
 10
15.0343504379
 20
13.1709330203
 30
0.0
 10
15.0547484615
 20
13.2554534756
 30
0.0
 10
15.0775469878
 20
13.3358692916
 30
0.0
 10
15.1026210878
 20
13.4117456675
 30
0.0
 10
15.1298445931
 20
13.4826731541
 30
0.0
 10
15.1590723478
 20
13.5482755896
 30
0.0
 10
15.1901669635
 20
13.6082062315
 30
0.0
 10
15.2229783334
 20
13.6621558569
 30
0.0
 10
15.2573715361
 20
13.7098435636
 30
0.0
 10
15.2932105046
 20
13.7510217647
 30
0.0
 10
15.3303797229
 20
13.7854566767
 30
0.0
 10
15.3687749163
 20
13.8129038532
 30
0.0
 10
15.4082305288
 20
13.8331071812
 30
0.0
 10
15.4356313681
 20
13.841705222
 30
0.0
 10
15.4492353361
 20
13.8446057373
 30
0.0
  0
SPLINE
  5
270
100
AcDbEntity
  8
0
100
AcDbSpline
 62
7
  6
CONTINUOUS
 70
0
 71
3
 72
11
 73
7
 74
0
 42
0.0000001
 43
0.0000001
 44
0.0000000001
 40
0.0
 40
0.0
 40
0.0
 40
0.0
 40
0.2470924643
 40
0.4999660882
 40
0.752856836
 40
1.0
 40
1.0
 40
1.0
 40
1.0
 10
15.4714920458
 20
12.2292369553
 30
0.0
 10
15.4775441547
 20
12.2752764443
 30
0.0
 10
15.48652239
 20
12.3688865681
 30
0.0
 10
15.4909852181
 20
12.5103886487
 30
0.0
 10
15.4865745611
 20
12.6519018903
 30
0.0
 10
15.4776312773
 20
12.7455281089
 30
0.0
 10
15.4715966401
 20
12.7915795006
 30
0.0
  0
SPLINE
  5
271
100
AcDbEntity
  8
0
100
AcDbSpline
 62
7
  6
CONTINUOUS
 70
0
 71
3
 72
16
 73
12
 74
0
 42
0.0000001
 43
0.0000001
 44
0.0000000001
 40
0.0
 40
0.0
 40
0.0
 40
0.0
 40
0.0479180199
 40
0.0963026393
 40
0.1961234596
 40
0.3027851879
 40
0.4187411472
 40
0.5456662889
 40
0.6846034563
 40
0.8360750797
 40
1.0
 40
1.0
 40
1.0
 40
1.0
 10
15.7974720106
 20
13.4708033311
 30
0.0
 10
15.8027024211
 20
13.47080338
 30
0.0
 10
15.8132234553
 20
13.470234649
 30
0.0
 10
15.8343876057
 20
13.4667992796
 30
0.0
 10
15.8609959385
 20
13.458005232
 30
0.0
 10
15.8919136574
 20
13.4408360038
 30
0.0
 10
15.9220098077
 20
13.4171641103
 30
0.0
 10
15.9511244161
 20
13.3872020531
 30
0.0
 10
15.9791097955
 20
13.3511597623
 30
0.0
 10
16.0057895621
 20
13.309287433
 30
0.0
 10
16.0219730732
 20
13.2788618918
 30
0.0
 10
16.0298556809
 20
13.2627988261
 30
0.0
  0
SPLINE
  5
272
100
AcDbEntity
  8
0
100
AcDbSpline
 62
7
  6
CONTINUOUS
 70
0
 71
3
 72
15
 73
11
 74
0
 42
0.0000001
 43
0.0000001
 44
0.0000000001
 40
0.0
 40
0.0
 40
0.0
 40
0.0
 40
0.0882422903
 40
0.1819490554
 40
0.2847234258
 40
0.399471082
 40
0.5279265715
 40
0.6707727449
 40
0.8281899074
 40
1.0
 40
1.0
 40
1.0
 40
1.0
 10
15.7753665466
 20
11.6446649929
 30
0.0
 10
15.7675173336
 20
11.6446649929
 30
0.0
 10
15.7512860564
 20
11.6464156301
 30
0.0
 10
15.7270526993
 20
11.6542913987
 30
0.0
 10
15.7026151134
 20
11.6675879818
 30
0.0
 10
15.678148652
 20
11.6864287737
 30
0.0
 10
15.6538535519
 20
11.7108126953
 30
0.0
 10
15.630037128
 20
11.74067893
 30
0.0
 10
15.6069631139
 20
11.7758203504
 30
0.0
 10
15.5928435727
 20
11.801511028
 30
0.0
 10
15.5859196674
 20
11.8151352059
 30
0.0
  0
SPLINE
  5
273
100
AcDbEntity
  8
0
100
AcDbSpline
 62
7
  6
CONTINUOUS
 70
0
 71
3
 72
33
 73
29
 74
0
 42
0.0000001
 43
0.0000001
 44
0.0000000001
 40
0.0
 40
0.0
 40
0.0
 40
0.0
 40
0.0283414257
 40
0.0585627623
 40
0.0905369844
 40
0.1241275801
 40
0.1591843817
 40
0.1955410931
 40
0.2714300244
 40
0.3502993951
 40
0.4305494631
 40
0.510539175
 40
0.5886352156
 40
0.6632614245
 40
0.6988154126
 40
0.7329632992
 40
0.765547991
 40
0.7964260319
 40
0.8254710532
 40
0.8525761992
 40
0.8776579976
 40
0.9006659028
 40
0.9215879411
 40
0.9404622955
 40
0.9574042548
 40
0.9726979166
 40
0.9867311411
 40
1.0
 40
1.0
 40
1.0
 40
1.0
 10
15.5814391892
 20
11.8241074026
 30
0.0
 10
15.5744270564
 20
11.8383966267
 30
0.0
 10
15.5608912702
 20
11.8683969167
 30
0.0
 10
15.5425414346
 20
11.9158399407
 30
0.0
 10
15.5256158447
 20
11.9669241025
 30
0.0
 10
15.5102301976
 20
12.0213174041
 30
0.0
 10
15.4964924743
 20
12.0786829391
 30
0.0
 10
15.4802622829
 20
12.1598191713
 30
0.0
 10
15.4648429968
 20
12.2661292635
 30
0.0
 10
15.4542180423
 20
12.3977658601
 30
0.0
 10
15.4514926554
 20
12.5321062524
 30
0.0
 10
15.4567343119
 20
12.6659382227
 30
0.0
 10
15.4698110354
 20
12.7960597773
 30
0.0
 10
15.4872250074
 20
12.9004502645
 30
0.0
 10
15.5049886271
 20
12.9795547498
 30
0.0
 10
15.5197816893
 20
13.0350803826
 30
0.0
 10
15.5361548431
 20
13.0874171012
 30
0.0
 10
15.5539954967
 20
13.1362346351
 30
0.0
 10
15.5731735824
 20
13.1812188883
 30
0.0
 10
15.593536399
 20
13.2220777855
 30
0.0
 10
15.6149190195
 20
13.2585381458
 30
0.0
 10
15.6371182844
 20
13.2903665353
 30
0.0
 10
15.6599321655
 20
13.317344011
 30
0.0
 10
15.6830810307
 20
13.3393509171
 30
0.0
 10
15.7063526244
 20
13.3563161181
 30
0.0
 10
15.7295504646
 20
13.3682896377
 30
0.0
 10
15.7525407384
 20
13.3753738054
 30
0.0
 10
15.7679145269
 20
13.3769449929
 30
0.0
 10
15.7753665466
 20
13.3769449929
 30
0.0
  0
SPLINE
  5
274
100
AcDbEntity
  8
0
100
AcDbSpline
 62
7
  6
CONTINUOUS
 70
0
 71
3
 72
46
 73
42
 74
0
 42
0.0000001
 43
0.0000001
 44
0.0000000001
 40
0.0
 40
0.0
 40
0.0
 40
0.0
 40
0.0309295893
 40
0.0642451092
 40
0.0997463822
 40
0.1372107496
 40
0.1763697541
 40
0.2169282654
 40
0.258570473
 40
0.3009638164
 40
0.3437648007
 40
0.3866244277
 40
0.4291928143
 40
0.4711239845
 40
0.5120813738
 40
0.5517427101
 40
0.5898051326
 40
0.6259920294
 40
0.6600598825
 40
0.691806
 40
0.721079719
 40
0.7477979621
 40
0.760200963
 40
0.7719756962
 40
0.7831409285
 40
0.7937260293
 40
0.8133053835
 40
0.8224383696
 40
0.8312276653
 40
0.8397659643
 40
0.8481565516
 40
0.8565095556
 40
0.8649370378
 40
0.8735473154
 40
0.882440698
 40
0.9013933762
 40
0.9116117329
 40
0.9223845899
 40
0.9457158711
 40
0.9715790867
 40
1.0
 40
1.0
 40
1.0
 40
1.0
 10
16.102475578
 20
13.497796899
 30
0.0
 10
16.1155731776
 20
13.4711067971
 30
0.0
 10
16.1404999682
 20
13.4145335441
 30
0.0
 10
16.1731838814
 20
13.3243354875
 30
0.0
 10
16.2022915105
 20
13.2263527016
 30
0.0
 10
16.2275443485
 20
13.1215295377
 30
0.0
 10
16.2486977751
 20
13.0108544505
 30
0.0
 10
16.2655478118
 20
12.8953870989
 30
0.0
 10
16.2779312106
 20
12.7762321223
 30
0.0
 10
16.2857258766
 20
12.6545308866
 30
0.0
 10
16.2888573311
 20
12.5314507718
 30
0.0
 10
16.2872956835
 20
12.4081725774
 30
0.0
 10
16.2810551636
 20
12.2858790854
 30
0.0
 10
16.2701958749
 20
12.1657433866
 30
0.0
 10
16.2548247098
 20
12.0489168562
 30
0.0
 10
16.2350909317
 20
11.9365179675
 30
0.0
 10
16.2111843748
 20
11.8296213136
 30
0.0
 10
16.183336926
 20
11.7292449454
 30
0.0
 10
16.1518175804
 20
11.6363410871
 30
0.0
 10
16.1169245998
 20
11.5517815252
 30
0.0
 10
16.0789856804
 20
11.4763637178
 30
0.0
 10
16.0442982202
 20
11.42037492
 30
0.0
 10
16.015165386
 20
11.381040745
 30
0.0
 10
15.9933300468
 20
11.3549860239
 30
0.0
 10
15.9710074706
 20
11.3317011332
 30
0.0
 10
15.9414536407
 20
11.3051231789
 30
0.0
 10
15.9103216065
 20
11.2832818416
 30
0.0
 10
15.8779229634
 20
11.2673411254
 30
0.0
 10
15.8539524453
 20
11.2586679414
 30
0.0
 10
15.8298196495
 20
11.2530362369
 30
0.0
 10
15.8055898044
 20
11.2504659927
 30
0.0
 10
15.7813349523
 20
11.2509770494
 30
0.0
 10
15.7571297644
 20
11.2545602025
 30
0.0
 10
15.7330421415
 20
11.2612009061
 30
0.0
 10
15.7004981891
 20
11.2743711521
 30
0.0
 10
15.6690348617
 20
11.2935922561
 30
0.0
 10
15.6391177337
 20
11.3176954405
 30
0.0
 10
15.6081389527
 20
11.3470073082
 30
0.0
 10
15.5707481832
 20
11.3911127446
 30
0.0
 10
15.5292810808
 20
11.4532786357
 30
0.0
 10
15.5045037061
 20
11.4992877992
 30
0.0
 10
15.492468443
 20
11.5238130868
 30
0.0
  0
SPLINE
  5
275
100
AcDbEntity
  8
0
100
AcDbSpline
 62
7
  6
CONTINUOUS
 70
0
 71
3
 72
14
 73
10
 74
0
 42
0.0000001
 43
0.0000001
 44
0.0000000001
 40
0.0
 40
0.0
 40
0.0
 40
0.0
 40
0.1512543608
 40
0.2948890811
 40
0.4307655897
 40
0.5589156914
 40
0.6795371326
 40
0.7929538843
 40
1.0
 40
1.0
 40
1.0
 40
1.0
 10
15.1381127408
 20
11.4779257964
 30
0.0
 10
15.1455242227
 20
11.4628227843
 30
0.0
 10
15.160637818
 20
11.4336960378
 30
0.0
 10
15.1848416026
 20
11.3923211831
 30
0.0
 10
15.2099278397
 20
11.3545165391
 30
0.0
 10
15.2358116606
 20
11.3204146311
 30
0.0
 10
15.2624258586
 20
11.2901092696
 30
0.0
 10
15.297677098
 20
11.2559603493
 30
0.0
 10
15.3265987339
 20
11.2345658839
 30
0.0
 10
15.3466342098
 20
11.2232117077
 30
0.0
  0
SPLINE
  5
276
100
AcDbEntity
  8
0
100
AcDbSpline
 62
7
  6
CONTINUOUS
 70
0
 71
3
 72
16
 73
12
 74
0
 42
0.0000001
 43
0.0000001
 44
0.0000000001
 40
0.0
 40
0.0
 40
0.0
 40
0.0
 40
0.1639250176
 40
0.3153957097
 40
0.4543321554
 40
0.5812570969
 40
0.6972132735
 40
0.803875368
 40
0.903696959
 40
0.9520818171
 40
1.0
 40
1.0
 40
1.0
 40
1.0
 10
15.5324523858
 20
11.7588111597
 30
0.0
 10
15.5403350023
 20
11.7427480761
 30
0.0
 10
15.5565184388
 20
11.7123225757
 30
0.0
 10
15.583198161
 20
11.6704503933
 30
0.0
 10
15.6111833476
 20
11.6344081734
 30
0.0
 10
15.64029791
 20
11.6044461681
 30
0.0
 10
15.6703939137
 20
11.5807739659
 30
0.0
 10
15.7013118434
 20
11.5636047886
 30
0.0
 10
15.7279202493
 20
11.5548104351
 30
0.0
 10
15.7490845481
 20
11.5513750893
 30
0.0
 10
15.7596056252
 20
11.5508062935
 30
0.0
 10
15.7648360563
 20
11.5508063185
 30
0.0
  0
SPLINE
  5
277
100
AcDbEntity
  8
0
100
AcDbSpline
 62
7
  6
CONTINUOUS
 70
0
 71
3
 72
31
 73
27
 74
0
 42
0.0000001
 43
0.0000001
 44
0.0000000001
 40
0.0
 40
0.0
 40
0.0
 40
0.0
 40
0.035633957
 40
0.0556124859
 40
0.0771551483
 40
0.1003087183
 40
0.1250840093
 40
0.1514590369
 40
0.1793883502
 40
0.2088039381
 40
0.2396216944
 40
0.2717414401
 40
0.3050514802
 40
0.3747321065
 40
0.4475911768
 40
0.5224459124
 40
0.5980544099
 40
0.6731527349
 40
0.7464917777
 40
0.8168739684
 40
0.8506114066
 40
0.8832048094
 40
0.9145359712
 40
0.9445056124
 40
0.9730239604
 40
1.0
 40
1.0
 40
1.0
 40
1.0
 10
15.3442299504
 20
13.7970193525
 30
0.0
 10
15.3190644021
 20
13.7824316342
 30
0.0
 10
15.2831687148
 20
13.7536721822
 30
0.0
 10
15.2405161584
 20
13.7073062602
 30
0.0
 10
15.2083749816
 20
13.6653227996
 30
0.0
 10
15.1774914287
 20
13.6177079608
 30
0.0
 10
15.147989156
 20
13.5646641331
 30
0.0
 10
15.1200080412
 20
13.5064544725
 30
0.0
 10
15.0936854321
 20
13.4433559501
 30
0.0
 10
15.0691451692
 20
13.3756764453
 30
0.0
 10
15.046511285
 20
13.3037447221
 30
0.0
 10
15.0258910809
 20
13.2279124039
 30
0.0
 10
15.0008491422
 20
13.1204819648
 30
0.0
 10
14.9755010492
 20
12.9790799509
 30
0.0
 10
14.9548434305
 20
12.8027306575
 30
0.0
 10
14.9439227849
 20
12.6206655878
 30
0.0
 10
14.9429575267
 20
12.4364526581
 30
0.0
 10
14.9519668087
 20
12.2536925673
 30
0.0
 10
14.9707714892
 20
12.075967939
 30
0.0
 10
14.9946107268
 20
11.9329755332
 30
0.0
 10
15.0184923029
 20
11.8239425165
 30
0.0
 10
15.0383040166
 20
11.7467031601
 30
0.0
 10
15.0601734228
 20
11.6732230958
 30
0.0
 10
15.0839918033
 20
11.6038555839
 30
0.0
 10
15.1096447095
 20
11.5389525845
 30
0.0
 10
15.1284117826
 20
11.4976942708
 30
0.0
 10
15.1381127408
 20
11.4779257964
 30
0.0
  0
SPLINE
  5
278
100
AcDbEntity
  8
0
100
AcDbSpline
 62
7
  6
CONTINUOUS
 70
0
 71
3
 72
46
 73
42
 74
0
 42
0.0000001
 43
0.0000001
 44
0.0000000001
 40
0.0
 40
0.0
 40
0.0
 40
0.0
 40
0.0309295893
 40
0.0642451092
 40
0.0997463822
 40
0.1372107496
 40
0.1763697541
 40
0.2169282654
 40
0.258570473
 40
0.3009638164
 40
0.3437648007
 40
0.3866244277
 40
0.4291928143
 40
0.4711239845
 40
0.5120813738
 40
0.5517427101
 40
0.5898051326
 40
0.6259920294
 40
0.6600598825
 40
0.691806
 40
0.721079719
 40
0.7477979621
 40
0.760200963
 40
0.7719756962
 40
0.7831409285
 40
0.7937260293
 40
0.8133053835
 40
0.8224383696
 40
0.8312276653
 40
0.8397659643
 40
0.8481565516
 40
0.8565095556
 40
0.8649370378
 40
0.8735473154
 40
0.882440698
 40
0.9013933762
 40
0.9116117329
 40
0.9223845899
 40
0.9457158711
 40
0.9715790867
 40
1.0
 40
1.0
 40
1.0
 40
1.0
 10
15.492468443
 20
11.5238130868
 30
0.0
 10
15.4793708433
 20
11.5505031887
 30
0.0
 10
15.4544440528
 20
11.6070764417
 30
0.0
 10
15.4217601396
 20
11.6972744983
 30
0.0
 10
15.3926525104
 20
11.7952572842
 30
0.0
 10
15.3673996725
 20
11.9000804482
 30
0.0
 10
15.3462462458
 20
12.0107555354
 30
0.0
 10
15.3293962091
 20
12.1262228869
 30
0.0
 10
15.3170128104
 20
12.2453778635
 30
0.0
 10
15.3092181444
 20
12.3670790992
 30
0.0
 10
15.3060866898
 20
12.490159214
 30
0.0
 10
15.3076483375
 20
12.6134374084
 30
0.0
 10
15.3138888573
 20
12.7357309004
 30
0.0
 10
15.324748146
 20
12.8558665992
 30
0.0
 10
15.3401193112
 20
12.9726931296
 30
0.0
 10
15.3598530893
 20
13.0850920183
 30
0.0
 10
15.3837596461
 20
13.1919886722
 30
0.0
 10
15.411607095
 20
13.2923650404
 30
0.0
 10
15.4431264406
 20
13.3852688987
 30
0.0
 10
15.4780194212
 20
13.4698284606
 30
0.0
 10
15.5159583405
 20
13.545246268
 30
0.0
 10
15.5506458007
 20
13.6012350658
 30
0.0
 10
15.579778635
 20
13.6405692408
 30
0.0
 10
15.6016139741
 20
13.6666239619
 30
0.0
 10
15.6239365503
 20
13.6899088527
 30
0.0
 10
15.6534903803
 20
13.7164868069
 30
0.0
 10
15.6846224145
 20
13.7383281443
 30
0.0
 10
15.7170210576
 20
13.7542688605
 30
0.0
 10
15.7409915757
 20
13.7629420444
 30
0.0
 10
15.7651243714
 20
13.7685737489
 30
0.0
 10
15.7893542165
 20
13.7711439931
 30
0.0
 10
15.8136090686
 20
13.7706329364
 30
0.0
 10
15.8378142566
 20
13.7670497834
 30
0.0
 10
15.8619018795
 20
13.7604090798
 30
0.0
 10
15.8944458318
 20
13.7472388337
 30
0.0
 10
15.9259091592
 20
13.7280177297
 30
0.0
 10
15.9558262873
 20
13.7039145453
 30
0.0
 10
15.9868050682
 20
13.6746026776
 30
0.0
 10
16.0241958377
 20
13.6304972412
 30
0.0
 10
16.0656629402
 20
13.5683313501
 30
0.0
 10
16.0904403149
 20
13.5223221866
 30
0.0
 10
16.102475578
 20
13.497796899
 30
0.0
  0
SPLINE
  5
279
100
AcDbEntity
  8
0
100
AcDbSpline
 62
7
  6
CONTINUOUS
 70
0
 71
3
 72
16
 73
12
 74
0
 42
0.0000001
 43
0.0000001
 44
0.0000000001
 40
0.0
 40
0.0
 40
0.0
 40
0.0
 40
0.0479180199
 40
0.0963026393
 40
0.1961234596
 40
0.3027851879
 40
0.4187411472
 40
0.5456662889
 40
0.6846034563
 40
0.8360750797
 40
1.0
 40
1.0
 40
1.0
 40
1.0
 10
15.7974720104
 20
11.5508066547
 30
0.0
 10
15.7922415998
 20
11.5508066058
 30
0.0
 10
15.7817205657
 20
11.5513753368
 30
0.0
 10
15.7605564152
 20
11.5548107062
 30
0.0
 10
15.7339480824
 20
11.5636047538
 30
0.0
 10
15.7030303635
 20
11.580773982
 30
0.0
 10
15.6729342133
 20
11.6044458755
 30
0.0
 10
15.6438196049
 20
11.6344079327
 30
0.0
 10
15.6158342254
 20
11.6704502235
 30
0.0
 10
15.5891544589
 20
11.7123225528
 30
0.0
 10
15.5729709477
 20
11.742748094
 30
0.0
 10
15.56508834
 20
11.7588111597
 30
0.0
  0
SPLINE
  5
27A
100
AcDbEntity
  8
0
100
AcDbSpline
 62
7
  6
CONTINUOUS
 70
0
 71
3
 72
33
 73
29
 74
0
 42
0.0000001
 43
0.0000001
 44
0.0000000001
 40
0.0
 40
0.0
 40
0.0
 40
0.0
 40
0.0155002042
 40
0.0315026295
 40
0.048453054
 40
0.0667091363
 40
0.0865285138
 40
0.1080823931
 40
0.1314649953
 40
0.1567139374
 40
0.1838167838
 40
0.2127259027
 40
0.2433606603
 40
0.2756173767
 40
0.3093697077
 40
0.3444753899
 40
0.4180923691
 40
0.4950890156
 40
0.5739461484
 40
0.6530783652
 40
0.7308907191
 40
0.8058345641
 40
0.8417802671
 40
0.8764795079
 40
0.9097769185
 40
0.9415414669
 40
0.971655178
 40
1.0
 40
1.0
 40
1.0
 40
1.0
 10
15.7648360563
 20
13.4708036673
 30
0.0
 10
15.7551767443
 20
13.4708036212
 30
0.0
 10
15.7354927478
 20
13.4688224799
 30
0.0
 10
15.7064432802
 20
13.4599984021
 30
0.0
 10
15.6778714653
 20
13.4454591173
 30
0.0
 10
15.6499532877
 20
13.4253544148
 30
0.0
 10
15.6228043167
 20
13.3998532441
 30
0.0
 10
15.5965578541
 20
13.3691109593
 30
0.0
 10
15.5713350644
 20
13.3333135171
 30
0.0
 10
15.547276372
 20
13.2926611426
 30
0.0
 10
15.5245083878
 20
13.247390149
 30
0.0
 10
15.5031671044
 20
13.1977598004
 30
0.0
 10
15.4833717148
 20
13.144060725
 30
0.0
 10
15.4652433433
 20
13.086606691
 30
0.0
 10
15.4488851988
 20
13.0257360542
 30
0.0
 10
15.4292612352
 20
12.9391256105
 30
0.0
 10
15.4100185332
 20
12.8248959214
 30
0.0
 10
15.3955324791
 20
12.6825405277
 30
0.0
 10
15.3896555074
 20
12.5361320159
 30
0.0
 10
15.3925287788
 20
12.3891263769
 30
0.0
 10
15.4040847208
 20
12.2449941586
 30
0.0
 10
15.4209375273
 20
12.1285150106
 30
0.0
 10
15.4387179116
 20
12.0395293052
 30
0.0
 10
15.4537975692
 20
11.9765174906
 30
0.0
 10
15.4707191514
 20
11.9166771881
 30
0.0
 10
15.4893808804
 20
11.860355386
 30
0.0
 10
15.5096751835
 20
11.8078963275
 30
0.0
 10
15.5246707568
 20
11.7746684524
 30
0.0
 10
15.5324523858
 20
11.7588111597
 30
0.0
  0
SPLINE
  5
27B
100
AcDbEntity
  8
0
100
AcDbSpline
 62
7
  6
CONTINUOUS
 70
0
 71
3
 72
33
 73
29
 74
0
 42
0.0000001
 43
0.0000001
 44
0.0000000001
 40
0.0
 40
0.0
 40
0.0
 40
0.0
 40
0.0283448774
 40
0.0584587047
 40
0.09022339
 40
0.1235209084
 40
0.158220234
 40
0.1941659082
 40
0.2691095078
 40
0.3469221104
 40
0.4260544909
 40
0.5049115723
 40
0.5819080513
 40
0.6555249064
 40
0.6906305519
 40
0.7243828458
 40
0.7566395342
 40
0.7872742547
 40
0.8161833455
 40
0.8432861537
 40
0.8685350696
 40
0.8919176391
 40
0.913471499
 40
0.9332908572
 40
0.9515469294
 40
0.9684973471
 40
0.9844997744
 40
1.0
 40
1.0
 40
1.0
 40
1.0
 10
15.56508834
 20
11.7588111597
 30
0.0
 10
15.5573066981
 20
11.7746684786
 30
0.0
 10
15.5423111004
 20
11.8078964478
 30
0.0
 10
15.5220167407
 20
11.8603556722
 30
0.0
 10
15.5033549781
 20
11.9166776814
 30
0.0
 10
15.4864333743
 20
11.9765181719
 30
0.0
 10
15.4713537736
 20
12.0395300847
 30
0.0
 10
15.4535734349
 20
12.1285156502
 30
0.0
 10
15.4367207285
 20
12.2449947606
 30
0.0
 10
15.4251648261
 20
12.3891270417
 30
0.0
 10
15.4222916436
 20
12.5361328636
 30
0.0
 10
15.4281686951
 20
12.6825412925
 30
0.0
 10
15.4426547977
 20
12.8248964226
 30
0.0
 10
15.4618975192
 20
12.9391258638
 30
0.0
 10
15.481521461
 20
13.0257361586
 30
0.0
 10
15.4978796243
 20
13.0866067043
 30
0.0
 10
15.5160079646
 20
13.1440606625
 30
0.0
 10
15.5358033682
 20
13.1977596516
 30
0.0
 10
15.557144602
 20
13.2473899339
 30
0.0
 10
15.579912589
 20
13.2926608435
 30
0.0
 10
15.6039712153
 20
13.3333131705
 30
0.0
 10
15.6291939921
 20
13.3691105446
 30
0.0
 10
15.6554403834
 20
13.3998528159
 30
0.0
 10
15.6825893309
 20
13.4253539496
 30
0.0
 10
15.7105074497
 20
13.4454586752
 30
0.0
 10
15.7390792277
 20
13.4599979868
 30
0.0
 10
15.7681286858
 20
13.4688221185
 30
0.0
 10
15.7878126882
 20
13.4708032408
 30
0.0
 10
15.7974720106
 20
13.4708033311
 30
0.0
  0
ENDSEC
  0
SECTION
  2
OBJECTS
  0
DICTIONARY
  5
C
100
AcDbDictionary
280
0
281
1
  3
ACAD_GROUP
350
D
  3
ACAD_MLINESTYLE
350
17
  3
ACAD_LAYOUT
350
1A
  3
ACAD_PLOTSETTINGS
350
19
  3
ACAD_PLOTSTYLENAME
350
E
  0
DICTIONARY
  5
D
102
{ACAD_REACTORS
330
C
102
}
100
AcDbDictionary
280
0
281
1
  0
ACDBDICTIONARYWDFLT
  5
E
102
{ACAD_REACTORS
330
C
102
}
100
AcDbDictionary
281
1
  3
Normal
350
F
100
AcDbDictionaryWithDefault
340
F
  0
DICTIONARY
  5
17
102
{ACAD_REACTORS
330
C
102
}
100
AcDbDictionary
280
0
281
1
  3
Standard
350
18
  0
DICTIONARY
  5
19
102
{ACAD_REACTORS
330
C
102
}
100
AcDbDictionary
281
1
  0
DICTIONARY
  5
1A
102
{ACAD_REACTORS
330
C
102
}
100
AcDbDictionary
281
1
  3
Model
350
27C
  3
Layout1
350
27D
  0
ACDBPLACEHOLDER
  5
F
102
{ACAD_REACTORS
330
E
102
}
  0
MLINESTYLE
  5
18
102
{ACAD_REACTORS
330
17
102
}
100
AcDbMlineStyle
  2
STANDARD
 70
0
  3

 62
256
 51
90.0
 52
90.0
 71
2
 49
0.5
 62
256
  6
BYLAYER
 49
-0.5
 62
256
  6
BYLAYER
  0
LAYOUT
  5
27C
102
{ACAD_REACTORS
330
1A
102
}
100
AcDbPlotSettings
  1

  2
none_device
  4
ANSI_C_(22.00_x_17.00_Inches)
  6

 40
0.0
 41
0.0
 42
0.0
 43
0.0
 44
558.8
 45
431.8
 46
0.0
 47
0.0
 48
0.0
 49
0.0
140
0.0
141
0.0
142
1.0
143
1.0
 70
1024
 72
0
 73
0
 74
0
  7

 75
0
147
1.0
148
0.0
149
0.0
100
AcDbLayout
  1
Model
 70
0
 71
0
 10
0.0
 20
0.0
 11
22.0
 21
17.0
 12
0.0
 22
0.0
 32
0.0
 14
0.0
 24
0.0
 34
0.0
 15
0.0
 25
0.0
 35
0.0
146
0.0
 13
0.0
 23
0.0
 33
0.0
 16
1.0
 26
0.0
 36
0.0
 17
0.0
 27
1.0
 37
0.0
 76
0
330
226
345
0
346
0
  0
LAYOUT
  5
27D
102
{ACAD_REACTORS
330
1A
102
}
100
AcDbPlotSettings
  1

  2
none_device
  4
ANSI_C_(22.00_x_17.00_Inches)
  6

 40
0.0
 41
0.0
 42
0.0
 43
0.0
 44
558.8
 45
431.8
 46
0.0
 47
0.0
 48
0.0
 49
0.0
140
0.0
141
0.0
142
1.0
143
1.0
 70
0
 72
0
 73
0
 74
0
  7

 75
0
147
1.0
148
0.0
149
0.0
100
AcDbLayout
  1
Layout1
 70
0
 71
1
 10
0.0
 20
0.0
 11
22.0
 21
17.0
 12
0.0
 22
0.0
 32
0.0
 14
0.0
 24
0.0
 34
0.0
 15
0.0
 25
0.0
 35
0.0
146
0.0
 13
0.0
 23
0.0
 33
0.0
 16
1.0
 26
0.0
 36
0.0
 17
0.0
 27
1.0
 37
0.0
 76
0
330
227
345
0
346
0
  0
ENDSEC
  0
EOF