999
DXF file: _cgs_temp_output.dxf
999
Pro/ENGINEER 2016360 by Parametric Technology Corporation
  0
SECTION
  2
HEADER
  9
$ACADVER
  1
AC1021
  9
$DWGCODEPAGE
  3
ANSI_1252
  9
$EXTMAX
 10
22.0
 20
17.0
 30
0.0
  9
$EXTMIN
 10
0.0
 20
0.0
 30
0.0
  9
$LIMMIN
 10
0.0
 20
0.0
  9
$LIMMAX
 10
22.0
 20
17.0
  9
$VIEWCTR
 10
11.0
 20
8.5
  9
$VIEWSIZE
 40
17.0
  9
$CLAYER
  8
0
  9
$LTSCALE
 40
1.21
  9
$CELTYPE
  6
BYLAYER
  9
$DIMSCALE
 40
1.0
  9
$DIMASZ
 40
0.1875
  9
$DIMEXO
 40
0.0625
  9
$DIMDLI
 40
0.836
  9
$DIMEXE
 40
0.125
  9
$DIMCEN
 40
0.198
  9
$DIMLFAC
 40
1.0
  9
$DIMBLK
  1
_CLOSED
  9
$DIMALT
 70
0
  9
$DIMALTF
 40
25.4
  9
$DIMTXT
 40
0.15625
  9
$DIMTOL
 70
0
  9
$DIMLIM
 70
0
  9
$DIMTFAC
 40
1.0
  9
$DIMGAP
 40
0.09
  9
$DIMDSEP
 70
46
  9
$AUNITS
 70
0
  9
$PDMODE
 70
3
  9
$PDSIZE
 40
0.3125
  9
$HANDSEED
  5
2FE
  9
$TILEMODE
 70
1
  9
$MEASUREMENT
 70
0
  9
$INSUNITS
 70
1
  0
ENDSEC
  0
SECTION
  2
CLASSES
  0
CLASS
  1
ACDBDICTIONARYWDFLT
  2
AcDbDictionaryWithDefault
  3
AutoCAD 2000
 90
0
 91
1
280
0
281
0
  0
CLASS
  1
ACDBPLACEHOLDER
  2
AcDbPlaceHolder
  3
AutoCAD 2000
 90
0
 91
1
280
0
281
0
  0
CLASS
  1
LAYOUT
  2
AcDbLayout
  3
AutoCAD 2000
 90
0
 91
0
280
0
281
0
  0
ENDSEC
  0
SECTION
  2
TABLES
  0
TABLE
  2
VPORT
  5
8
100
AcDbSymbolTable
 70
2
  0
VPORT
  5
1F4
100
AcDbSymbolTableRecord
100
AcDbViewportTableRecord
  2
*ACTIVE
 70
0
 10
0.0
 20
0.0
 11
1.0
 21
1.0
 12
11.0
 22
8.5
 13
0.0
 23
0.0
 14
1.0
 24
1.0
 15
0.0
 25
0.0
 16
0.0
 26
0.0
 36
1.0
 17
0.0
 27
0.0
 37
0.0
 40
17.0
 41
1.2941176471
 42
50.0
 43
0.0
 44
0.0
 50
0.0
 51
0.0
 71
0
 72
100
 73
1
 74
1
 75
0
 76
0
 77
0
 78
0
  0
ENDTAB
  0
TABLE
  2
LTYPE
  5
5
100
AcDbSymbolTable
 70
6
  0
LTYPE
  5
14
100
AcDbSymbolTableRecord
100
AcDbLinetypeTableRecord
  2
BYBLOCK
 70
0
  3

 72
65
 73
0
 40
0.0
  0
LTYPE
  5
15
100
AcDbSymbolTableRecord
100
AcDbLinetypeTableRecord
  2
BYLAYER
 70
0
  3

 72
65
 73
0
 40
0.0
  0
LTYPE
  5
16
100
AcDbSymbolTableRecord
100
AcDbLinetypeTableRecord
  2
CONTINUOUS
 70
64
  3
Solid line
 72
65
 73
0
 40
0.0
  0
LTYPE
  5
1F5
100
AcDbSymbolTableRecord
100
AcDbLinetypeTableRecord
  2
CENTER
 70
64
  3
____ _ ____ _ ____ _ ____ _ ____ _ ____ _ ____
 72
65
 73
4
 40
0.6
 49
0.375
 74
0
 49
-0.075
 74
0
 49
0.075
 74
0
 49
-0.075
 74
0
  0
LTYPE
  5
1F6
100
AcDbSymbolTableRecord
100
AcDbLinetypeTableRecord
  2
HIDDEN
 70
64
  3
- - - - - - - - - - - - - - - - - - - -
 72
65
 73
2
 40
0.2
 49
0.1
 74
0
 49
-0.1
 74
0
  0
LTYPE
  5
1F7
100
AcDbSymbolTableRecord
100
AcDbLinetypeTableRecord
  2
PHANTOM
 70
64
  3
_____ _ _ _____ _ _ _____ _ _ _____
 72
65
 73
6
 40
0.8
 49
0.45
 74
0
 49
-0.05
 74
0
 49
0.1
 74
0
 49
-0.05
 74
0
 49
0.1
 74
0
 49
-0.05
 74
0
  0
LTYPE
  5
1F8
100
AcDbSymbolTableRecord
100
AcDbLinetypeTableRecord
  2
DOT
 70
64
  3
. . . . . . . . . . . . . . . . . . . .
 72
65
 73
2
 40
0.2
 49
0.1
 74
0
 49
-0.1
 74
0
  0
LTYPE
  5
1F9
100
AcDbSymbolTableRecord
100
AcDbLinetypeTableRecord
  2
DASHED
 70
64
  3
- - - - - - - - - - - - - - - - - - - -
 72
65
 73
2
 40
0.2
 49
0.1
 74
0
 49
-0.1
 74
0
  0
ENDTAB
  0
TABLE
  2
LAYER
  5
2
100
AcDbSymbolTable
 70
36
  0
LAYER
  5
10
100
AcDbSymbolTableRecord
100
AcDbLayerTableRecord
  2
0
 70
0
 62
7
  6
CONTINUOUS
370
-3
390
F
  0
LAYER
  5
1FA
100
AcDbSymbolTableRecord
100
AcDbLayerTableRecord
  2
DEFAULT_1
 70
0
 62
7
  6
CENTER
370
-3
390
F
  0
LAYER
  5
1FB
100
AcDbSymbolTableRecord
100
AcDbLayerTableRecord
  2
DEFAULT_2
 70
0
 62
8
  6
HIDDEN
370
-3
390
F
  0
LAYER
  5
1FC
100
AcDbSymbolTableRecord
100
AcDbLayerTableRecord
  2
DEFAULT_3
 70
0
 62
7
  6
PHANTOM
370
-3
390
F
  0
LAYER
  5
1FD
100
AcDbSymbolTableRecord
100
AcDbLayerTableRecord
  2
01_ALL_DTM_PLN
 70
0
 62
7
  6
CONTINUOUS
370
-3
390
F
  0
LAYER
  5
1FE
100
AcDbSymbolTableRecord
100
AcDbLayerTableRecord
  2
01__ASM_ALL_DTM_PLN
 70
0
 62
7
  6
CONTINUOUS
370
-3
390
F
  0
LAYER
  5
1FF
100
AcDbSymbolTableRecord
100
AcDbLayerTableRecord
  2
01__ASM_DEF_DTM_PLN
 70
0
 62
7
  6
CONTINUOUS
370
-3
390
F
  0
LAYER
  5
200
100
AcDbSymbolTableRecord
100
AcDbLayerTableRecord
  2
01___PRT_ALL_DTM_PLN
 70
0
 62
7
  6
CONTINUOUS
370
-3
390
F
  0
LAYER
  5
201
100
AcDbSymbolTableRecord
100
AcDbLayerTableRecord
  2
01___PRT_DEF_DTM_PLN
 70
0
 62
7
  6
CONTINUOUS
370
-3
390
F
  0
LAYER
  5
202
100
AcDbSymbolTableRecord
100
AcDbLayerTableRecord
  2
02_ALL_AXES
 70
0
 62
7
  6
CONTINUOUS
370
-3
390
F
  0
LAYER
  5
203
100
AcDbSymbolTableRecord
100
AcDbLayerTableRecord
  2
02__ASM_ALL_AXES
 70
0
 62
7
  6
CONTINUOUS
370
-3
390
F
  0
LAYER
  5
204
100
AcDbSymbolTableRecord
100
AcDbLayerTableRecord
  2
02___PRT_ALL_AXES
 70
0
 62
7
  6
CONTINUOUS
370
-3
390
F
  0
LAYER
  5
205
100
AcDbSymbolTableRecord
100
AcDbLayerTableRecord
  2
03_ALL_CURVES
 70
0
 62
7
  6
CONTINUOUS
370
-3
390
F
  0
LAYER
  5
206
100
AcDbSymbolTableRecord
100
AcDbLayerTableRecord
  2
03__ASM_ALL_CURVES
 70
0
 62
7
  6
CONTINUOUS
370
-3
390
F
  0
LAYER
  5
207
100
AcDbSymbolTableRecord
100
AcDbLayerTableRecord
  2
03___PRT_ALL_CURVES
 70
0
 62
7
  6
CONTINUOUS
370
-3
390
F
  0
LAYER
  5
208
100
AcDbSymbolTableRecord
100
AcDbLayerTableRecord
  2
04_ALL_DTM_PNT
 70
0
 62
7
  6
CONTINUOUS
370
-3
390
F
  0
LAYER
  5
209
100
AcDbSymbolTableRecord
100
AcDbLayerTableRecord
  2
04__ASM_ALL_DTM_PNT
 70
0
 62
7
  6
CONTINUOUS
370
-3
390
F
  0
LAYER
  5
20A
100
AcDbSymbolTableRecord
100
AcDbLayerTableRecord
  2
04___PRT_ALL_DTM_PNT
 70
0
 62
7
  6
CONTINUOUS
370
-3
390
F
  0
LAYER
  5
20B
100
AcDbSymbolTableRecord
100
AcDbLayerTableRecord
  2
05_ALL_DTM_CSYS
 70
0
 62
7
  6
CONTINUOUS
370
-3
390
F
  0
LAYER
  5
20C
100
AcDbSymbolTableRecord
100
AcDbLayerTableRecord
  2
05__ASM_ALL_DTM_CSYS
 70
0
 62
7
  6
CONTINUOUS
370
-3
390
F
  0
LAYER
  5
20D
100
AcDbSymbolTableRecord
100
AcDbLayerTableRecord
  2
05__ASM_DEF_DTM_CSYS
 70
0
 62
7
  6
CONTINUOUS
370
-3
390
F
  0
LAYER
  5
20E
100
AcDbSymbolTableRecord
100
AcDbLayerTableRecord
  2
05___PRT_ALL_DTM_CSYS
 70
0
 62
7
  6
CONTINUOUS
370
-3
390
F
  0
LAYER
  5
20F
100
AcDbSymbolTableRecord
100
AcDbLayerTableRecord
  2
05___PRT_DEF_DTM_CSYS
 70
0
 62
7
  6
CONTINUOUS
370
-3
390
F
  0
LAYER
  5
210
100
AcDbSymbolTableRecord
100
AcDbLayerTableRecord
  2
06_ALL_SURFS
 70
0
 62
7
  6
CONTINUOUS
370
-3
390
F
  0
LAYER
  5
211
100
AcDbSymbolTableRecord
100
AcDbLayerTableRecord
  2
06__ASM_ALL_SURFS
 70
0
 62
7
  6
CONTINUOUS
370
-3
390
F
  0
LAYER
  5
212
100
AcDbSymbolTableRecord
100
AcDbLayerTableRecord
  2
06___PRT_ALL_SURFS
 70
0
 62
7
  6
CONTINUOUS
370
-3
390
F
  0
LAYER
  5
213
100
AcDbSymbolTableRecord
100
AcDbLayerTableRecord
  2
07__ASM_ALL_SKELETONS
 70
0
 62
7
  6
CONTINUOUS
370
-3
390
F
  0
ENDTAB
  0
TABLE
  2
STYLE
  5
3
100
AcDbSymbolTable
 70
1
  0
STYLE
  5
11
100
AcDbSymbolTableRecord
100
AcDbTextStyleTableRecord
  2
STANDARD
 70
0
 40
0.0
 41
0.8
 50
0.0
 71
0
 42
0.2
  3
txt
  4

  0
STYLE
  5
214
100
AcDbSymbolTableRecord
100
AcDbTextStyleTableRecord
  2
TEXTSTYLE_1
 70
0
 40
0.0
 41
0.8
 50
0.0
 71
0
 42
0.2
  3
gdt
  4

  0
ENDTAB
  0
TABLE
  2
VIEW
  5
6
100
AcDbSymbolTable
 70
0
  0
ENDTAB
  0
TABLE
  2
UCS
  5
7
100
AcDbSymbolTable
 70
0
  0
ENDTAB
  0
TABLE
  2
APPID
  5
9
100
AcDbSymbolTable
 70
1
  0
APPID
  5
215
100
AcDbSymbolTableRecord
100
AcDbRegAppTableRecord
  2
ACAD
 70
0
  0
ENDTAB
  0
TABLE
  2
BLOCK_RECORD
  5
1
100
AcDbSymbolTable
 70
0
  0
BLOCK_RECORD
  5
216
100
AcDbSymbolTableRecord
100
AcDbBlockTableRecord
  2
*Model_Space
  0
BLOCK_RECORD
  5
217
100
AcDbSymbolTableRecord
100
AcDbBlockTableRecord
  2
*Paper_Space
  0
ENDTAB
  0
TABLE
  2
DIMSTYLE
  5
A
100
AcDbSymbolTable
 70
1
100
AcDbDimStyleTable
 71
0
  0
DIMSTYLE
105
218
100
AcDbSymbolTableRecord
100
AcDbDimStyleTableRecord
  2
STANDARD
 70
0
  3

  4

 40
1.0
 41
0.1875
 42
0.0625
 43
0.38
 44
0.125
 45
0.0
 46
0.0
 47
0.0001
 48
0.0001
140
0.15625
141
0.09
142
0.0
143
25.4
144
1.0
145
0.0
146
1.0
147
0.09
 71
0.0
 72
0.0
 73
1
 74
1
 75
0
 76
0
 77
0
 78
4
 79
1
170
0
171
3
172
0
173
0
174
0
175
0
176
0
177
0
178
0
270
2
179
4
271
4
272
4
273
2
274
2
275
0
280
0
281
0
282
0
283
1
284
4
285
0
286
0
287
3
288
0
340
11
278
46
  0
ENDTAB
  0
ENDSEC
  0
SECTION
  2
BLOCKS
  0
BLOCK
  5
20
100
AcDbEntity
  8
0
100
AcDbBlockBegin
  2
*Model_Space
 70
0
 10
0.0
 20
0.0
 30
0.0
  3
*Model_Space
  1

  0
ENDBLK
  5
21
100
AcDbEntity
  8
0
100
AcDbBlockEnd
  0
BLOCK
  5
1C
100
AcDbEntity
  8
0
100
AcDbBlockBegin
  2
*Paper_Space
 70
0
 10
0.0
 20
0.0
 30
0.0
  3
*Paper_Space
  1

  0
ENDBLK
  5
1D
100
AcDbEntity
  8
0
100
AcDbBlockEnd
  0
ENDSEC
  0
SECTION
  2
ENTITIES
  0
MTEXT
  5
219
100
AcDbEntity
  8
0
100
AcDbMText
 62
7
  6
CONTINUOUS
  7
STANDARD
 71
1
 72
1
 10
15.9560215477
 20
0.9479130325
 30
0.0
 11
1.0
 21
0.0
 31
0.0
 44
0.9
  1
SCALE: 1:1.000
 40
0.3
 41
3.36
  0
LINE
  5
21A
100
AcDbEntity
  8
0
100
AcDbLine
 62
7
  6
CONTINUOUS
 10
0.0
 20
0.0
 11
0.0
 21
17.0
  0
LINE
  5
21B
100
AcDbEntity
  8
0
100
AcDbLine
 62
7
  6
CONTINUOUS
 10
0.0
 20
0.0
 11
22.0
 21
0.0
  0
LINE
  5
21C
100
AcDbEntity
  8
0
100
AcDbLine
 62
7
  6
CONTINUOUS
 10
0.0
 20
17.0
 11
22.0
 21
17.0
  0
LINE
  5
21D
100
AcDbEntity
  8
0
100
AcDbLine
 62
7
  6
CONTINUOUS
 10
22.0
 20
0.0
 11
22.0
 21
17.0
  0
LINE
  5
21E
100
AcDbEntity
  8
0
100
AcDbLine
 62
7
  6
CONTINUOUS
 10
5.4116172762
 20
5.7241198968
 11
5.4116172762
 21
5.6442488016
  0
LINE
  5
21F
100
AcDbEntity
  8
0
100
AcDbLine
 62
7
  6
CONTINUOUS
 10
5.4744546424
 20
5.3113496719
 11
5.4134545578
 21
5.625167902
  0
LINE
  5
220
100
AcDbEntity
  8
0
100
AcDbLine
 62
7
  6
CONTINUOUS
 10
5.498995322
 20
5.2911198968
 11
6.7617392303
 21
5.2911198968
  0
LINE
  5
221
100
AcDbEntity
  8
0
100
AcDbLine
 62
7
  6
CONTINUOUS
 10
5.4693199281
 20
5.4437865634
 11
6.7914146242
 21
5.4437865634
  0
LINE
  5
222
100
AcDbEntity
  8
0
100
AcDbLine
 62
7
  6
CONTINUOUS
 10
6.8241172762
 20
5.7491198968
 11
5.4366172762
 21
5.7491198968
  0
LINE
  5
223
100
AcDbEntity
  8
0
100
AcDbLine
 62
7
  6
CONTINUOUS
 10
6.8491172762
 20
5.6442488016
 11
6.8491172762
 21
5.7241198968
  0
LINE
  5
224
100
AcDbEntity
  8
0
100
AcDbLine
 62
7
  6
CONTINUOUS
 10
6.7862799099
 20
5.3113496719
 11
6.8472799945
 21
5.625167902
  0
LINE
  5
225
100
AcDbEntity
  8
0
100
AcDbLine
 62
7
  6
CONTINUOUS
 10
6.7896220839
 20
10.6000477814
 11
5.3521220839
 21
10.6000477814
  0
LINE
  5
226
100
AcDbEntity
  8
0
100
AcDbLine
 62
7
  6
CONTINUOUS
 10
5.3521220839
 20
10.6000477814
 11
5.3521220839
 21
14.6000477814
  0
LINE
  5
227
100
AcDbEntity
  8
0
100
AcDbLine
 62
7
  6
CONTINUOUS
 10
6.7896220839
 20
10.6000477814
 11
6.7896220839
 21
14.6000477814
  0
LINE
  5
228
100
AcDbEntity
  8
0
100
AcDbLine
 62
7
  6
CONTINUOUS
 10
5.3521220839
 20
14.6000477814
 11
6.7896220839
 21
14.6000477814
  0
LINE
  5
229
100
AcDbEntity
  8
0
100
AcDbLine
 62
7
  6
CONTINUOUS
 10
13.5603552569
 20
5.3842913711
 11
13.5603552569
 21
5.6896247044
  0
LINE
  5
22A
100
AcDbEntity
  8
0
100
AcDbLine
 62
7
  6
CONTINUOUS
 10
13.6745616383
 20
5.3547103364
 11
13.6961488755
 21
5.2612057392
  0
LINE
  5
22B
100
AcDbEntity
  8
0
100
AcDbLine
 62
7
  6
CONTINUOUS
 10
13.9245616383
 20
5.2612057392
 11
13.9461488755
 21
5.3547103364
  0
LINE
  5
22C
100
AcDbEntity
  8
0
100
AcDbLine
 62
7
  6
CONTINUOUS
 10
14.1745616383
 20
5.3547103364
 11
14.1961488755
 21
5.2612057392
  0
LINE
  5
22D
100
AcDbEntity
  8
0
100
AcDbLine
 62
7
  6
CONTINUOUS
 10
14.4245616383
 20
5.2612057392
 11
14.4461488755
 21
5.3547103364
  0
LINE
  5
22E
100
AcDbEntity
  8
0
100
AcDbLine
 62
7
  6
CONTINUOUS
 10
14.6745616383
 20
5.3547103364
 11
14.6961488755
 21
5.2612057392
  0
LINE
  5
22F
100
AcDbEntity
  8
0
100
AcDbLine
 62
7
  6
CONTINUOUS
 10
14.9245616383
 20
5.2612057392
 11
14.9461488755
 21
5.3547103364
  0
LINE
  5
230
100
AcDbEntity
  8
0
100
AcDbLine
 62
7
  6
CONTINUOUS
 10
15.1745616383
 20
5.3547103364
 11
15.1961488755
 21
5.2612057392
  0
LINE
  5
231
100
AcDbEntity
  8
0
100
AcDbLine
 62
7
  6
CONTINUOUS
 10
13.733337333
 20
5.2316247044
 11
13.8873731809
 21
5.2316247044
  0
LINE
  5
232
100
AcDbEntity
  8
0
100
AcDbLine
 62
7
  6
CONTINUOUS
 10
14.233337333
 20
5.2316247044
 11
14.3873731809
 21
5.2316247044
  0
LINE
  5
233
100
AcDbEntity
  8
0
100
AcDbLine
 62
7
  6
CONTINUOUS
 10
14.733337333
 20
5.2316247044
 11
14.8873731809
 21
5.2316247044
  0
LINE
  5
234
100
AcDbEntity
  8
0
100
AcDbLine
 62
7
  6
CONTINUOUS
 10
15.233337333
 20
5.2316247044
 11
15.3873731809
 21
5.2316247044
  0
LINE
  5
235
100
AcDbEntity
  8
0
100
AcDbLine
 62
7
  6
CONTINUOUS
 10
15.733337333
 20
5.2316247044
 11
15.8873731809
 21
5.2316247044
  0
LINE
  5
236
100
AcDbEntity
  8
0
100
AcDbLine
 62
7
  6
CONTINUOUS
 10
16.233337333
 20
5.2316247044
 11
16.3873731809
 21
5.2316247044
  0
LINE
  5
237
100
AcDbEntity
  8
0
100
AcDbLine
 62
7
  6
CONTINUOUS
 10
16.733337333
 20
5.2316247044
 11
16.8873731809
 21
5.2316247044
  0
LINE
  5
238
100
AcDbEntity
  8
0
100
AcDbLine
 62
7
  6
CONTINUOUS
 10
17.233337333
 20
5.2316247044
 11
17.3873731809
 21
5.2316247044
  0
LINE
  5
239
100
AcDbEntity
  8
0
100
AcDbLine
 62
7
  6
CONTINUOUS
 10
15.4245616383
 20
5.2612057392
 11
15.4461488755
 21
5.3547103364
  0
LINE
  5
23A
100
AcDbEntity
  8
0
100
AcDbLine
 62
7
  6
CONTINUOUS
 10
13.5603552569
 20
5.3842913711
 11
13.6373731809
 21
5.3842913711
  0
LINE
  5
23B
100
AcDbEntity
  8
0
100
AcDbLine
 62
7
  6
CONTINUOUS
 10
13.983337333
 20
5.3842913711
 11
14.1373731809
 21
5.3842913711
  0
LINE
  5
23C
100
AcDbEntity
  8
0
100
AcDbLine
 62
7
  6
CONTINUOUS
 10
14.483337333
 20
5.3842913711
 11
14.6373731809
 21
5.3842913711
  0
LINE
  5
23D
100
AcDbEntity
  8
0
100
AcDbLine
 62
7
  6
CONTINUOUS
 10
14.983337333
 20
5.3842913711
 11
15.1373731809
 21
5.3842913711
  0
LINE
  5
23E
100
AcDbEntity
  8
0
100
AcDbLine
 62
7
  6
CONTINUOUS
 10
15.483337333
 20
5.3842913711
 11
15.6373731809
 21
5.3842913711
  0
LINE
  5
23F
100
AcDbEntity
  8
0
100
AcDbLine
 62
7
  6
CONTINUOUS
 10
15.983337333
 20
5.3842913711
 11
16.1373731809
 21
5.3842913711
  0
LINE
  5
240
100
AcDbEntity
  8
0
100
AcDbLine
 62
7
  6
CONTINUOUS
 10
16.483337333
 20
5.3842913711
 11
16.6373731809
 21
5.3842913711
  0
LINE
  5
241
100
AcDbEntity
  8
0
100
AcDbLine
 62
7
  6
CONTINUOUS
 10
16.983337333
 20
5.3842913711
 11
17.1373731809
 21
5.3842913711
  0
LINE
  5
242
100
AcDbEntity
  8
0
100
AcDbLine
 62
7
  6
CONTINUOUS
 10
17.483337333
 20
5.3842913711
 11
17.5603552569
 21
5.3842913711
  0
LINE
  5
243
100
AcDbEntity
  8
0
100
AcDbLine
 62
7
  6
CONTINUOUS
 10
15.6745616383
 20
5.3547103364
 11
15.6961488755
 21
5.2612057392
  0
LINE
  5
244
100
AcDbEntity
  8
0
100
AcDbLine
 62
7
  6
CONTINUOUS
 10
13.5603552569
 20
5.6896247044
 11
17.5603552569
 21
5.6896247044
  0
LINE
  5
245
100
AcDbEntity
  8
0
100
AcDbLine
 62
7
  6
CONTINUOUS
 10
15.9245616383
 20
5.2612057392
 11
15.9461488755
 21
5.3547103364
  0
LINE
  5
246
100
AcDbEntity
  8
0
100
AcDbLine
 62
7
  6
CONTINUOUS
 10
16.1745616383
 20
5.3547103364
 11
16.1961488755
 21
5.2612057392
  0
LINE
  5
247
100
AcDbEntity
  8
0
100
AcDbLine
 62
7
  6
CONTINUOUS
 10
16.4245616383
 20
5.2612057392
 11
16.4461488755
 21
5.3547103364
  0
LINE
  5
248
100
AcDbEntity
  8
0
100
AcDbLine
 62
7
  6
CONTINUOUS
 10
16.6745616383
 20
5.3547103364
 11
16.6961488755
 21
5.2612057392
  0
LINE
  5
249
100
AcDbEntity
  8
0
100
AcDbLine
 62
7
  6
CONTINUOUS
 10
16.9245616383
 20
5.2612057392
 11
16.9461488755
 21
5.3547103364
  0
LINE
  5
24A
100
AcDbEntity
  8
0
100
AcDbLine
 62
7
  6
CONTINUOUS
 10
17.1745616383
 20
5.3547103364
 11
17.1961488755
 21
5.2612057392
  0
LINE
  5
24B
100
AcDbEntity
  8
0
100
AcDbLine
 62
7
  6
CONTINUOUS
 10
17.5603552569
 20
5.3842913711
 11
17.5603552569
 21
5.6896247044
  0
LINE
  5
24C
100
AcDbEntity
  8
0
100
AcDbLine
 62
7
  6
CONTINUOUS
 10
17.4245616383
 20
5.2612057392
 11
17.4461488755
 21
5.3547103364
  0
LINE
  5
24D
100
AcDbEntity
  8
0
100
AcDbLine
 62
7
  6
CONTINUOUS
 10
14.3330596175
 20
10.9620005
 11
14.411069542
 21
10.8618270817
  0
LWPOLYLINE
  5
24E
100
AcDbEntity
  8
0
100
AcDbPolyline
 62
7
  6
CONTINUOUS
 90
5
 70
0
 10
15.7079294576
 20
10.8754126562
 10
15.7173922643
 20
10.8772029206
 10
15.7252848755
 20
10.8820345394
 10
15.7308883947
 20
10.8887682179
 10
15.7341443895
 20
10.8956348894
  0
LINE
  5
24F
100
AcDbEntity
  8
0
100
AcDbLine
 62
7
  6
CONTINUOUS
 10
14.4398439331
 20
10.8492520518
 11
15.657573788
 21
10.8492520518
  0
LINE
  5
250
100
AcDbEntity
  8
0
100
AcDbLine
 62
7
  6
CONTINUOUS
 10
15.6793961288
 20
10.8754125589
 11
15.7079336621
 21
10.8754125589
  0
LINE
  5
251
100
AcDbEntity
  8
0
100
AcDbLine
 62
7
  6
CONTINUOUS
 10
14.3011828678
 20
11.0235100463
 11
14.3255468958
 21
10.9738613773
  0
LINE
  5
252
100
AcDbEntity
  8
0
100
AcDbLine
 62
7
  6
CONTINUOUS
 10
15.5945554752
 20
11.0390502955
 11
14.316583346
 21
11.0390502955
  0
LWPOLYLINE
  5
253
100
AcDbEntity
  8
0
100
AcDbPolyline
 62
7
  6
CONTINUOUS
 90
5
 70
0
 10
15.8289626193
 20
11.267076111
 10
15.8384254261
 20
11.2688663754
 10
15.8463180372
 20
11.2736979942
 10
15.8519215564
 20
11.2804316727
 10
15.8551775512
 20
11.2872983443
  0
LINE
  5
254
100
AcDbEntity
  8
0
100
AcDbLine
 62
7
  6
CONTINUOUS
 10
15.8004292905
 20
11.2670760137
 11
15.8289668238
 21
11.2670760137
  0
LWPOLYLINE
  5
255
100
AcDbEntity
  8
0
100
AcDbPolyline
 62
7
  6
CONTINUOUS
 90
5
 70
0
 10
15.949995781
 20
11.6587395658
 10
15.9594585878
 20
11.6605298302
 10
15.9673511989
 20
11.665361449
 10
15.9729547181
 20
11.6720951275
 10
15.9762107129
 20
11.6789617991
  0
LINE
  5
256
100
AcDbEntity
  8
0
100
AcDbLine
 62
7
  6
CONTINUOUS
 10
15.9214624522
 20
11.6587394685
 11
15.9499999855
 21
11.6587394685
  0
LINE
  5
257
100
AcDbEntity
  8
0
100
AcDbLine
 62
7
  6
CONTINUOUS
 10
14.3003238716
 20
11.0308912306
 11
15.2685891652
 21
14.1641988691
  0
LWPOLYLINE
  5
258
100
AcDbEntity
  8
0
100
AcDbPolyline
 62
7
  6
CONTINUOUS
 90
5
 70
0
 10
16.0710289427
 20
12.0504030206
 10
16.0804917495
 20
12.0521932851
 10
16.0883843606
 20
12.0570249039
 10
16.0939878798
 20
12.0637585823
 10
16.0972438746
 20
12.0706252539
  0
LINE
  5
259
100
AcDbEntity
  8
0
100
AcDbLine
 62
7
  6
CONTINUOUS
 10
16.0424956139
 20
12.0504029233
 11
16.0710331472
 21
12.0504029233
  0
LINE
  5
25A
100
AcDbEntity
  8
0
100
AcDbLine
 62
7
  6
CONTINUOUS
 10
15.6495720747
 20
10.9738613773
 11
15.6252080467
 21
11.0235100463
  0
LWPOLYLINE
  5
25B
100
AcDbEntity
  8
0
100
AcDbPolyline
 62
7
  6
CONTINUOUS
 90
5
 70
0
 10
16.1920621044
 20
12.4420664754
 10
16.2015249112
 20
12.4438567399
 10
16.2094175223
 20
12.4486883587
 10
16.2150210415
 20
12.4554220371
 10
16.2182770363
 20
12.4622887087
  0
LINE
  5
25C
100
AcDbEntity
  8
0
100
AcDbLine
 62
7
  6
CONTINUOUS
 10
15.6740063224
 20
10.8618270817
 11
15.6537002994
 21
10.9620005
  0
LINE
  5
25D
100
AcDbEntity
  8
0
100
AcDbLine
 62
7
  6
CONTINUOUS
 10
16.1635287756
 20
12.4420663781
 11
16.1920663089
 21
12.4420663781
  0
LINE
  5
25E
100
AcDbEntity
  8
0
100
AcDbLine
 62
7
  6
CONTINUOUS
 10
15.7750693964
 20
11.0446242565
 11
15.7685128231
 21
11.1196575097
  0
LWPOLYLINE
  5
25F
100
AcDbEntity
  8
0
100
AcDbPolyline
 62
7
  6
CONTINUOUS
 90
7
 70
0
 10
15.7685104191
 20
11.1196799095
 10
15.7681993642
 20
11.1244925093
 10
15.7681934963
 20
11.1380470112
 10
15.7693650722
 20
11.1537449688
 10
15.7716561073
 20
11.1695505855
 10
15.7746960879
 20
11.1833867977
 10
15.7762172653
 20
11.1887300244
  0
LINE
  5
260
100
AcDbEntity
  8
0
100
AcDbLine
 62
7
  6
CONTINUOUS
 10
15.7752694175
 20
11.0407009979
 11
15.7750649453
 21
11.044673678
  0
LINE
  5
261
100
AcDbEntity
  8
0
100
AcDbLine
 62
7
  6
CONTINUOUS
 10
15.6738327188
 20
10.8574112843
 11
15.6740063224
 21
10.8618270817
  0
LWPOLYLINE
  5
262
100
AcDbEntity
  8
0
100
AcDbPolyline
 62
7
  6
CONTINUOUS
 90
5
 70
0
 10
16.3130952661
 20
12.8337299302
 10
16.3225580729
 20
12.8355201947
 10
16.330450684
 20
12.8403518135
 10
16.3360542032
 20
12.847085492
 10
16.339310198
 20
12.8539521635
  0
LINE
  5
263
100
AcDbEntity
  8
0
100
AcDbLine
 62
7
  6
CONTINUOUS
 10
15.8961025581
 20
11.4362877113
 11
15.8895459848
 21
11.5113209645
  0
LWPOLYLINE
  5
264
100
AcDbEntity
  8
0
100
AcDbPolyline
 62
7
  6
CONTINUOUS
 90
7
 70
0
 10
15.8895435808
 20
11.5113433643
 10
15.8892325259
 20
11.5161559641
 10
15.889226658
 20
11.5297104661
 10
15.8903982339
 20
11.5454084236
 10
15.892689269
 20
11.5612140403
 10
15.8957292496
 20
11.5750502525
 10
15.897250427
 20
11.5803934792
  0
LINE
  5
265
100
AcDbEntity
  8
0
100
AcDbLine
 62
7
  6
CONTINUOUS
 10
15.8963025793
 20
11.4323644527
 11
15.896098107
 21
11.4363371329
  0
LINE
  5
266
100
AcDbEntity
  8
0
100
AcDbLine
 62
7
  6
CONTINUOUS
 10
15.7748374603
 20
11.0316977049
 11
15.7752694175
 21
11.0407009979
  0
LINE
  5
267
100
AcDbEntity
  8
0
100
AcDbLine
 62
7
  6
CONTINUOUS
 10
16.5439774167
 20
13.6702879184
 11
16.5445044279
 21
13.6711895508
  0
LINE
  5
268
100
AcDbEntity
  8
0
100
AcDbLine
 62
7
  6
CONTINUOUS
 10
16.2845619373
 20
12.8337298329
 11
16.3130994706
 21
12.8337298329
  0
LINE
  5
269
100
AcDbEntity
  8
0
100
AcDbLine
 62
7
  6
CONTINUOUS
 10
16.0171357198
 20
11.8279511661
 11
16.0105791465
 21
11.9029844193
  0
LWPOLYLINE
  5
26A
100
AcDbEntity
  8
0
100
AcDbPolyline
 62
7
  6
CONTINUOUS
 90
7
 70
0
 10
16.0105767426
 20
11.9030068191
 10
16.0102656876
 20
11.907819419
 10
16.0102598197
 20
11.9213739209
 10
16.0114313956
 20
11.9370718785
 10
16.0137224307
 20
11.9528774951
 10
16.0167624113
 20
11.9667137073
 10
16.0182835887
 20
11.972056934
  0
LINE
  5
26B
100
AcDbEntity
  8
0
100
AcDbLine
 62
7
  6
CONTINUOUS
 10
16.017335741
 20
11.8240279075
 11
16.0171312687
 21
11.8280005877
  0
LINE
  5
26C
100
AcDbEntity
  8
0
100
AcDbLine
 62
7
  6
CONTINUOUS
 10
15.895870622
 20
11.4233611597
 11
15.8963025793
 21
11.4323644527
  0
LINE
  5
26D
100
AcDbEntity
  8
0
100
AcDbLine
 62
7
  6
CONTINUOUS
 10
15.773294985
 20
11.0226036553
 11
15.7748374603
 21
11.0316977049
  0
LINE
  5
26E
100
AcDbEntity
  8
0
100
AcDbLine
 62
7
  6
CONTINUOUS
 10
16.5423244347
 20
13.6667534966
 11
16.5439774167
 21
13.6702879184
  0
LINE
  5
26F
100
AcDbEntity
  8
0
100
AcDbLine
 62
7
  6
CONTINUOUS
 10
16.421291273
 20
13.2750900418
 11
16.422944255
 21
13.2786244636
  0
LINE
  5
270
100
AcDbEntity
  8
0
100
AcDbLine
 62
7
  6
CONTINUOUS
 10
16.422944255
 20
13.2786244636
 11
16.4234712662
 21
13.2795260959
  0
LINE
  5
271
100
AcDbEntity
  8
0
100
AcDbLine
 62
7
  6
CONTINUOUS
 10
16.3019110933
 20
12.8869610088
 11
16.3024381045
 21
12.8878626411
  0
LWPOLYLINE
  5
272
100
AcDbEntity
  8
0
100
AcDbPolyline
 62
7
  6
CONTINUOUS
 90
5
 70
0
 10
16.4341284278
 20
13.225393385
 10
16.4435912346
 20
13.2271836495
 10
16.4514838457
 20
13.2320152683
 10
16.4570873649
 20
13.2387489468
 10
16.4603433597
 20
13.2456156183
  0
LINE
  5
273
100
AcDbEntity
  8
0
100
AcDbLine
 62
7
  6
CONTINUOUS
 10
16.1381688815
 20
12.219614621
 11
16.1316123082
 21
12.2946478741
  0
LWPOLYLINE
  5
274
100
AcDbEntity
  8
0
100
AcDbPolyline
 62
7
  6
CONTINUOUS
 90
7
 70
0
 10
16.1316099043
 20
12.294670274
 10
16.1312988493
 20
12.2994828738
 10
16.1312929814
 20
12.3130373757
 10
16.1324645573
 20
12.3287353333
 10
16.1347555924
 20
12.3445409499
 10
16.137795573
 20
12.3583771621
 10
16.1393167504
 20
12.3637203888
  0
LINE
  5
275
100
AcDbEntity
  8
0
100
AcDbLine
 62
7
  6
CONTINUOUS
 10
16.1383689027
 20
12.2156913624
 11
16.1381644305
 21
12.2196640425
  0
LINE
  5
276
100
AcDbEntity
  8
0
100
AcDbLine
 62
7
  6
CONTINUOUS
 10
16.0169037837
 20
11.8150246145
 11
16.017335741
 21
11.8240279075
  0
LINE
  5
277
100
AcDbEntity
  8
0
100
AcDbLine
 62
7
  6
CONTINUOUS
 10
16.1379369454
 20
12.2066880693
 11
16.1383689027
 21
12.2156913624
  0
LINE
  5
278
100
AcDbEntity
  8
0
100
AcDbLine
 62
7
  6
CONTINUOUS
 10
15.8943281467
 20
11.4142671101
 11
15.895870622
 21
11.4233611597
  0
LINE
  5
279
100
AcDbEntity
  8
0
100
AcDbLine
 62
7
  6
CONTINUOUS
 10
16.0153613084
 20
11.8059305649
 11
16.0169037837
 21
11.8150246145
  0
LINE
  5
27A
100
AcDbEntity
  8
0
100
AcDbLine
 62
7
  6
CONTINUOUS
 10
15.7722151149
 20
11.0186257728
 11
15.773294985
 21
11.0226036553
  0
LINE
  5
27B
100
AcDbEntity
  8
0
100
AcDbLine
 62
7
  6
CONTINUOUS
 10
15.8932482766
 20
11.4102892276
 11
15.8943281467
 21
11.4142671101
  0
LINE
  5
27C
100
AcDbEntity
  8
0
100
AcDbLine
 62
7
  6
CONTINUOUS
 10
15.6750940279
 20
10.8614909553
 11
15.6924767087
 21
10.9177413309
  0
LINE
  5
27D
100
AcDbEntity
  8
0
100
AcDbLine
 62
7
  6
CONTINUOUS
 10
15.7762229785
 20
11.1887443592
 11
15.8135098704
 21
11.3094047857
  0
LINE
  5
27E
100
AcDbEntity
  8
0
100
AcDbLine
 62
7
  6
CONTINUOUS
 10
15.8972561402
 20
11.580407814
 11
15.9345430321
 21
11.7010682406
  0
LINE
  5
27F
100
AcDbEntity
  8
0
100
AcDbLine
 62
7
  6
CONTINUOUS
 10
16.0182893019
 20
11.9720712688
 11
16.0555761938
 21
12.0927316954
  0
LINE
  5
280
100
AcDbEntity
  8
0
100
AcDbLine
 62
7
  6
CONTINUOUS
 10
16.1393224636
 20
12.3637347236
 11
16.1766093555
 21
12.4843951502
  0
LINE
  5
281
100
AcDbEntity
  8
0
100
AcDbLine
 62
7
  6
CONTINUOUS
 10
16.2603556253
 20
12.7553981785
 11
16.2976425172
 21
12.876058605
  0
LINE
  5
282
100
AcDbEntity
  8
0
100
AcDbLine
 62
7
  6
CONTINUOUS
 10
16.381388787
 20
13.1470616333
 11
16.4186756789
 21
13.2677220598
  0
LINE
  5
283
100
AcDbEntity
  8
0
100
AcDbLine
 62
7
  6
CONTINUOUS
 10
16.5024219487
 20
13.5387250881
 11
16.5397088406
 21
13.6593855146
  0
LINE
  5
284
100
AcDbEntity
  8
0
100
AcDbLine
 62
7
  6
CONTINUOUS
 10
16.6234551104
 20
13.9303885429
 11
16.6420985561
 21
13.9907187553
  0
LWPOLYLINE
  5
285
100
AcDbEntity
  8
0
100
AcDbPolyline
 62
7
  6
CONTINUOUS
 90
3
 70
0
 10
16.5397088398
 20
13.6593872336
 10
16.5402049894
 20
13.6609501484
 10
16.5423244347
 20
13.6667534966
  0
LWPOLYLINE
  5
286
100
AcDbEntity
  8
0
100
AcDbPolyline
 62
7
  6
CONTINUOUS
 90
3
 70
0
 10
16.4186756781
 20
13.2677237788
 10
16.4191718277
 20
13.2692866936
 10
16.421291273
 20
13.2750900418
  0
LWPOLYLINE
  5
287
100
AcDbEntity
  8
0
100
AcDbPolyline
 62
7
  6
CONTINUOUS
 90
3
 70
0
 10
16.2976425164
 20
12.876060324
 10
16.298138666
 20
12.8776232388
 10
16.3002581113
 20
12.883426587
  0
LWPOLYLINE
  5
288
100
AcDbEntity
  8
0
100
AcDbPolyline
 62
7
  6
CONTINUOUS
 90
3
 70
0
 10
16.1766093547
 20
12.4843968692
 10
16.1771055043
 20
12.485959784
 10
16.1792249496
 20
12.4917631321
  0
LWPOLYLINE
  5
289
100
AcDbEntity
  8
0
100
AcDbPolyline
 62
7
  6
CONTINUOUS
 90
3
 70
0
 10
16.055576193
 20
12.0927334144
 10
16.0560723426
 20
12.0942963292
 10
16.0581917879
 20
12.1000996773
  0
LWPOLYLINE
  5
28A
100
AcDbEntity
  8
0
100
AcDbPolyline
 62
7
  6
CONTINUOUS
 90
3
 70
0
 10
15.9345430313
 20
11.7010699595
 10
15.9350391809
 20
11.7026328743
 10
15.9371586262
 20
11.7084362225
  0
LWPOLYLINE
  5
28B
100
AcDbEntity
  8
0
100
AcDbPolyline
 62
7
  6
CONTINUOUS
 90
3
 70
0
 10
15.8135098696
 20
11.3094065047
 10
15.8140060192
 20
11.3109694195
 10
15.8161254645
 20
11.3167727677
  0
LWPOLYLINE
  5
28C
100
AcDbEntity
  8
0
100
AcDbPolyline
 62
7
  6
CONTINUOUS
 90
3
 70
0
 10
15.6924767079
 20
10.9177430499
 10
15.6929728575
 20
10.9193059647
 10
15.6950923028
 20
10.9251093129
  0
LINE
  5
28D
100
AcDbEntity
  8
0
100
AcDbLine
 62
7
  6
CONTINUOUS
 10
16.5813765214
 20
13.6372790731
 11
16.582191599
 21
13.6397107842
  0
LINE
  5
28E
100
AcDbEntity
  8
0
100
AcDbLine
 62
7
  6
CONTINUOUS
 10
16.3002581113
 20
12.883426587
 11
16.3019110933
 21
12.8869610088
  0
LINE
  5
28F
100
AcDbEntity
  8
0
100
AcDbLine
 62
7
  6
CONTINUOUS
 10
16.1792249496
 20
12.4917631321
 11
16.1808779316
 21
12.495297554
  0
LINE
  5
290
100
AcDbEntity
  8
0
100
AcDbLine
 62
7
  6
CONTINUOUS
 10
16.1808779316
 20
12.495297554
 11
16.1814049428
 21
12.4961991863
  0
LINE
  5
291
100
AcDbEntity
  8
0
100
AcDbLine
 62
7
  6
CONTINUOUS
 10
16.2592020432
 20
12.6112780758
 11
16.2526454699
 21
12.6863113289
  0
LWPOLYLINE
  5
292
100
AcDbEntity
  8
0
100
AcDbPolyline
 62
7
  6
CONTINUOUS
 90
7
 70
0
 10
16.252643066
 20
12.6863337288
 10
16.252332011
 20
12.6911463286
 10
16.2523261431
 20
12.7047008305
 10
16.253497719
 20
12.7203987881
 10
16.2557887541
 20
12.7362044047
 10
16.2588287347
 20
12.750040617
 10
16.2603499121
 20
12.7553838436
  0
LINE
  5
293
100
AcDbEntity
  8
0
100
AcDbLine
 62
7
  6
CONTINUOUS
 10
16.2594020644
 20
12.6073548172
 11
16.2591975922
 21
12.6113274973
  0
LINE
  5
294
100
AcDbEntity
  8
0
100
AcDbLine
 62
7
  6
CONTINUOUS
 10
16.2589701071
 20
12.5983515241
 11
16.2594020644
 21
12.6073548172
  0
LINE
  5
295
100
AcDbEntity
  8
0
100
AcDbLine
 62
7
  6
CONTINUOUS
 10
16.1363944701
 20
12.1975940197
 11
16.1379369454
 21
12.2066880693
  0
LINE
  5
296
100
AcDbEntity
  8
0
100
AcDbLine
 62
7
  6
CONTINUOUS
 10
16.2574276318
 20
12.5892574745
 11
16.2589701071
 21
12.5983515241
  0
LINE
  5
297
100
AcDbEntity
  8
0
100
AcDbLine
 62
7
  6
CONTINUOUS
 10
16.3784607935
 20
12.9809209293
 11
16.3800032688
 21
12.990014979
  0
LINE
  5
298
100
AcDbEntity
  8
0
100
AcDbLine
 62
7
  6
CONTINUOUS
 10
16.0142814383
 20
11.8019526824
 11
16.0153613084
 21
11.8059305649
  0
LINE
  5
299
100
AcDbEntity
  8
0
100
AcDbLine
 62
7
  6
CONTINUOUS
 10
16.1353146
 20
12.1936161373
 11
16.1363944701
 21
12.1975940197
  0
LINE
  5
29A
100
AcDbEntity
  8
0
100
AcDbLine
 62
7
  6
CONTINUOUS
 10
16.2563477617
 20
12.5852795921
 11
16.2574276318
 21
12.5892574745
  0
LINE
  5
29B
100
AcDbEntity
  8
0
100
AcDbLine
 62
7
  6
CONTINUOUS
 10
16.3773809235
 20
12.9769430469
 11
16.3784607935
 21
12.9809209293
  0
LINE
  5
29C
100
AcDbEntity
  8
0
100
AcDbLine
 62
7
  6
CONTINUOUS
 10
16.4984140852
 20
13.3686065017
 11
16.4994939552
 21
13.3725843841
  0
LINE
  5
29D
100
AcDbEntity
  8
0
100
AcDbLine
 62
7
  6
CONTINUOUS
 10
16.6194472469
 20
13.7602699565
 11
16.6205271169
 21
13.764247839
  0
LINE
  5
29E
100
AcDbEntity
  8
0
100
AcDbLine
 62
7
  6
CONTINUOUS
 10
15.7349432748
 20
10.89801351
 11
15.7722301661
 21
11.0186739344
  0
LINE
  5
29F
100
AcDbEntity
  8
0
100
AcDbLine
 62
7
  6
CONTINUOUS
 10
15.8559764365
 20
11.2896769648
 11
15.8932633278
 21
11.4103373893
  0
LINE
  5
2A0
100
AcDbEntity
  8
0
100
AcDbLine
 62
7
  6
CONTINUOUS
 10
15.9770095982
 20
11.6813404196
 11
16.0142964895
 21
11.8020008441
  0
LINE
  5
2A1
100
AcDbEntity
  8
0
100
AcDbLine
 62
7
  6
CONTINUOUS
 10
16.0980427599
 20
12.0730038744
 11
16.1353296512
 21
12.1936642989
  0
LINE
  5
2A2
100
AcDbEntity
  8
0
100
AcDbLine
 62
7
  6
CONTINUOUS
 10
16.2190759216
 20
12.4646673293
 11
16.2563628129
 21
12.5853277537
  0
LINE
  5
2A3
100
AcDbEntity
  8
0
100
AcDbLine
 62
7
  6
CONTINUOUS
 10
16.3401090833
 20
12.8563307841
 11
16.3773959746
 21
12.9769912085
  0
LINE
  5
2A4
100
AcDbEntity
  8
0
100
AcDbLine
 62
7
  6
CONTINUOUS
 10
16.4611422451
 20
13.2479942389
 11
16.4984291363
 21
13.3686546633
  0
LINE
  5
2A5
100
AcDbEntity
  8
0
100
AcDbLine
 62
7
  6
CONTINUOUS
 10
16.5821754068
 20
13.6396576937
 11
16.619462298
 21
13.7603181181
  0
LINE
  5
2A6
100
AcDbEntity
  8
0
100
AcDbLine
 62
7
  6
CONTINUOUS
 10
16.4603433597
 20
13.2456156183
 11
16.4611584372
 21
13.2480473294
  0
LINE
  5
2A7
100
AcDbEntity
  8
0
100
AcDbLine
 62
7
  6
CONTINUOUS
 10
16.339310198
 20
12.8539521635
 11
16.3401252755
 21
12.8563838746
  0
LINE
  5
2A8
100
AcDbEntity
  8
0
100
AcDbLine
 62
7
  6
CONTINUOUS
 10
16.2182770363
 20
12.4622887087
 11
16.2190921138
 21
12.4647204198
  0
LINE
  5
2A9
100
AcDbEntity
  8
0
100
AcDbLine
 62
7
  6
CONTINUOUS
 10
16.0972438746
 20
12.0706252539
 11
16.0980589521
 21
12.073056965
  0
LINE
  5
2AA
100
AcDbEntity
  8
0
100
AcDbLine
 62
7
  6
CONTINUOUS
 10
15.9762107129
 20
11.6789617991
 11
15.9770257904
 21
11.6813935101
  0
LINE
  5
2AB
100
AcDbEntity
  8
0
100
AcDbLine
 62
7
  6
CONTINUOUS
 10
15.8551775512
 20
11.2872983443
 11
15.8559926287
 21
11.2897300553
  0
LINE
  5
2AC
100
AcDbEntity
  8
0
100
AcDbLine
 62
7
  6
CONTINUOUS
 10
15.7341443895
 20
10.8956348894
 11
15.734959467
 21
10.8980666005
  0
LINE
  5
2AD
100
AcDbEntity
  8
0
100
AcDbLine
 62
7
  6
CONTINUOUS
 10
16.0581917879
 20
12.1000996773
 11
16.0598447699
 21
12.1036340992
  0
LINE
  5
2AE
100
AcDbEntity
  8
0
100
AcDbLine
 62
7
  6
CONTINUOUS
 10
15.9371586262
 20
11.7084362225
 11
15.9388116082
 21
11.7119706444
  0
LINE
  5
2AF
100
AcDbEntity
  8
0
100
AcDbLine
 62
7
  6
CONTINUOUS
 10
15.8161254645
 20
11.3167727677
 11
15.8177784465
 21
11.3203071895
  0
LINE
  5
2B0
100
AcDbEntity
  8
0
100
AcDbLine
 62
7
  6
CONTINUOUS
 10
16.0598447699
 20
12.1036340992
 11
16.0603717811
 21
12.1045357315
  0
LINE
  5
2B1
100
AcDbEntity
  8
0
100
AcDbLine
 62
7
  6
CONTINUOUS
 10
15.9388116082
 20
11.7119706444
 11
15.9393386194
 21
11.7128722767
  0
LINE
  5
2B2
100
AcDbEntity
  8
0
100
AcDbLine
 62
7
  6
CONTINUOUS
 10
16.405595099
 20
13.2253932878
 11
16.4341326323
 21
13.2253932878
  0
LINE
  5
2B3
100
AcDbEntity
  8
0
100
AcDbLine
 62
7
  6
CONTINUOUS
 10
16.3802352049
 20
13.0029415306
 11
16.3736786316
 21
13.0779747837
  0
LWPOLYLINE
  5
2B4
100
AcDbEntity
  8
0
100
AcDbPolyline
 62
7
  6
CONTINUOUS
 90
7
 70
0
 10
16.3736762277
 20
13.0779971836
 10
16.3733651727
 20
13.0828097834
 10
16.3733593048
 20
13.0963642853
 10
16.3745308807
 20
13.1120622429
 10
16.3768219158
 20
13.1278678596
 10
16.3798618964
 20
13.1417040718
 10
16.3813830738
 20
13.1470472985
  0
LINE
  5
2B5
100
AcDbEntity
  8
0
100
AcDbLine
 62
7
  6
CONTINUOUS
 10
16.3804352261
 20
12.999018272
 11
16.3802307539
 21
13.0029909521
  0
LINE
  5
2B6
100
AcDbEntity
  8
0
100
AcDbLine
 62
7
  6
CONTINUOUS
 10
16.3800032688
 20
12.990014979
 11
16.3804352261
 21
12.999018272
  0
LINE
  5
2B7
100
AcDbEntity
  8
0
100
AcDbLine
 62
7
  6
CONTINUOUS
 10
16.4994939552
 20
13.3725843841
 11
16.5010364305
 21
13.3816784338
  0
LINE
  5
2B8
100
AcDbEntity
  8
0
100
AcDbLine
 62
7
  6
CONTINUOUS
 10
16.6205271169
 20
13.764247839
 11
16.6220695922
 21
13.7733418886
  0
LINE
  5
2B9
100
AcDbEntity
  8
0
100
AcDbLine
 62
7
  6
CONTINUOUS
 10
15.6950923028
 20
10.9251093129
 11
15.6967452848
 21
10.9286437347
  0
LINE
  5
2BA
100
AcDbEntity
  8
0
100
AcDbLine
 62
7
  6
CONTINUOUS
 10
15.8177784465
 20
11.3203071895
 11
15.8183054576
 21
11.3212088219
  0
LWPOLYLINE
  5
2BB
100
AcDbEntity
  8
0
100
AcDbPolyline
 62
7
  6
CONTINUOUS
 90
5
 70
0
 10
16.5551615895
 20
13.6170568399
 10
16.5646243963
 20
13.6188471043
 10
16.5725170074
 20
13.6236787231
 10
16.5781205266
 20
13.6304124016
 10
16.5813765214
 20
13.6372790731
  0
LWPOLYLINE
  5
2BC
100
AcDbEntity
  8
0
100
AcDbPolyline
 62
7
  6
CONTINUOUS
 90
7
 70
0
 10
16.4947093894
 20
13.4696606384
 10
16.4943983344
 20
13.4744732382
 10
16.4943924665
 20
13.4880277401
 10
16.4955640424
 20
13.5037256977
 10
16.4978550775
 20
13.5195313144
 10
16.5008950581
 20
13.5333675266
 10
16.5024162355
 20
13.5387107533
  0
LINE
  5
2BD
100
AcDbEntity
  8
0
100
AcDbLine
 62
7
  6
CONTINUOUS
 10
16.5014683878
 20
13.3906817268
 11
16.5012639156
 21
13.3946544069
  0
LINE
  5
2BE
100
AcDbEntity
  8
0
100
AcDbLine
 62
7
  6
CONTINUOUS
 10
16.5010364305
 20
13.3816784338
 11
16.5014683878
 21
13.3906817268
  0
LINE
  5
2BF
100
AcDbEntity
  8
0
100
AcDbLine
 62
7
  6
CONTINUOUS
 10
16.6220695922
 20
13.7733418886
 11
16.6225015495
 21
13.7823451816
  0
LINE
  5
2C0
100
AcDbEntity
  8
0
100
AcDbLine
 62
7
  6
CONTINUOUS
 10
15.6967452848
 20
10.9286437347
 11
15.6972722959
 21
10.9295453671
  0
LINE
  5
2C1
100
AcDbEntity
  8
0
100
AcDbLine
 62
7
  6
CONTINUOUS
 10
16.5012683666
 20
13.3946049854
 11
16.4947117933
 21
13.4696382386
  0
LWPOLYLINE
  5
2C2
100
AcDbEntity
  8
0
100
AcDbPolyline
 62
7
  6
CONTINUOUS
 90
7
 70
0
 10
16.6157425511
 20
13.8613240932
 10
16.6154314961
 20
13.866136693
 10
16.6154256282
 20
13.8796911949
 10
16.6165972041
 20
13.8953891525
 10
16.6188882392
 20
13.9111947692
 10
16.6219282198
 20
13.9250309814
 10
16.6234493972
 20
13.9303742081
  0
LINE
  5
2C3
100
AcDbEntity
  8
0
100
AcDbLine
 62
7
  6
CONTINUOUS
 10
16.6225015495
 20
13.7823451816
 11
16.6222970773
 21
13.7863178617
  0
LINE
  5
2C4
100
AcDbEntity
  8
0
100
AcDbLine
 62
7
  6
CONTINUOUS
 10
16.642271616
 20
13.9951347202
 11
16.6420980125
 21
13.9907189229
  0
LINE
  5
2C5
100
AcDbEntity
  8
0
100
AcDbLine
 62
7
  6
CONTINUOUS
 10
16.5266282607
 20
13.6170567426
 11
16.555165794
 21
13.6170567426
  0
LINE
  5
2C6
100
AcDbEntity
  8
0
100
AcDbLine
 62
7
  6
CONTINUOUS
 10
16.6223015283
 20
13.7862684402
 11
16.615744955
 21
13.8613016934
  0
LINE
  5
2C7
100
AcDbEntity
  8
0
100
AcDbLine
 62
7
  6
CONTINUOUS
 10
16.642271616
 20
13.9951347202
 11
16.6219655931
 21
14.0953081385
  0
LINE
  5
2C8
100
AcDbEntity
  8
0
100
AcDbLine
 62
7
  6
CONTINUOUS
 10
16.5628207688
 20
14.172357934
 11
15.2848486397
 21
14.172357934
  0
LINE
  5
2C9
100
AcDbEntity
  8
0
100
AcDbLine
 62
7
  6
CONTINUOUS
 10
16.6178373683
 20
14.1071690158
 11
16.5934733403
 21
14.1568176848
  0
ARC
  5
2CA
100
AcDbEntity
  8
0
100
AcDbCircle
 62
7
  6
CONTINUOUS
 10
5.4693199281
 20
5.4687865634
 40
0.025
100
AcDbArc
 50
191.0
 51
270.0
  0
ARC
  5
2CB
100
AcDbEntity
  8
0
100
AcDbCircle
 62
7
  6
CONTINUOUS
 10
5.4989953167
 20
5.3161199242
 40
0.025
100
AcDbArc
 50
191.0000640162
 51
270.0000122145
  0
ARC
  5
2CC
100
AcDbEntity
  8
0
100
AcDbCircle
 62
7
  6
CONTINUOUS
 10
5.5116172762
 20
5.6442488016
 40
0.1
100
AcDbArc
 50
180.0
 51
191.0
  0
ARC
  5
2CD
100
AcDbEntity
  8
0
100
AcDbCircle
 62
7
  6
CONTINUOUS
 10
5.4366172762
 20
5.7241198968
 40
0.025
100
AcDbArc
 50
90.0
 51
180.0
  0
ARC
  5
2CE
100
AcDbEntity
  8
0
100
AcDbCircle
 62
7
  6
CONTINUOUS
 10
6.7617392303
 20
5.3161198968
 40
0.025
100
AcDbArc
 50
270.0
 51
349.0
  0
ARC
  5
2CF
100
AcDbEntity
  8
0
100
AcDbCircle
 62
7
  6
CONTINUOUS
 10
6.7914146242
 20
5.4687865634
 40
0.025
100
AcDbArc
 50
270.0
 51
349.0
  0
ARC
  5
2D0
100
AcDbEntity
  8
0
100
AcDbCircle
 62
7
  6
CONTINUOUS
 10
6.7491172762
 20
5.6442488016
 40
0.1
100
AcDbArc
 50
349.0
 51
360.0
  0
ARC
  5
2D1
100
AcDbEntity
  8
0
100
AcDbCircle
 62
7
  6
CONTINUOUS
 10
6.8241172762
 20
5.7241198968
 40
0.025
100
AcDbArc
 50
0.0
 51
90.0
  0
ARC
  5
2D2
100
AcDbEntity
  8
0
100
AcDbCircle
 62
7
  6
CONTINUOUS
 10
13.733337333
 20
5.2697913711
 40
0.0381666667
100
AcDbArc
 50
193.0
 51
270.0
  0
ARC
  5
2D3
100
AcDbEntity
  8
0
100
AcDbCircle
 62
7
  6
CONTINUOUS
 10
13.8873731809
 20
5.2697913711
 40
0.0381666667
100
AcDbArc
 50
270.0
 51
347.0
  0
ARC
  5
2D4
100
AcDbEntity
  8
0
100
AcDbCircle
 62
7
  6
CONTINUOUS
 10
14.233337333
 20
5.2697913711
 40
0.0381666667
100
AcDbArc
 50
193.0
 51
270.0
  0
ARC
  5
2D5
100
AcDbEntity
  8
0
100
AcDbCircle
 62
7
  6
CONTINUOUS
 10
14.3873731809
 20
5.2697913711
 40
0.0381666667
100
AcDbArc
 50
270.0
 51
347.0
  0
ARC
  5
2D6
100
AcDbEntity
  8
0
100
AcDbCircle
 62
7
  6
CONTINUOUS
 10
14.733337333
 20
5.2697913711
 40
0.0381666667
100
AcDbArc
 50
193.0
 51
270.0
  0
ARC
  5
2D7
100
AcDbEntity
  8
0
100
AcDbCircle
 62
7
  6
CONTINUOUS
 10
14.8873731809
 20
5.2697913711
 40
0.0381666667
100
AcDbArc
 50
270.0
 51
347.0
  0
ARC
  5
2D8
100
AcDbEntity
  8
0
100
AcDbCircle
 62
7
  6
CONTINUOUS
 10
15.233337333
 20
5.2697913711
 40
0.0381666667
100
AcDbArc
 50
193.0
 51
270.0
  0
ARC
  5
2D9
100
AcDbEntity
  8
0
100
AcDbCircle
 62
7
  6
CONTINUOUS
 10
15.3873731809
 20
5.2697913711
 40
0.0381666667
100
AcDbArc
 50
270.0
 51
347.0
  0
ARC
  5
2DA
100
AcDbEntity
  8
0
100
AcDbCircle
 62
7
  6
CONTINUOUS
 10
13.6373731809
 20
5.3461247044
 40
0.0381666667
100
AcDbArc
 50
13.0
 51
90.0
  0
ARC
  5
2DB
100
AcDbEntity
  8
0
100
AcDbCircle
 62
7
  6
CONTINUOUS
 10
13.983337333
 20
5.3461247044
 40
0.0381666667
100
AcDbArc
 50
90.0
 51
167.0
  0
ARC
  5
2DC
100
AcDbEntity
  8
0
100
AcDbCircle
 62
7
  6
CONTINUOUS
 10
14.1373731809
 20
5.3461247044
 40
0.0381666667
100
AcDbArc
 50
13.0
 51
90.0
  0
ARC
  5
2DD
100
AcDbEntity
  8
0
100
AcDbCircle
 62
7
  6
CONTINUOUS
 10
14.483337333
 20
5.3461247044
 40
0.0381666667
100
AcDbArc
 50
90.0
 51
167.0
  0
ARC
  5
2DE
100
AcDbEntity
  8
0
100
AcDbCircle
 62
7
  6
CONTINUOUS
 10
14.6373731809
 20
5.3461247044
 40
0.0381666667
100
AcDbArc
 50
13.0
 51
90.0
  0
ARC
  5
2DF
100
AcDbEntity
  8
0
100
AcDbCircle
 62
7
  6
CONTINUOUS
 10
14.983337333
 20
5.3461247044
 40
0.0381666667
100
AcDbArc
 50
90.0
 51
167.0
  0
ARC
  5
2E0
100
AcDbEntity
  8
0
100
AcDbCircle
 62
7
  6
CONTINUOUS
 10
15.1373731809
 20
5.3461247044
 40
0.0381666667
100
AcDbArc
 50
13.0
 51
90.0
  0
ARC
  5
2E1
100
AcDbEntity
  8
0
100
AcDbCircle
 62
7
  6
CONTINUOUS
 10
15.483337333
 20
5.3461247044
 40
0.0381666667
100
AcDbArc
 50
90.0
 51
167.0
  0
ARC
  5
2E2
100
AcDbEntity
  8
0
100
AcDbCircle
 62
7
  6
CONTINUOUS
 10
17.3873731809
 20
5.2697913711
 40
0.0381666667
100
AcDbArc
 50
270.0
 51
347.0
  0
ARC
  5
2E3
100
AcDbEntity
  8
0
100
AcDbCircle
 62
7
  6
CONTINUOUS
 10
17.233337333
 20
5.2697913711
 40
0.0381666667
100
AcDbArc
 50
193.0
 51
270.0
  0
ARC
  5
2E4
100
AcDbEntity
  8
0
100
AcDbCircle
 62
7
  6
CONTINUOUS
 10
16.8873731809
 20
5.2697913711
 40
0.0381666667
100
AcDbArc
 50
270.0
 51
347.0
  0
ARC
  5
2E5
100
AcDbEntity
  8
0
100
AcDbCircle
 62
7
  6
CONTINUOUS
 10
16.733337333
 20
5.2697913711
 40
0.0381666667
100
AcDbArc
 50
193.0
 51
270.0
  0
ARC
  5
2E6
100
AcDbEntity
  8
0
100
AcDbCircle
 62
7
  6
CONTINUOUS
 10
16.3873731809
 20
5.2697913711
 40
0.0381666667
100
AcDbArc
 50
270.0
 51
347.0
  0
ARC
  5
2E7
100
AcDbEntity
  8
0
100
AcDbCircle
 62
7
  6
CONTINUOUS
 10
16.233337333
 20
5.2697913711
 40
0.0381666667
100
AcDbArc
 50
193.0
 51
270.0
  0
ARC
  5
2E8
100
AcDbEntity
  8
0
100
AcDbCircle
 62
7
  6
CONTINUOUS
 10
15.8873731809
 20
5.2697913711
 40
0.0381666667
100
AcDbArc
 50
270.0
 51
347.0
  0
ARC
  5
2E9
100
AcDbEntity
  8
0
100
AcDbCircle
 62
7
  6
CONTINUOUS
 10
15.733337333
 20
5.2697913711
 40
0.0381666667
100
AcDbArc
 50
193.0
 51
270.0
  0
ARC
  5
2EA
100
AcDbEntity
  8
0
100
AcDbCircle
 62
7
  6
CONTINUOUS
 10
17.483337333
 20
5.3461247044
 40
0.0381666667
100
AcDbArc
 50
90.0
 51
167.0
  0
ARC
  5
2EB
100
AcDbEntity
  8
0
100
AcDbCircle
 62
7
  6
CONTINUOUS
 10
17.1373731809
 20
5.3461247044
 40
0.0381666667
100
AcDbArc
 50
13.0
 51
90.0
  0
ARC
  5
2EC
100
AcDbEntity
  8
0
100
AcDbCircle
 62
7
  6
CONTINUOUS
 10
16.983337333
 20
5.3461247044
 40
0.0381666667
100
AcDbArc
 50
90.0
 51
167.0
  0
ARC
  5
2ED
100
AcDbEntity
  8
0
100
AcDbCircle
 62
7
  6
CONTINUOUS
 10
16.6373731809
 20
5.3461247044
 40
0.0381666667
100
AcDbArc
 50
13.0
 51
90.0
  0
ARC
  5
2EE
100
AcDbEntity
  8
0
100
AcDbCircle
 62
7
  6
CONTINUOUS
 10
16.483337333
 20
5.3461247044
 40
0.0381666667
100
AcDbArc
 50
90.0
 51
167.0
  0
ARC
  5
2EF
100
AcDbEntity
  8
0
100
AcDbCircle
 62
7
  6
CONTINUOUS
 10
16.1373731809
 20
5.3461247044
 40
0.0381666667
100
AcDbArc
 50
13.0
 51
90.0
  0
ARC
  5
2F0
100
AcDbEntity
  8
0
100
AcDbCircle
 62
7
  6
CONTINUOUS
 10
15.983337333
 20
5.3461247044
 40
0.0381666667
100
AcDbArc
 50
90.0
 51
167.0
  0
ARC
  5
2F1
100
AcDbEntity
  8
0
100
AcDbCircle
 62
7
  6
CONTINUOUS
 10
15.6373731809
 20
5.3461247044
 40
0.0381666667
100
AcDbArc
 50
13.0
 51
90.0
  0
SPLINE
  5
2F2
100
AcDbEntity
  8
0
100
AcDbSpline
 62
7
  6
CONTINUOUS
 70
0
 71
3
 72
15
 73
11
 74
0
 42
0.0000001
 43
0.0000001
 44
0.0000000001
 40
0.0
 40
0.0
 40
0.0
 40
0.0
 40
0.1295685052
 40
0.2645756457
 40
0.4012660052
 40
0.5362716999
 40
0.6662157449
 40
0.7881011077
 40
0.8998143741
 40
1.0
 40
1.0
 40
1.0
 40
1.0
 10
16.5628207688
 20
14.172357934
 30
0.0
 10
16.5643690272
 20
14.172357934
 30
0.0
 10
16.5675329787
 20
14.1721427056
 30
0.0
 10
16.5722554943
 20
14.1712588145
 30
0.0
 10
16.5769118019
 20
14.1698313621
 30
0.0
 10
16.5813236693
 20
14.1679160426
 30
0.0
 10
16.5853298584
 20
14.1655873576
 30
0.0
 10
16.5887819411
 20
14.1629260245
 30
0.0
 10
16.5915477931
 20
14.1600299782
 30
0.0
 10
16.5929459436
 20
14.1578924063
 30
0.0
 10
16.5934733403
 20
14.1568176848
 30
0.0
  0
SPLINE
  5
2F3
100
AcDbEntity
  8
0
100
AcDbSpline
 62
7
  6
CONTINUOUS
 70
0
 71
3
 72
15
 73
11
 74
0
 42
0.0000001
 43
0.0000001
 44
0.0000000001
 40
0.0
 40
0.0
 40
0.0
 40
0.0
 40
0.099646066
 40
0.2028720319
 40
0.3125943333
 40
0.4308572881
 40
0.5588154191
 40
0.6968314451
 40
0.8443984352
 40
1.0
 40
1.0
 40
1.0
 40
1.0
 10
15.2685891496
 20
14.1641988774
 30
0.0
 10
15.2687792648
 20
14.1648141187
 30
0.0
 10
15.2693179042
 20
14.1660250619
 30
0.0
 10
15.2705488931
 20
14.167646007
 30
0.0
 10
15.272172281
 20
14.1690611739
 30
0.0
 10
15.2741564464
 20
14.1702452327
 30
0.0
 10
15.2764639891
 20
14.1711838638
 30
0.0
 10
15.2790556032
 20
14.1718625896
 30
0.0
 10
15.2818824785
 20
14.1722702512
 30
0.0
 10
15.2838430916
 20
14.172357934
 30
0.0
 10
15.2848486397
 20
14.172357934
 30
0.0
  0
SPLINE
  5
2F4
100
AcDbEntity
  8
0
100
AcDbSpline
 62
7
  6
CONTINUOUS
 70
0
 71
3
 72
11
 73
7
 74
0
 42
0.0000001
 43
0.0000001
 44
0.0000000001
 40
0.0
 40
0.0
 40
0.0
 40
0.0
 40
0.2336945376
 40
0.4747280672
 40
0.7289544314
 40
1.0
 40
1.0
 40
1.0
 40
1.0
 10
14.300323856
 20
11.0308912389
 30
0.0
 10
14.3001490013
 20
11.0303253828
 30
0.0
 10
14.2999186897
 20
11.0291332352
 30
0.0
 10
14.2999609805
 20
11.0272739569
 30
0.0
 10
14.3003787881
 20
11.0253667819
 30
0.0
 10
14.3008802523
 20
11.024126712
 30
0.0
 10
14.3011828678
 20
11.0235100463
 30
0.0
  0
SPLINE
  5
2F5
100
AcDbEntity
  8
0
100
AcDbSpline
 62
7
  6
CONTINUOUS
 70
0
 71
3
 72
9
 73
5
 74
0
 42
0.0000001
 43
0.0000001
 44
0.0000000001
 40
0.0
 40
0.0
 40
0.0
 40
0.0
 40
0.5134075856
 40
1.0
 40
1.0
 40
1.0
 40
1.0
 10
16.6178373683
 20
14.1071690158
 30
0.0
 10
16.61878615
 20
14.105235602
 30
0.0
 10
16.6204267401
 20
14.1013628075
 30
0.0
 10
16.6215600757
 20
14.0973086315
 30
0.0
 10
16.6219655931
 20
14.0953081385
 30
0.0
  0
SPLINE
  5
2F6
100
AcDbEntity
  8
0
100
AcDbSpline
 62
7
  6
CONTINUOUS
 70
0
 71
3
 72
14
 73
10
 74
0
 42
0.0000001
 43
0.0000001
 44
0.0000000001
 40
0.0
 40
0.0
 40
0.0
 40
0.0
 40
0.1555869115
 40
0.3032339866
 40
0.568865126
 40
0.6871855279
 40
0.7969113294
 40
0.9001855295
 40
1.0
 40
1.0
 40
1.0
 40
1.0
 10
15.657573788
 20
10.8492520518
 30
0.0
 10
15.6585786613
 20
10.8492520518
 30
0.0
 10
15.660539439
 20
10.8493400303
 30
0.0
 10
15.6641775132
 20
10.8498648066
 30
0.0
 10
15.6674988076
 20
10.8509088692
 30
0.0
 10
15.6702493694
 20
10.8525478261
 30
0.0
 10
15.6718731367
 20
10.8539622225
 30
0.0
 10
15.6731034814
 20
10.8555837948
 30
0.0
 10
15.6736431057
 20
10.8567951388
 30
0.0
 10
15.6738327066
 20
10.8574112881
 30
0.0
  0
SPLINE
  5
2F7
100
AcDbEntity
  8
0
100
AcDbSpline
 62
7
  6
CONTINUOUS
 70
0
 71
3
 72
15
 73
11
 74
0
 42
0.0000001
 43
0.0000001
 44
0.0000000001
 40
0.0
 40
0.0
 40
0.0
 40
0.0
 40
0.1075856637
 40
0.224458401
 40
0.3487083306
 40
0.4782296553
 40
0.6107075069
 40
0.7436377451
 40
0.8743953811
 40
1.0
 40
1.0
 40
1.0
 40
1.0
 10
14.411069542
 20
10.8618270817
 30
0.0
 10
14.411782203
 20
10.8609119458
 30
0.0
 10
14.4134353957
 20
10.8591298696
 30
0.0
 10
14.4163464517
 20
10.8567366403
 30
0.0
 10
14.419721941
 20
10.8545816854
 30
0.0
 10
14.4234564332
 20
10.8527229884
 30
0.0
 10
14.4274461394
 20
10.8512164352
 30
0.0
 10
14.4315764316
 20
10.8501012725
 30
0.0
 10
14.4357242446
 20
10.8494179125
 30
0.0
 10
14.4384897719
 20
10.8492520518
 30
0.0
 10
14.4398439331
 20
10.8492520518
 30
0.0
  0
SPLINE
  5
2F8
100
AcDbEntity
  8
0
100
AcDbSpline
 62
7
  6
CONTINUOUS
 70
0
 71
3
 72
9
 73
5
 74
0
 42
0.0000001
 43
0.0000001
 44
0.0000000001
 40
0.0
 40
0.0
 40
0.0
 40
0.0
 40
0.2397652029
 40
1.0
 40
1.0
 40
1.0
 40
1.0
 10
14.3255468958
 20
10.9738613773
 30
0.0
 10
14.3260417299
 20
10.9728530114
 30
0.0
 10
14.3282277254
 20
10.9687076128
 30
0.0
 10
14.3308713671
 20
10.9648104568
 30
0.0
 10
14.3330596175
 20
10.9620005
 30
0.0
  0
SPLINE
  5
2F9
100
AcDbEntity
  8
0
100
AcDbSpline
 62
7
  6
CONTINUOUS
 70
0
 71
3
 72
9
 73
5
 74
0
 42
0.0000001
 43
0.0000001
 44
0.0000000001
 40
0.0
 40
0.0
 40
0.0
 40
0.0
 40
0.4865924144
 40
1.0
 40
1.0
 40
1.0
 40
1.0
 10
15.6537002994
 20
10.9620005
 30
0.0
 10
15.6532947821
 20
10.964000993
 30
0.0
 10
15.6521614465
 20
10.968055169
 30
0.0
 10
15.6505208564
 20
10.9719279635
 30
0.0
 10
15.6495720747
 20
10.9738613773
 30
0.0
  0
SPLINE
  5
2FA
100
AcDbEntity
  8
0
100
AcDbSpline
 62
7
  6
CONTINUOUS
 70
0
 71
3
 72
15
 73
11
 74
0
 42
0.0000001
 43
0.0000001
 44
0.0000000001
 40
0.0
 40
0.0
 40
0.0
 40
0.0
 40
0.1001856259
 40
0.2118988923
 40
0.3337842551
 40
0.4637283001
 40
0.5987339948
 40
0.7354243543
 40
0.8704314948
 40
1.0
 40
1.0
 40
1.0
 40
1.0
 10
15.6252080467
 20
11.0235100463
 30
0.0
 10
15.62468065
 20
11.0245847678
 30
0.0
 10
15.6232824995
 20
11.0267223397
 30
0.0
 10
15.6205166475
 20
11.029618386
 30
0.0
 10
15.6170645648
 20
11.032279719
 30
0.0
 10
15.6130583757
 20
11.0346084041
 30
0.0
 10
15.6086465083
 20
11.0365237236
 30
0.0
 10
15.6039902006
 20
11.037951176
 30
0.0
 10
15.599267685
 20
11.0388350671
 30
0.0
 10
15.5961037336
 20
11.0390502955
 30
0.0
 10
15.5945554752
 20
11.0390502955
 30
0.0
  0
SPLINE
  5
2FB
100
AcDbEntity
  8
0
100
AcDbSpline
 62
7
  6
CONTINUOUS
 70
0
 71
3
 72
15
 73
11
 74
0
 42
0.0000001
 43
0.0000001
 44
0.0000000001
 40
0.0
 40
0.0
 40
0.0
 40
0.0
 40
0.1556015648
 40
0.3031685549
 40
0.4411845809
 40
0.5691427119
 40
0.6874056667
 40
0.7971279681
 40
0.900353934
 40
1.0
 40
1.0
 40
1.0
 40
1.0
 10
14.316583346
 20
11.0390502955
 30
0.0
 10
14.315577798
 20
11.0390502955
 30
0.0
 10
14.3136171849
 20
11.0389626127
 30
0.0
 10
14.3107903096
 20
11.0385549511
 30
0.0
 10
14.3081986955
 20
11.0378762253
 30
0.0
 10
14.3058911528
 20
11.0369375942
 30
0.0
 10
14.3039069874
 20
11.0357535354
 30
0.0
 10
14.3022835995
 20
11.0343383684
 30
0.0
 10
14.3010526106
 20
11.0327174234
 30
0.0
 10
14.3005139712
 20
11.0315064802
 30
0.0
 10
14.300323856
 20
11.0308912389
 30
0.0
  0
ENDSEC
  0
SECTION
  2
OBJECTS
  0
DICTIONARY
  5
C
100
AcDbDictionary
280
0
281
1
  3
ACAD_GROUP
350
D
  3
ACAD_MLINESTYLE
350
17
  3
ACAD_LAYOUT
350
1A
  3
ACAD_PLOTSETTINGS
350
19
  3
ACAD_PLOTSTYLENAME
350
E
  0
DICTIONARY
  5
D
102
{ACAD_REACTORS
330
C
102
}
100
AcDbDictionary
280
0
281
1
  0
ACDBDICTIONARYWDFLT
  5
E
102
{ACAD_REACTORS
330
C
102
}
100
AcDbDictionary
281
1
  3
Normal
350
F
100
AcDbDictionaryWithDefault
340
F
  0
DICTIONARY
  5
17
102
{ACAD_REACTORS
330
C
102
}
100
AcDbDictionary
280
0
281
1
  3
Standard
350
18
  0
DICTIONARY
  5
19
102
{ACAD_REACTORS
330
C
102
}
100
AcDbDictionary
281
1
  0
DICTIONARY
  5
1A
102
{ACAD_REACTORS
330
C
102
}
100
AcDbDictionary
281
1
  3
Model
350
2FC
  3
Layout1
350
2FD
  0
ACDBPLACEHOLDER
  5
F
102
{ACAD_REACTORS
330
E
102
}
  0
MLINESTYLE
  5
18
102
{ACAD_REACTORS
330
17
102
}
100
AcDbMlineStyle
  2
STANDARD
 70
0
  3

 62
256
 51
90.0
 52
90.0
 71
2
 49
0.5
 62
256
  6
BYLAYER
 49
-0.5
 62
256
  6
BYLAYER
  0
LAYOUT
  5
2FC
102
{ACAD_REACTORS
330
1A
102
}
100
AcDbPlotSettings
  1

  2
none_device
  4
ANSI_C_(22.00_x_17.00_Inches)
  6

 40
0.0
 41
0.0
 42
0.0
 43
0.0
 44
558.8
 45
431.8
 46
0.0
 47
0.0
 48
0.0
 49
0.0
140
0.0
141
0.0
142
1.0
143
1.0
 70
1024
 72
0
 73
0
 74
0
  7

 75
0
147
1.0
148
0.0
149
0.0
100
AcDbLayout
  1
Model
 70
0
 71
0
 10
0.0
 20
0.0
 11
22.0
 21
17.0
 12
0.0
 22
0.0
 32
0.0
 14
0.0
 24
0.0
 34
0.0
 15
0.0
 25
0.0
 35
0.0
146
0.0
 13
0.0
 23
0.0
 33
0.0
 16
1.0
 26
0.0
 36
0.0
 17
0.0
 27
1.0
 37
0.0
 76
0
330
216
345
0
346
0
  0
LAYOUT
  5
2FD
102
{ACAD_REACTORS
330
1A
102
}
100
AcDbPlotSettings
  1

  2
none_device
  4
ANSI_C_(22.00_x_17.00_Inches)
  6

 40
0.0
 41
0.0
 42
0.0
 43
0.0
 44
558.8
 45
431.8
 46
0.0
 47
0.0
 48
0.0
 49
0.0
140
0.0
141
0.0
142
1.0
143
1.0
 70
0
 72
0
 73
0
 74
0
  7

 75
0
147
1.0
148
0.0
149
0.0
100
AcDbLayout
  1
Layout1
 70
0
 71
1
 10
0.0
 20
0.0
 11
22.0
 21
17.0
 12
0.0
 22
0.0
 32
0.0
 14
0.0
 24
0.0
 34
0.0
 15
0.0
 25
0.0
 35
0.0
146
0.0
 13
0.0
 23
0.0
 33
0.0
 16
1.0
 26
0.0
 36
0.0
 17
0.0
 27
1.0
 37
0.0
 76
0
330
217
345
0
346
0
  0
ENDSEC
  0
EOF