999
DXF file: _cgs_temp_output.dxf
999
Pro/ENGINEER 2016360 by Parametric Technology Corporation
  0
SECTION
  2
HEADER
  9
$ACADVER
  1
AC1021
  9
$DWGCODEPAGE
  3
ANSI_1252
  9
$EXTMAX
 10
22.0
 20
17.0
 30
0.0
  9
$EXTMIN
 10
0.0
 20
0.0
 30
0.0
  9
$LIMMIN
 10
0.0
 20
0.0
  9
$LIMMAX
 10
22.0
 20
17.0
  9
$VIEWCTR
 10
11.0
 20
8.5
  9
$VIEWSIZE
 40
17.0
  9
$CLAYER
  8
0
  9
$LTSCALE
 40
1.21
  9
$CELTYPE
  6
BYLAYER
  9
$DIMSCALE
 40
1.0
  9
$DIMASZ
 40
0.1875
  9
$DIMEXO
 40
0.0625
  9
$DIMDLI
 40
0.836
  9
$DIMEXE
 40
0.125
  9
$DIMCEN
 40
0.198
  9
$DIMLFAC
 40
1.0
  9
$DIMBLK
  1
_CLOSED
  9
$DIMALT
 70
0
  9
$DIMALTF
 40
25.4
  9
$DIMTXT
 40
0.15625
  9
$DIMTOL
 70
0
  9
$DIMLIM
 70
0
  9
$DIMTFAC
 40
1.0
  9
$DIMGAP
 40
0.09
  9
$DIMDSEP
 70
46
  9
$AUNITS
 70
0
  9
$PDMODE
 70
3
  9
$PDSIZE
 40
0.3125
  9
$HANDSEED
  5
2FE
  9
$TILEMODE
 70
1
  9
$MEASUREMENT
 70
0
  9
$INSUNITS
 70
1
  0
ENDSEC
  0
SECTION
  2
CLASSES
  0
CLASS
  1
ACDBDICTIONARYWDFLT
  2
AcDbDictionaryWithDefault
  3
AutoCAD 2000
 90
0
 91
1
280
0
281
0
  0
CLASS
  1
ACDBPLACEHOLDER
  2
AcDbPlaceHolder
  3
AutoCAD 2000
 90
0
 91
1
280
0
281
0
  0
CLASS
  1
LAYOUT
  2
AcDbLayout
  3
AutoCAD 2000
 90
0
 91
0
280
0
281
0
  0
ENDSEC
  0
SECTION
  2
TABLES
  0
TABLE
  2
VPORT
  5
8
100
AcDbSymbolTable
 70
2
  0
VPORT
  5
1F4
100
AcDbSymbolTableRecord
100
AcDbViewportTableRecord
  2
*ACTIVE
 70
0
 10
0.0
 20
0.0
 11
1.0
 21
1.0
 12
11.0
 22
8.5
 13
0.0
 23
0.0
 14
1.0
 24
1.0
 15
0.0
 25
0.0
 16
0.0
 26
0.0
 36
1.0
 17
0.0
 27
0.0
 37
0.0
 40
17.0
 41
1.2941176471
 42
50.0
 43
0.0
 44
0.0
 50
0.0
 51
0.0
 71
0
 72
100
 73
1
 74
1
 75
0
 76
0
 77
0
 78
0
  0
ENDTAB
  0
TABLE
  2
LTYPE
  5
5
100
AcDbSymbolTable
 70
6
  0
LTYPE
  5
14
100
AcDbSymbolTableRecord
100
AcDbLinetypeTableRecord
  2
BYBLOCK
 70
0
  3

 72
65
 73
0
 40
0.0
  0
LTYPE
  5
15
100
AcDbSymbolTableRecord
100
AcDbLinetypeTableRecord
  2
BYLAYER
 70
0
  3

 72
65
 73
0
 40
0.0
  0
LTYPE
  5
16
100
AcDbSymbolTableRecord
100
AcDbLinetypeTableRecord
  2
CONTINUOUS
 70
64
  3
Solid line
 72
65
 73
0
 40
0.0
  0
LTYPE
  5
1F5
100
AcDbSymbolTableRecord
100
AcDbLinetypeTableRecord
  2
CENTER
 70
64
  3
____ _ ____ _ ____ _ ____ _ ____ _ ____ _ ____
 72
65
 73
4
 40
0.6
 49
0.375
 74
0
 49
-0.075
 74
0
 49
0.075
 74
0
 49
-0.075
 74
0
  0
LTYPE
  5
1F6
100
AcDbSymbolTableRecord
100
AcDbLinetypeTableRecord
  2
HIDDEN
 70
64
  3
- - - - - - - - - - - - - - - - - - - -
 72
65
 73
2
 40
0.2
 49
0.1
 74
0
 49
-0.1
 74
0
  0
LTYPE
  5
1F7
100
AcDbSymbolTableRecord
100
AcDbLinetypeTableRecord
  2
PHANTOM
 70
64
  3
_____ _ _ _____ _ _ _____ _ _ _____
 72
65
 73
6
 40
0.8
 49
0.45
 74
0
 49
-0.05
 74
0
 49
0.1
 74
0
 49
-0.05
 74
0
 49
0.1
 74
0
 49
-0.05
 74
0
  0
LTYPE
  5
1F8
100
AcDbSymbolTableRecord
100
AcDbLinetypeTableRecord
  2
DOT
 70
64
  3
. . . . . . . . . . . . . . . . . . . .
 72
65
 73
2
 40
0.2
 49
0.1
 74
0
 49
-0.1
 74
0
  0
LTYPE
  5
1F9
100
AcDbSymbolTableRecord
100
AcDbLinetypeTableRecord
  2
DASHED
 70
64
  3
- - - - - - - - - - - - - - - - - - - -
 72
65
 73
2
 40
0.2
 49
0.1
 74
0
 49
-0.1
 74
0
  0
ENDTAB
  0
TABLE
  2
LAYER
  5
2
100
AcDbSymbolTable
 70
36
  0
LAYER
  5
10
100
AcDbSymbolTableRecord
100
AcDbLayerTableRecord
  2
0
 70
0
 62
7
  6
CONTINUOUS
370
-3
390
F
  0
LAYER
  5
1FA
100
AcDbSymbolTableRecord
100
AcDbLayerTableRecord
  2
DEFAULT_1
 70
0
 62
7
  6
CENTER
370
-3
390
F
  0
LAYER
  5
1FB
100
AcDbSymbolTableRecord
100
AcDbLayerTableRecord
  2
DEFAULT_2
 70
0
 62
8
  6
HIDDEN
370
-3
390
F
  0
LAYER
  5
1FC
100
AcDbSymbolTableRecord
100
AcDbLayerTableRecord
  2
DEFAULT_3
 70
0
 62
7
  6
PHANTOM
370
-3
390
F
  0
LAYER
  5
1FD
100
AcDbSymbolTableRecord
100
AcDbLayerTableRecord
  2
01_ALL_DTM_PLN
 70
0
 62
7
  6
CONTINUOUS
370
-3
390
F
  0
LAYER
  5
1FE
100
AcDbSymbolTableRecord
100
AcDbLayerTableRecord
  2
01__ASM_ALL_DTM_PLN
 70
0
 62
7
  6
CONTINUOUS
370
-3
390
F
  0
LAYER
  5
1FF
100
AcDbSymbolTableRecord
100
AcDbLayerTableRecord
  2
01__ASM_DEF_DTM_PLN
 70
0
 62
7
  6
CONTINUOUS
370
-3
390
F
  0
LAYER
  5
200
100
AcDbSymbolTableRecord
100
AcDbLayerTableRecord
  2
01___PRT_ALL_DTM_PLN
 70
0
 62
7
  6
CONTINUOUS
370
-3
390
F
  0
LAYER
  5
201
100
AcDbSymbolTableRecord
100
AcDbLayerTableRecord
  2
01___PRT_DEF_DTM_PLN
 70
0
 62
7
  6
CONTINUOUS
370
-3
390
F
  0
LAYER
  5
202
100
AcDbSymbolTableRecord
100
AcDbLayerTableRecord
  2
02_ALL_AXES
 70
0
 62
7
  6
CONTINUOUS
370
-3
390
F
  0
LAYER
  5
203
100
AcDbSymbolTableRecord
100
AcDbLayerTableRecord
  2
02__ASM_ALL_AXES
 70
0
 62
7
  6
CONTINUOUS
370
-3
390
F
  0
LAYER
  5
204
100
AcDbSymbolTableRecord
100
AcDbLayerTableRecord
  2
02___PRT_ALL_AXES
 70
0
 62
7
  6
CONTINUOUS
370
-3
390
F
  0
LAYER
  5
205
100
AcDbSymbolTableRecord
100
AcDbLayerTableRecord
  2
03_ALL_CURVES
 70
0
 62
7
  6
CONTINUOUS
370
-3
390
F
  0
LAYER
  5
206
100
AcDbSymbolTableRecord
100
AcDbLayerTableRecord
  2
03__ASM_ALL_CURVES
 70
0
 62
7
  6
CONTINUOUS
370
-3
390
F
  0
LAYER
  5
207
100
AcDbSymbolTableRecord
100
AcDbLayerTableRecord
  2
03___PRT_ALL_CURVES
 70
0
 62
7
  6
CONTINUOUS
370
-3
390
F
  0
LAYER
  5
208
100
AcDbSymbolTableRecord
100
AcDbLayerTableRecord
  2
04_ALL_DTM_PNT
 70
0
 62
7
  6
CONTINUOUS
370
-3
390
F
  0
LAYER
  5
209
100
AcDbSymbolTableRecord
100
AcDbLayerTableRecord
  2
04__ASM_ALL_DTM_PNT
 70
0
 62
7
  6
CONTINUOUS
370
-3
390
F
  0
LAYER
  5
20A
100
AcDbSymbolTableRecord
100
AcDbLayerTableRecord
  2
04___PRT_ALL_DTM_PNT
 70
0
 62
7
  6
CONTINUOUS
370
-3
390
F
  0
LAYER
  5
20B
100
AcDbSymbolTableRecord
100
AcDbLayerTableRecord
  2
05_ALL_DTM_CSYS
 70
0
 62
7
  6
CONTINUOUS
370
-3
390
F
  0
LAYER
  5
20C
100
AcDbSymbolTableRecord
100
AcDbLayerTableRecord
  2
05__ASM_ALL_DTM_CSYS
 70
0
 62
7
  6
CONTINUOUS
370
-3
390
F
  0
LAYER
  5
20D
100
AcDbSymbolTableRecord
100
AcDbLayerTableRecord
  2
05__ASM_DEF_DTM_CSYS
 70
0
 62
7
  6
CONTINUOUS
370
-3
390
F
  0
LAYER
  5
20E
100
AcDbSymbolTableRecord
100
AcDbLayerTableRecord
  2
05___PRT_ALL_DTM_CSYS
 70
0
 62
7
  6
CONTINUOUS
370
-3
390
F
  0
LAYER
  5
20F
100
AcDbSymbolTableRecord
100
AcDbLayerTableRecord
  2
05___PRT_DEF_DTM_CSYS
 70
0
 62
7
  6
CONTINUOUS
370
-3
390
F
  0
LAYER
  5
210
100
AcDbSymbolTableRecord
100
AcDbLayerTableRecord
  2
06_ALL_SURFS
 70
0
 62
7
  6
CONTINUOUS
370
-3
390
F
  0
LAYER
  5
211
100
AcDbSymbolTableRecord
100
AcDbLayerTableRecord
  2
06__ASM_ALL_SURFS
 70
0
 62
7
  6
CONTINUOUS
370
-3
390
F
  0
LAYER
  5
212
100
AcDbSymbolTableRecord
100
AcDbLayerTableRecord
  2
06___PRT_ALL_SURFS
 70
0
 62
7
  6
CONTINUOUS
370
-3
390
F
  0
LAYER
  5
213
100
AcDbSymbolTableRecord
100
AcDbLayerTableRecord
  2
07__ASM_ALL_SKELETONS
 70
0
 62
7
  6
CONTINUOUS
370
-3
390
F
  0
ENDTAB
  0
TABLE
  2
STYLE
  5
3
100
AcDbSymbolTable
 70
1
  0
STYLE
  5
11
100
AcDbSymbolTableRecord
100
AcDbTextStyleTableRecord
  2
STANDARD
 70
0
 40
0.0
 41
0.8
 50
0.0
 71
0
 42
0.2
  3
txt
  4

  0
STYLE
  5
214
100
AcDbSymbolTableRecord
100
AcDbTextStyleTableRecord
  2
TEXTSTYLE_1
 70
0
 40
0.0
 41
0.8
 50
0.0
 71
0
 42
0.2
  3
gdt
  4

  0
ENDTAB
  0
TABLE
  2
VIEW
  5
6
100
AcDbSymbolTable
 70
0
  0
ENDTAB
  0
TABLE
  2
UCS
  5
7
100
AcDbSymbolTable
 70
0
  0
ENDTAB
  0
TABLE
  2
APPID
  5
9
100
AcDbSymbolTable
 70
1
  0
APPID
  5
215
100
AcDbSymbolTableRecord
100
AcDbRegAppTableRecord
  2
ACAD
 70
0
  0
ENDTAB
  0
TABLE
  2
BLOCK_RECORD
  5
1
100
AcDbSymbolTable
 70
0
  0
BLOCK_RECORD
  5
216
100
AcDbSymbolTableRecord
100
AcDbBlockTableRecord
  2
*Model_Space
  0
BLOCK_RECORD
  5
217
100
AcDbSymbolTableRecord
100
AcDbBlockTableRecord
  2
*Paper_Space
  0
ENDTAB
  0
TABLE
  2
DIMSTYLE
  5
A
100
AcDbSymbolTable
 70
1
100
AcDbDimStyleTable
 71
0
  0
DIMSTYLE
105
218
100
AcDbSymbolTableRecord
100
AcDbDimStyleTableRecord
  2
STANDARD
 70
0
  3

  4

 40
1.0
 41
0.1875
 42
0.0625
 43
0.38
 44
0.125
 45
0.0
 46
0.0
 47
0.0001
 48
0.0001
140
0.15625
141
0.09
142
0.0
143
25.4
144
1.0
145
0.0
146
1.0
147
0.09
 71
0.0
 72
0.0
 73
1
 74
1
 75
0
 76
0
 77
0
 78
4
 79
1
170
0
171
3
172
0
173
0
174
0
175
0
176
0
177
0
178
0
270
2
179
4
271
4
272
4
273
2
274
2
275
0
280
0
281
0
282
0
283
1
284
4
285
0
286
0
287
3
288
0
340
11
278
46
  0
ENDTAB
  0
ENDSEC
  0
SECTION
  2
BLOCKS
  0
BLOCK
  5
20
100
AcDbEntity
  8
0
100
AcDbBlockBegin
  2
*Model_Space
 70
0
 10
0.0
 20
0.0
 30
0.0
  3
*Model_Space
  1

  0
ENDBLK
  5
21
100
AcDbEntity
  8
0
100
AcDbBlockEnd
  0
BLOCK
  5
1C
100
AcDbEntity
  8
0
100
AcDbBlockBegin
  2
*Paper_Space
 70
0
 10
0.0
 20
0.0
 30
0.0
  3
*Paper_Space
  1

  0
ENDBLK
  5
1D
100
AcDbEntity
  8
0
100
AcDbBlockEnd
  0
ENDSEC
  0
SECTION
  2
ENTITIES
  0
MTEXT
  5
219
100
AcDbEntity
  8
0
100
AcDbMText
 62
7
  6
CONTINUOUS
  7
STANDARD
 71
1
 72
1
 10
15.9560215477
 20
0.9479130325
 30
0.0
 11
1.0
 21
0.0
 31
0.0
 44
0.9
  1
SCALE: 1:1.000
 40
0.3
 41
3.36
  0
LINE
  5
21A
100
AcDbEntity
  8
0
100
AcDbLine
 62
7
  6
CONTINUOUS
 10
0.0
 20
0.0
 11
0.0
 21
17.0
  0
LINE
  5
21B
100
AcDbEntity
  8
0
100
AcDbLine
 62
7
  6
CONTINUOUS
 10
0.0
 20
0.0
 11
22.0
 21
0.0
  0
LINE
  5
21C
100
AcDbEntity
  8
0
100
AcDbLine
 62
7
  6
CONTINUOUS
 10
0.0
 20
17.0
 11
22.0
 21
17.0
  0
LINE
  5
21D
100
AcDbEntity
  8
0
100
AcDbLine
 62
7
  6
CONTINUOUS
 10
22.0
 20
0.0
 11
22.0
 21
17.0
  0
LINE
  5
21E
100
AcDbEntity
  8
0
100
AcDbLine
 62
7
  6
CONTINUOUS
 10
5.4116172762
 20
5.7201198968
 11
5.4116172762
 21
5.6422488016
  0
LINE
  5
21F
100
AcDbEntity
  8
0
100
AcDbLine
 62
7
  6
CONTINUOUS
 10
5.4732883606
 20
5.3153496719
 11
5.4134545578
 21
5.623167902
  0
LINE
  5
220
100
AcDbEntity
  8
0
100
AcDbLine
 62
7
  6
CONTINUOUS
 10
5.4978290401
 20
5.2951198968
 11
6.7629055122
 21
5.2951198968
  0
LINE
  5
221
100
AcDbEntity
  8
0
100
AcDbLine
 62
7
  6
CONTINUOUS
 10
5.4686719938
 20
5.4451198968
 11
6.7920625586
 21
5.4451198968
  0
LINE
  5
222
100
AcDbEntity
  8
0
100
AcDbLine
 62
7
  6
CONTINUOUS
 10
6.8241172762
 20
5.7451198968
 11
5.4366172762
 21
5.7451198968
  0
LINE
  5
223
100
AcDbEntity
  8
0
100
AcDbLine
 62
7
  6
CONTINUOUS
 10
6.8491172762
 20
5.6422488016
 11
6.8491172762
 21
5.7201198968
  0
LINE
  5
224
100
AcDbEntity
  8
0
100
AcDbLine
 62
7
  6
CONTINUOUS
 10
6.7874461918
 20
5.3153496719
 11
6.8472799945
 21
5.623167902
  0
LINE
  5
225
100
AcDbEntity
  8
0
100
AcDbLine
 62
7
  6
CONTINUOUS
 10
6.7896220839
 20
10.6000477814
 11
5.3521220839
 21
10.6000477814
  0
LINE
  5
226
100
AcDbEntity
  8
0
100
AcDbLine
 62
7
  6
CONTINUOUS
 10
5.3521220839
 20
10.6000477814
 11
5.3521220839
 21
14.6000477814
  0
LINE
  5
227
100
AcDbEntity
  8
0
100
AcDbLine
 62
7
  6
CONTINUOUS
 10
6.7896220839
 20
10.6000477814
 11
6.7896220839
 21
14.6000477814
  0
LINE
  5
228
100
AcDbEntity
  8
0
100
AcDbLine
 62
7
  6
CONTINUOUS
 10
5.3521220839
 20
14.6000477814
 11
6.7896220839
 21
14.6000477814
  0
LINE
  5
229
100
AcDbEntity
  8
0
100
AcDbLine
 62
7
  6
CONTINUOUS
 10
13.5603552569
 20
5.3856247044
 11
13.5603552569
 21
5.6856247044
  0
LINE
  5
22A
100
AcDbEntity
  8
0
100
AcDbLine
 62
7
  6
CONTINUOUS
 10
13.6747501732
 20
5.356560369
 11
13.6959603407
 21
5.2646890399
  0
LINE
  5
22B
100
AcDbEntity
  8
0
100
AcDbLine
 62
7
  6
CONTINUOUS
 10
13.9247501732
 20
5.2646890399
 11
13.9459603407
 21
5.356560369
  0
LINE
  5
22C
100
AcDbEntity
  8
0
100
AcDbLine
 62
7
  6
CONTINUOUS
 10
14.1747501732
 20
5.356560369
 11
14.1959603407
 21
5.2646890399
  0
LINE
  5
22D
100
AcDbEntity
  8
0
100
AcDbLine
 62
7
  6
CONTINUOUS
 10
14.4247501732
 20
5.2646890399
 11
14.4459603407
 21
5.356560369
  0
LINE
  5
22E
100
AcDbEntity
  8
0
100
AcDbLine
 62
7
  6
CONTINUOUS
 10
14.6747501732
 20
5.356560369
 11
14.6959603407
 21
5.2646890399
  0
LINE
  5
22F
100
AcDbEntity
  8
0
100
AcDbLine
 62
7
  6
CONTINUOUS
 10
14.9247501732
 20
5.2646890399
 11
14.9459603407
 21
5.356560369
  0
LINE
  5
230
100
AcDbEntity
  8
0
100
AcDbLine
 62
7
  6
CONTINUOUS
 10
15.1747501732
 20
5.356560369
 11
15.1959603407
 21
5.2646890399
  0
LINE
  5
231
100
AcDbEntity
  8
0
100
AcDbLine
 62
7
  6
CONTINUOUS
 10
13.7324992181
 20
5.2356247044
 11
13.8882112957
 21
5.2356247044
  0
LINE
  5
232
100
AcDbEntity
  8
0
100
AcDbLine
 62
7
  6
CONTINUOUS
 10
14.2324992181
 20
5.2356247044
 11
14.3882112957
 21
5.2356247044
  0
LINE
  5
233
100
AcDbEntity
  8
0
100
AcDbLine
 62
7
  6
CONTINUOUS
 10
14.7324992181
 20
5.2356247044
 11
14.8882112957
 21
5.2356247044
  0
LINE
  5
234
100
AcDbEntity
  8
0
100
AcDbLine
 62
7
  6
CONTINUOUS
 10
15.2324992181
 20
5.2356247044
 11
15.3882112957
 21
5.2356247044
  0
LINE
  5
235
100
AcDbEntity
  8
0
100
AcDbLine
 62
7
  6
CONTINUOUS
 10
15.7324992181
 20
5.2356247044
 11
15.8882112957
 21
5.2356247044
  0
LINE
  5
236
100
AcDbEntity
  8
0
100
AcDbLine
 62
7
  6
CONTINUOUS
 10
16.2324992181
 20
5.2356247044
 11
16.3882112957
 21
5.2356247044
  0
LINE
  5
237
100
AcDbEntity
  8
0
100
AcDbLine
 62
7
  6
CONTINUOUS
 10
16.7324992181
 20
5.2356247044
 11
16.8882112957
 21
5.2356247044
  0
LINE
  5
238
100
AcDbEntity
  8
0
100
AcDbLine
 62
7
  6
CONTINUOUS
 10
17.2324992181
 20
5.2356247044
 11
17.3882112957
 21
5.2356247044
  0
LINE
  5
239
100
AcDbEntity
  8
0
100
AcDbLine
 62
7
  6
CONTINUOUS
 10
15.4247501732
 20
5.2646890399
 11
15.4459603407
 21
5.356560369
  0
LINE
  5
23A
100
AcDbEntity
  8
0
100
AcDbLine
 62
7
  6
CONTINUOUS
 10
13.5603552569
 20
5.3856247044
 11
13.6382112957
 21
5.3856247044
  0
LINE
  5
23B
100
AcDbEntity
  8
0
100
AcDbLine
 62
7
  6
CONTINUOUS
 10
13.9824992181
 20
5.3856247044
 11
14.1382112957
 21
5.3856247044
  0
LINE
  5
23C
100
AcDbEntity
  8
0
100
AcDbLine
 62
7
  6
CONTINUOUS
 10
14.4824992181
 20
5.3856247044
 11
14.6382112957
 21
5.3856247044
  0
LINE
  5
23D
100
AcDbEntity
  8
0
100
AcDbLine
 62
7
  6
CONTINUOUS
 10
14.9824992181
 20
5.3856247044
 11
15.1382112957
 21
5.3856247044
  0
LINE
  5
23E
100
AcDbEntity
  8
0
100
AcDbLine
 62
7
  6
CONTINUOUS
 10
15.4824992181
 20
5.3856247044
 11
15.6382112957
 21
5.3856247044
  0
LINE
  5
23F
100
AcDbEntity
  8
0
100
AcDbLine
 62
7
  6
CONTINUOUS
 10
15.9824992181
 20
5.3856247044
 11
16.1382112957
 21
5.3856247044
  0
LINE
  5
240
100
AcDbEntity
  8
0
100
AcDbLine
 62
7
  6
CONTINUOUS
 10
16.4824992181
 20
5.3856247044
 11
16.6382112957
 21
5.3856247044
  0
LINE
  5
241
100
AcDbEntity
  8
0
100
AcDbLine
 62
7
  6
CONTINUOUS
 10
16.9824992181
 20
5.3856247044
 11
17.1382112957
 21
5.3856247044
  0
LINE
  5
242
100
AcDbEntity
  8
0
100
AcDbLine
 62
7
  6
CONTINUOUS
 10
17.4824992181
 20
5.3856247044
 11
17.5603552569
 21
5.3856247044
  0
LINE
  5
243
100
AcDbEntity
  8
0
100
AcDbLine
 62
7
  6
CONTINUOUS
 10
15.6747501732
 20
5.356560369
 11
15.6959603407
 21
5.2646890399
  0
LINE
  5
244
100
AcDbEntity
  8
0
100
AcDbLine
 62
7
  6
CONTINUOUS
 10
13.5603552569
 20
5.6856247044
 11
17.5603552569
 21
5.6856247044
  0
LINE
  5
245
100
AcDbEntity
  8
0
100
AcDbLine
 62
7
  6
CONTINUOUS
 10
15.9247501732
 20
5.2646890399
 11
15.9459603407
 21
5.356560369
  0
LINE
  5
246
100
AcDbEntity
  8
0
100
AcDbLine
 62
7
  6
CONTINUOUS
 10
16.1747501732
 20
5.356560369
 11
16.1959603407
 21
5.2646890399
  0
LINE
  5
247
100
AcDbEntity
  8
0
100
AcDbLine
 62
7
  6
CONTINUOUS
 10
16.4247501732
 20
5.2646890399
 11
16.4459603407
 21
5.356560369
  0
LINE
  5
248
100
AcDbEntity
  8
0
100
AcDbLine
 62
7
  6
CONTINUOUS
 10
16.6747501732
 20
5.356560369
 11
16.6959603407
 21
5.2646890399
  0
LINE
  5
249
100
AcDbEntity
  8
0
100
AcDbLine
 62
7
  6
CONTINUOUS
 10
16.9247501732
 20
5.2646890399
 11
16.9459603407
 21
5.356560369
  0
LINE
  5
24A
100
AcDbEntity
  8
0
100
AcDbLine
 62
7
  6
CONTINUOUS
 10
17.1747501732
 20
5.356560369
 11
17.1959603407
 21
5.2646890399
  0
LINE
  5
24B
100
AcDbEntity
  8
0
100
AcDbLine
 62
7
  6
CONTINUOUS
 10
17.5603552569
 20
5.3856247044
 11
17.5603552569
 21
5.6856247044
  0
LINE
  5
24C
100
AcDbEntity
  8
0
100
AcDbLine
 62
7
  6
CONTINUOUS
 10
17.4247501732
 20
5.2646890399
 11
17.4459603407
 21
5.356560369
  0
LINE
  5
24D
100
AcDbEntity
  8
0
100
AcDbLine
 62
7
  6
CONTINUOUS
 10
14.3329645851
 20
10.9615860933
 11
14.4093609164
 21
10.8634847083
  0
LWPOLYLINE
  5
24E
100
AcDbEntity
  8
0
100
AcDbPolyline
 62
7
  6
CONTINUOUS
 90
5
 70
0
 10
15.707032781
 20
10.8783236513
 10
15.7166218356
 20
10.8801667934
 10
15.7243873582
 20
10.8849616252
 10
15.7298964761
 20
10.8915858458
 10
15.7331048535
 20
10.8983380489
  0
LINE
  5
24F
100
AcDbEntity
  8
0
100
AcDbLine
 62
7
  6
CONTINUOUS
 10
14.4381353075
 20
10.8509096784
 11
15.6570587365
 21
10.8509096784
  0
LINE
  5
250
100
AcDbEntity
  8
0
100
AcDbLine
 62
7
  6
CONTINUOUS
 10
15.6792683975
 20
10.8783235541
 11
15.7070379139
 21
10.8783235541
  0
LINE
  5
251
100
AcDbEntity
  8
0
100
AcDbLine
 62
7
  6
CONTINUOUS
 10
14.3016979192
 20
11.0218524197
 11
14.3254518635
 21
10.9734469707
  0
LINE
  5
252
100
AcDbEntity
  8
0
100
AcDbLine
 62
7
  6
CONTINUOUS
 10
15.5950705266
 20
11.0373926689
 11
14.3170983974
 21
11.0373926689
  0
LWPOLYLINE
  5
253
100
AcDbEntity
  8
0
100
AcDbPolyline
 62
7
  6
CONTINUOUS
 90
5
 70
0
 10
15.8280659427
 20
11.2699871061
 10
15.8376549973
 20
11.2718302482
 10
15.8454205199
 20
11.2766250801
 10
15.8509296379
 20
11.2832493007
 10
15.8541380152
 20
11.2900015037
  0
LINE
  5
254
100
AcDbEntity
  8
0
100
AcDbLine
 62
7
  6
CONTINUOUS
 10
15.8003015592
 20
11.2699870089
 11
15.8280710756
 21
11.2699870089
  0
LWPOLYLINE
  5
255
100
AcDbEntity
  8
0
100
AcDbPolyline
 62
7
  6
CONTINUOUS
 90
5
 70
0
 10
15.9490991044
 20
11.6616505609
 10
15.958688159
 20
11.663493703
 10
15.9664536816
 20
11.6682885349
 10
15.9719627996
 20
11.6749127555
 10
15.975171177
 20
11.6816649585
  0
LINE
  5
256
100
AcDbEntity
  8
0
100
AcDbLine
 62
7
  6
CONTINUOUS
 10
15.9213347209
 20
11.6616504638
 11
15.9491042373
 21
11.6616504638
  0
LINE
  5
257
100
AcDbEntity
  8
0
100
AcDbLine
 62
7
  6
CONTINUOUS
 10
14.300838923
 20
11.029233604
 11
15.2691042166
 21
14.1625412425
  0
LWPOLYLINE
  5
258
100
AcDbEntity
  8
0
100
AcDbPolyline
 62
7
  6
CONTINUOUS
 90
5
 70
0
 10
16.0701322661
 20
12.0533140157
 10
16.0797213207
 20
12.0551571579
 10
16.0874868433
 20
12.0599519897
 10
16.0929959613
 20
12.0665762103
 10
16.0962043387
 20
12.0733284134
  0
LINE
  5
259
100
AcDbEntity
  8
0
100
AcDbLine
 62
7
  6
CONTINUOUS
 10
16.0423678826
 20
12.0533139186
 11
16.070137399
 21
12.0533139186
  0
LINE
  5
25A
100
AcDbEntity
  8
0
100
AcDbLine
 62
7
  6
CONTINUOUS
 10
15.6494770423
 20
10.9734469707
 11
15.6257230981
 21
11.0218524197
  0
LWPOLYLINE
  5
25B
100
AcDbEntity
  8
0
100
AcDbPolyline
 62
7
  6
CONTINUOUS
 90
5
 70
0
 10
16.1911654278
 20
12.4449774705
 10
16.2007544824
 20
12.4468206127
 10
16.208520005
 20
12.4516154445
 10
16.214029123
 20
12.4582396651
 10
16.2172375004
 20
12.4649918682
  0
LINE
  5
25C
100
AcDbEntity
  8
0
100
AcDbLine
 62
7
  6
CONTINUOUS
 10
15.6734912709
 20
10.8634847083
 11
15.6536052671
 21
10.9615860933
  0
LINE
  5
25D
100
AcDbEntity
  8
0
100
AcDbLine
 62
7
  6
CONTINUOUS
 10
16.1634010443
 20
12.4449773734
 11
16.1911705607
 21
12.4449773734
  0
LINE
  5
25E
100
AcDbEntity
  8
0
100
AcDbLine
 62
7
  6
CONTINUOUS
 10
15.7743290746
 20
11.0477660086
 11
15.7678870266
 21
11.1214886373
  0
LWPOLYLINE
  5
25F
100
AcDbEntity
  8
0
100
AcDbPolyline
 62
7
  6
CONTINUOUS
 90
7
 70
0
 10
15.7678846507
 20
11.1215108811
 10
15.7675809611
 20
11.1261867146
 10
15.7675698212
 20
11.1395966594
 10
15.7687286627
 20
11.155155108
 10
15.7710009031
 20
11.1708236107
 10
15.7740147811
 20
11.1845213554
 10
15.7754993084
 20
11.1897311196
  0
LINE
  5
260
100
AcDbEntity
  8
0
100
AcDbLine
 62
7
  6
CONTINUOUS
 10
15.7745225441
 20
11.0440120058
 11
15.774324654
 21
11.0478151005
  0
LINE
  5
261
100
AcDbEntity
  8
0
100
AcDbLine
 62
7
  6
CONTINUOUS
 10
15.6733176681
 20
10.8590689107
 11
15.6734912709
 21
10.8634847083
  0
LWPOLYLINE
  5
262
100
AcDbEntity
  8
0
100
AcDbPolyline
 62
7
  6
CONTINUOUS
 90
5
 70
0
 10
16.3121985895
 20
12.8366409253
 10
16.3217876441
 20
12.8384840675
 10
16.3295531667
 20
12.8432788993
 10
16.3350622847
 20
12.8499031199
 10
16.3382706621
 20
12.856655323
  0
LINE
  5
263
100
AcDbEntity
  8
0
100
AcDbLine
 62
7
  6
CONTINUOUS
 10
15.8953622363
 20
11.4394294635
 11
15.8889201883
 21
11.5131520921
  0
LWPOLYLINE
  5
264
100
AcDbEntity
  8
0
100
AcDbPolyline
 62
7
  6
CONTINUOUS
 90
7
 70
0
 10
15.8889178124
 20
11.5131743359
 10
15.8886141228
 20
11.5178501695
 10
15.8886029829
 20
11.5312601142
 10
15.8897618244
 20
11.5468185628
 10
15.8920340648
 20
11.5624870655
 10
15.8950479428
 20
11.5761848103
 10
15.8965324702
 20
11.5813945744
  0
LINE
  5
265
100
AcDbEntity
  8
0
100
AcDbLine
 62
7
  6
CONTINUOUS
 10
15.8955557058
 20
11.4356754606
 11
15.8953578157
 21
11.4394785553
  0
LINE
  5
266
100
AcDbEntity
  8
0
100
AcDbLine
 62
7
  6
CONTINUOUS
 10
15.7741038545
 20
11.0352246999
 11
15.7745225441
 21
11.0440120058
  0
LINE
  5
267
100
AcDbEntity
  8
0
100
AcDbLine
 62
7
  6
CONTINUOUS
 10
16.5435924055
 20
13.6724250649
 11
16.5441078672
 21
13.6733087358
  0
LINE
  5
268
100
AcDbEntity
  8
0
100
AcDbLine
 62
7
  6
CONTINUOUS
 10
16.2844342061
 20
12.8366408282
 11
16.3122037224
 21
12.8366408282
  0
LINE
  5
269
100
AcDbEntity
  8
0
100
AcDbLine
 62
7
  6
CONTINUOUS
 10
16.016395398
 20
11.8310929183
 11
16.00995335
 21
11.9048155469
  0
LWPOLYLINE
  5
26A
100
AcDbEntity
  8
0
100
AcDbPolyline
 62
7
  6
CONTINUOUS
 90
7
 70
0
 10
16.0099509741
 20
11.9048377907
 10
16.0096472845
 20
11.9095136243
 10
16.0096361446
 20
11.922923569
 10
16.0107949861
 20
11.9384820176
 10
16.0130672265
 20
11.9541505203
 10
16.0160811045
 20
11.9678482651
 10
16.0175656319
 20
11.9730580293
  0
LINE
  5
26B
100
AcDbEntity
  8
0
100
AcDbLine
 62
7
  6
CONTINUOUS
 10
16.0165888675
 20
11.8273389154
 11
16.0163909774
 21
11.8311420101
  0
LINE
  5
26C
100
AcDbEntity
  8
0
100
AcDbLine
 62
7
  6
CONTINUOUS
 10
15.8951370162
 20
11.4268881547
 11
15.8955557058
 21
11.4356754606
  0
LINE
  5
26D
100
AcDbEntity
  8
0
100
AcDbLine
 62
7
  6
CONTINUOUS
 10
15.7725935799
 20
11.0263669957
 11
15.7741038545
 21
11.0352246999
  0
LINE
  5
26E
100
AcDbEntity
  8
0
100
AcDbLine
 62
7
  6
CONTINUOUS
 10
16.541965281
 20
13.6689401846
 11
16.5435924055
 21
13.6724250649
  0
LINE
  5
26F
100
AcDbEntity
  8
0
100
AcDbLine
 62
7
  6
CONTINUOUS
 10
16.4209321193
 20
13.2772767298
 11
16.4225592438
 21
13.2807616101
  0
LINE
  5
270
100
AcDbEntity
  8
0
100
AcDbLine
 62
7
  6
CONTINUOUS
 10
16.4225592438
 20
13.2807616101
 11
16.4230747055
 21
13.281645281
  0
LINE
  5
271
100
AcDbEntity
  8
0
100
AcDbLine
 62
7
  6
CONTINUOUS
 10
16.3015260821
 20
12.8890981553
 11
16.3020415438
 21
12.8899818261
  0
LWPOLYLINE
  5
272
100
AcDbEntity
  8
0
100
AcDbPolyline
 62
7
  6
CONTINUOUS
 90
5
 70
0
 10
16.4332317512
 20
13.2283043802
 10
16.4428208058
 20
13.2301475223
 10
16.4505863284
 20
13.2349423541
 10
16.4560954464
 20
13.2415665747
 10
16.4593038238
 20
13.2483187778
  0
LINE
  5
273
100
AcDbEntity
  8
0
100
AcDbLine
 62
7
  6
CONTINUOUS
 10
16.1374285597
 20
12.2227563731
 11
16.1309865117
 21
12.2964790017
  0
LWPOLYLINE
  5
274
100
AcDbEntity
  8
0
100
AcDbPolyline
 62
7
  6
CONTINUOUS
 90
7
 70
0
 10
16.1309841358
 20
12.2965012455
 10
16.1306804462
 20
12.3011770791
 10
16.1306693063
 20
12.3145870238
 10
16.1318281478
 20
12.3301454724
 10
16.1341003882
 20
12.3458139752
 10
16.1371142662
 20
12.3595117199
 10
16.1385987936
 20
12.3647214841
  0
LINE
  5
275
100
AcDbEntity
  8
0
100
AcDbLine
 62
7
  6
CONTINUOUS
 10
16.1376220292
 20
12.2190023702
 11
16.1374241391
 21
12.2228054649
  0
LINE
  5
276
100
AcDbEntity
  8
0
100
AcDbLine
 62
7
  6
CONTINUOUS
 10
16.0161701779
 20
11.8185516095
 11
16.0165888675
 21
11.8273389154
  0
LINE
  5
277
100
AcDbEntity
  8
0
100
AcDbLine
 62
7
  6
CONTINUOUS
 10
16.1372033396
 20
12.2102150644
 11
16.1376220292
 21
12.2190023702
  0
LINE
  5
278
100
AcDbEntity
  8
0
100
AcDbLine
 62
7
  6
CONTINUOUS
 10
15.8936267416
 20
11.4180304505
 11
15.8951370162
 21
11.4268881547
  0
LINE
  5
279
100
AcDbEntity
  8
0
100
AcDbLine
 62
7
  6
CONTINUOUS
 10
16.0146599033
 20
11.8096939053
 11
16.0161701779
 21
11.8185516095
  0
LINE
  5
27A
100
AcDbEntity
  8
0
100
AcDbLine
 62
7
  6
CONTINUOUS
 10
15.7715673002
 20
11.0225987247
 11
15.7725935799
 21
11.0263669957
  0
LINE
  5
27B
100
AcDbEntity
  8
0
100
AcDbLine
 62
7
  6
CONTINUOUS
 10
15.8926004619
 20
11.4142621795
 11
15.8936267416
 21
11.4180304505
  0
LINE
  5
27C
100
AcDbEntity
  8
0
100
AcDbLine
 62
7
  6
CONTINUOUS
 10
15.6745789764
 20
10.8631485818
 11
15.6921645366
 21
10.9200554754
  0
LINE
  5
27D
100
AcDbEntity
  8
0
100
AcDbLine
 62
7
  6
CONTINUOUS
 10
15.7755050476
 20
11.1897454679
 11
15.8131976983
 21
11.3117189302
  0
LINE
  5
27E
100
AcDbEntity
  8
0
100
AcDbLine
 62
7
  6
CONTINUOUS
 10
15.8965382093
 20
11.5814089227
 11
15.93423086
 21
11.703382385
  0
LINE
  5
27F
100
AcDbEntity
  8
0
100
AcDbLine
 62
7
  6
CONTINUOUS
 10
16.017571371
 20
11.9730723775
 11
16.0552640217
 21
12.0950458398
  0
LINE
  5
280
100
AcDbEntity
  8
0
100
AcDbLine
 62
7
  6
CONTINUOUS
 10
16.1386045327
 20
12.3647358323
 11
16.1762971834
 21
12.4867092947
  0
LINE
  5
281
100
AcDbEntity
  8
0
100
AcDbLine
 62
7
  6
CONTINUOUS
 10
16.2596376944
 20
12.7563992871
 11
16.2973303451
 21
12.8783727495
  0
LINE
  5
282
100
AcDbEntity
  8
0
100
AcDbLine
 62
7
  6
CONTINUOUS
 10
16.3806708561
 20
13.1480627419
 11
16.4183635068
 21
13.2700362043
  0
LINE
  5
283
100
AcDbEntity
  8
0
100
AcDbLine
 62
7
  6
CONTINUOUS
 10
16.5017040178
 20
13.5397261967
 11
16.5393966685
 21
13.6616996591
  0
LINE
  5
284
100
AcDbEntity
  8
0
100
AcDbLine
 62
7
  6
CONTINUOUS
 10
16.6227371795
 20
13.9313896516
 11
16.6415835046
 21
13.9923763818
  0
LWPOLYLINE
  5
285
100
AcDbEntity
  8
0
100
AcDbPolyline
 62
7
  6
CONTINUOUS
 90
3
 70
0
 10
16.5393966783
 20
13.661701311
 10
16.5398718721
 20
13.6631993598
 10
16.541965281
 20
13.6689401846
  0
LWPOLYLINE
  5
286
100
AcDbEntity
  8
0
100
AcDbPolyline
 62
7
  6
CONTINUOUS
 90
3
 70
0
 10
16.4183635166
 20
13.2700378561
 10
16.4188387104
 20
13.271535905
 10
16.4209321193
 20
13.2772767298
  0
LWPOLYLINE
  5
287
100
AcDbEntity
  8
0
100
AcDbPolyline
 62
7
  6
CONTINUOUS
 90
3
 70
0
 10
16.2973303549
 20
12.8783744013
 10
16.2978055487
 20
12.8798724502
 10
16.2998989576
 20
12.885613275
  0
LWPOLYLINE
  5
288
100
AcDbEntity
  8
0
100
AcDbPolyline
 62
7
  6
CONTINUOUS
 90
3
 70
0
 10
16.1762971932
 20
12.4867109465
 10
16.176772387
 20
12.4882089954
 10
16.1788657959
 20
12.4939498201
  0
LWPOLYLINE
  5
289
100
AcDbEntity
  8
0
100
AcDbPolyline
 62
7
  6
CONTINUOUS
 90
3
 70
0
 10
16.0552640315
 20
12.0950474917
 10
16.0557392253
 20
12.0965455406
 10
16.0578326342
 20
12.1022863653
  0
LWPOLYLINE
  5
28A
100
AcDbEntity
  8
0
100
AcDbPolyline
 62
7
  6
CONTINUOUS
 90
3
 70
0
 10
15.9342308698
 20
11.7033840369
 10
15.9347060636
 20
11.7048820857
 10
15.9367994725
 20
11.7106229105
  0
LWPOLYLINE
  5
28B
100
AcDbEntity
  8
0
100
AcDbPolyline
 62
7
  6
CONTINUOUS
 90
3
 70
0
 10
15.8131977081
 20
11.3117205821
 10
15.8136729019
 20
11.3132186309
 10
15.8157663108
 20
11.3189594557
  0
LWPOLYLINE
  5
28C
100
AcDbEntity
  8
0
100
AcDbPolyline
 62
7
  6
CONTINUOUS
 90
3
 70
0
 10
15.6921645464
 20
10.9200571273
 10
15.6926397402
 20
10.9215551761
 10
15.6947331491
 20
10.9272960009
  0
LINE
  5
28D
100
AcDbEntity
  8
0
100
AcDbLine
 62
7
  6
CONTINUOUS
 10
16.5803369855
 20
13.6399822326
 11
16.5811371398
 21
13.6423678177
  0
LINE
  5
28E
100
AcDbEntity
  8
0
100
AcDbLine
 62
7
  6
CONTINUOUS
 10
16.2998989576
 20
12.885613275
 11
16.3015260821
 21
12.8890981553
  0
LINE
  5
28F
100
AcDbEntity
  8
0
100
AcDbLine
 62
7
  6
CONTINUOUS
 10
16.1788657959
 20
12.4939498201
 11
16.1804929203
 21
12.4974347005
  0
LINE
  5
290
100
AcDbEntity
  8
0
100
AcDbLine
 62
7
  6
CONTINUOUS
 10
16.1804929203
 20
12.4974347005
 11
16.1810083821
 21
12.4983183713
  0
LINE
  5
291
100
AcDbEntity
  8
0
100
AcDbLine
 62
7
  6
CONTINUOUS
 10
16.2584617214
 20
12.6144198279
 11
16.2520196734
 21
12.6881424565
  0
LWPOLYLINE
  5
292
100
AcDbEntity
  8
0
100
AcDbPolyline
 62
7
  6
CONTINUOUS
 90
7
 70
0
 10
16.2520172975
 20
12.6881647003
 10
16.2517136079
 20
12.6928405339
 10
16.251702468
 20
12.7062504786
 10
16.2528613095
 20
12.7218089272
 10
16.2551335499
 20
12.73747743
 10
16.2581474279
 20
12.7511751747
 10
16.2596319553
 20
12.7563849389
  0
LINE
  5
293
100
AcDbEntity
  8
0
100
AcDbLine
 62
7
  6
CONTINUOUS
 10
16.2586551909
 20
12.610665825
 11
16.2584573008
 21
12.6144689197
  0
LINE
  5
294
100
AcDbEntity
  8
0
100
AcDbLine
 62
7
  6
CONTINUOUS
 10
16.2582365013
 20
12.6018785192
 11
16.2586551909
 21
12.610665825
  0
LINE
  5
295
100
AcDbEntity
  8
0
100
AcDbLine
 62
7
  6
CONTINUOUS
 10
16.135693065
 20
12.2013573602
 11
16.1372033396
 21
12.2102150644
  0
LINE
  5
296
100
AcDbEntity
  8
0
100
AcDbLine
 62
7
  6
CONTINUOUS
 10
16.2567262267
 20
12.593020815
 11
16.2582365013
 21
12.6018785192
  0
LINE
  5
297
100
AcDbEntity
  8
0
100
AcDbLine
 62
7
  6
CONTINUOUS
 10
16.3777593884
 20
12.9846842698
 11
16.379269663
 21
12.993541974
  0
LINE
  5
298
100
AcDbEntity
  8
0
100
AcDbLine
 62
7
  6
CONTINUOUS
 10
16.0136336236
 20
11.8059256343
 11
16.0146599033
 21
11.8096939053
  0
LINE
  5
299
100
AcDbEntity
  8
0
100
AcDbLine
 62
7
  6
CONTINUOUS
 10
16.1346667853
 20
12.1975890891
 11
16.135693065
 21
12.2013573602
  0
LINE
  5
29A
100
AcDbEntity
  8
0
100
AcDbLine
 62
7
  6
CONTINUOUS
 10
16.2556999471
 20
12.589252544
 11
16.2567262267
 21
12.593020815
  0
LINE
  5
29B
100
AcDbEntity
  8
0
100
AcDbLine
 62
7
  6
CONTINUOUS
 10
16.3767331088
 20
12.9809159988
 11
16.3777593884
 21
12.9846842698
  0
LINE
  5
29C
100
AcDbEntity
  8
0
100
AcDbLine
 62
7
  6
CONTINUOUS
 10
16.4977662705
 20
13.3725794536
 11
16.4987925501
 21
13.3763477246
  0
LINE
  5
29D
100
AcDbEntity
  8
0
100
AcDbLine
 62
7
  6
CONTINUOUS
 10
16.6187994322
 20
13.7642429084
 11
16.6198257118
 21
13.7680111794
  0
LINE
  5
29E
100
AcDbEntity
  8
0
100
AcDbLine
 62
7
  6
CONTINUOUS
 10
15.7338893286
 20
10.9006722452
 11
15.7715819787
 21
11.0226457055
  0
LINE
  5
29F
100
AcDbEntity
  8
0
100
AcDbLine
 62
7
  6
CONTINUOUS
 10
15.8549224903
 20
11.2923357
 11
15.8926151404
 21
11.4143091603
  0
LINE
  5
2A0
100
AcDbEntity
  8
0
100
AcDbLine
 62
7
  6
CONTINUOUS
 10
15.975955652
 20
11.6839991549
 11
16.0136483021
 21
11.8059726151
  0
LINE
  5
2A1
100
AcDbEntity
  8
0
100
AcDbLine
 62
7
  6
CONTINUOUS
 10
16.0969888137
 20
12.0756626097
 11
16.1346814638
 21
12.19763607
  0
LINE
  5
2A2
100
AcDbEntity
  8
0
100
AcDbLine
 62
7
  6
CONTINUOUS
 10
16.2180219754
 20
12.4673260645
 11
16.2557146255
 21
12.5892995248
  0
LINE
  5
2A3
100
AcDbEntity
  8
0
100
AcDbLine
 62
7
  6
CONTINUOUS
 10
16.3390551372
 20
12.8589895193
 11
16.3767477872
 21
12.9809629796
  0
LINE
  5
2A4
100
AcDbEntity
  8
0
100
AcDbLine
 62
7
  6
CONTINUOUS
 10
16.4600882989
 20
13.2506529741
 11
16.4977809489
 21
13.3726264344
  0
LINE
  5
2A5
100
AcDbEntity
  8
0
100
AcDbLine
 62
7
  6
CONTINUOUS
 10
16.5811214606
 20
13.6423164289
 11
16.6188141106
 21
13.7642898892
  0
LINE
  5
2A6
100
AcDbEntity
  8
0
100
AcDbLine
 62
7
  6
CONTINUOUS
 10
16.4593038238
 20
13.2483187778
 11
16.4601039781
 21
13.2507043629
  0
LINE
  5
2A7
100
AcDbEntity
  8
0
100
AcDbLine
 62
7
  6
CONTINUOUS
 10
16.3382706621
 20
12.856655323
 11
16.3390708164
 21
12.8590409081
  0
LINE
  5
2A8
100
AcDbEntity
  8
0
100
AcDbLine
 62
7
  6
CONTINUOUS
 10
16.2172375004
 20
12.4649918682
 11
16.2180376547
 21
12.4673774533
  0
LINE
  5
2A9
100
AcDbEntity
  8
0
100
AcDbLine
 62
7
  6
CONTINUOUS
 10
16.0962043387
 20
12.0733284134
 11
16.097004493
 21
12.0757139985
  0
LINE
  5
2AA
100
AcDbEntity
  8
0
100
AcDbLine
 62
7
  6
CONTINUOUS
 10
15.975171177
 20
11.6816649585
 11
15.9759713313
 21
11.6840505437
  0
LINE
  5
2AB
100
AcDbEntity
  8
0
100
AcDbLine
 62
7
  6
CONTINUOUS
 10
15.8541380152
 20
11.2900015037
 11
15.8549381696
 21
11.2923870888
  0
LINE
  5
2AC
100
AcDbEntity
  8
0
100
AcDbLine
 62
7
  6
CONTINUOUS
 10
15.7331048535
 20
10.8983380489
 11
15.7339050079
 21
10.900723634
  0
LINE
  5
2AD
100
AcDbEntity
  8
0
100
AcDbLine
 62
7
  6
CONTINUOUS
 10
16.0578326342
 20
12.1022863653
 11
16.0594597586
 21
12.1057712457
  0
LINE
  5
2AE
100
AcDbEntity
  8
0
100
AcDbLine
 62
7
  6
CONTINUOUS
 10
15.9367994725
 20
11.7106229105
 11
15.9384265969
 21
11.7141077908
  0
LINE
  5
2AF
100
AcDbEntity
  8
0
100
AcDbLine
 62
7
  6
CONTINUOUS
 10
15.8157663108
 20
11.3189594557
 11
15.8173934352
 21
11.322444336
  0
LINE
  5
2B0
100
AcDbEntity
  8
0
100
AcDbLine
 62
7
  6
CONTINUOUS
 10
16.0594597586
 20
12.1057712457
 11
16.0599752204
 21
12.1066549165
  0
LINE
  5
2B1
100
AcDbEntity
  8
0
100
AcDbLine
 62
7
  6
CONTINUOUS
 10
15.9384265969
 20
11.7141077908
 11
15.9389420587
 21
11.7149914617
  0
LINE
  5
2B2
100
AcDbEntity
  8
0
100
AcDbLine
 62
7
  6
CONTINUOUS
 10
16.4054673678
 20
13.228304283
 11
16.4332368841
 21
13.228304283
  0
LINE
  5
2B3
100
AcDbEntity
  8
0
100
AcDbLine
 62
7
  6
CONTINUOUS
 10
16.3794948831
 20
13.0060832827
 11
16.3730528351
 21
13.0798059114
  0
LWPOLYLINE
  5
2B4
100
AcDbEntity
  8
0
100
AcDbPolyline
 62
7
  6
CONTINUOUS
 90
7
 70
0
 10
16.3730504592
 20
13.0798281551
 10
16.3727467697
 20
13.0845039887
 10
16.3727356297
 20
13.0979139334
 10
16.3738944712
 20
13.113472382
 10
16.3761667117
 20
13.1291408848
 10
16.3791805896
 20
13.1428386295
 10
16.380665117
 20
13.1480483937
  0
LINE
  5
2B5
100
AcDbEntity
  8
0
100
AcDbLine
 62
7
  6
CONTINUOUS
 10
16.3796883526
 20
13.0023292798
 11
16.3794904625
 21
13.0061323745
  0
LINE
  5
2B6
100
AcDbEntity
  8
0
100
AcDbLine
 62
7
  6
CONTINUOUS
 10
16.379269663
 20
12.993541974
 11
16.3796883526
 21
13.0023292798
  0
LINE
  5
2B7
100
AcDbEntity
  8
0
100
AcDbLine
 62
7
  6
CONTINUOUS
 10
16.4987925501
 20
13.3763477246
 11
16.5003028247
 21
13.3852054288
  0
LINE
  5
2B8
100
AcDbEntity
  8
0
100
AcDbLine
 62
7
  6
CONTINUOUS
 10
16.6198257118
 20
13.7680111794
 11
16.6213359864
 21
13.7768688836
  0
LINE
  5
2B9
100
AcDbEntity
  8
0
100
AcDbLine
 62
7
  6
CONTINUOUS
 10
15.6947331491
 20
10.9272960009
 11
15.6963602735
 21
10.9307808812
  0
LINE
  5
2BA
100
AcDbEntity
  8
0
100
AcDbLine
 62
7
  6
CONTINUOUS
 10
15.8173934352
 20
11.322444336
 11
15.817908897
 21
11.3233280069
  0
LWPOLYLINE
  5
2BB
100
AcDbEntity
  8
0
100
AcDbPolyline
 62
7
  6
CONTINUOUS
 90
5
 70
0
 10
16.5542649129
 20
13.619967835
 10
16.5638539675
 20
13.6218109771
 10
16.5716194901
 20
13.6266058089
 10
16.5771286081
 20
13.6332300295
 10
16.5803369855
 20
13.6399822326
  0
LWPOLYLINE
  5
2BC
100
AcDbEntity
  8
0
100
AcDbPolyline
 62
7
  6
CONTINUOUS
 90
7
 70
0
 10
16.4940836209
 20
13.4714916099
 10
16.4937799314
 20
13.4761674435
 10
16.4937687914
 20
13.4895773882
 10
16.4949276329
 20
13.5051358369
 10
16.4971998734
 20
13.5208043396
 10
16.5002137513
 20
13.5345020843
 10
16.5016982787
 20
13.5397118485
  0
LINE
  5
2BD
100
AcDbEntity
  8
0
100
AcDbLine
 62
7
  6
CONTINUOUS
 10
16.5007215143
 20
13.3939927347
 11
16.5005236242
 21
13.3977958293
  0
LINE
  5
2BE
100
AcDbEntity
  8
0
100
AcDbLine
 62
7
  6
CONTINUOUS
 10
16.5003028247
 20
13.3852054288
 11
16.5007215143
 21
13.3939927347
  0
LINE
  5
2BF
100
AcDbEntity
  8
0
100
AcDbLine
 62
7
  6
CONTINUOUS
 10
16.6213359864
 20
13.7768688836
 11
16.621754676
 21
13.7856561895
  0
LINE
  5
2C0
100
AcDbEntity
  8
0
100
AcDbLine
 62
7
  6
CONTINUOUS
 10
15.6963602735
 20
10.9307808812
 11
15.6968757353
 21
10.9316645521
  0
LINE
  5
2C1
100
AcDbEntity
  8
0
100
AcDbLine
 62
7
  6
CONTINUOUS
 10
16.5005280448
 20
13.3977467375
 11
16.4940859968
 21
13.4714693662
  0
LWPOLYLINE
  5
2C2
100
AcDbEntity
  8
0
100
AcDbPolyline
 62
7
  6
CONTINUOUS
 90
7
 70
0
 10
16.6151167826
 20
13.8631550647
 10
16.6148130931
 20
13.8678308983
 10
16.6148019531
 20
13.8812408431
 10
16.6159607946
 20
13.8967992917
 10
16.6182330351
 20
13.9124677944
 10
16.621246913
 20
13.9261655391
 10
16.6227314404
 20
13.9313753033
  0
LINE
  5
2C3
100
AcDbEntity
  8
0
100
AcDbLine
 62
7
  6
CONTINUOUS
 10
16.621754676
 20
13.7856561895
 11
16.6215567859
 21
13.7894592842
  0
LINE
  5
2C4
100
AcDbEntity
  8
0
100
AcDbLine
 62
7
  6
CONTINUOUS
 10
16.6417565645
 20
13.9967923468
 11
16.6415829617
 21
13.9923765492
  0
LINE
  5
2C5
100
AcDbEntity
  8
0
100
AcDbLine
 62
7
  6
CONTINUOUS
 10
16.5265005295
 20
13.6199677378
 11
16.5542700458
 21
13.6199677378
  0
LINE
  5
2C6
100
AcDbEntity
  8
0
100
AcDbLine
 62
7
  6
CONTINUOUS
 10
16.6215612065
 20
13.7894101923
 11
16.6151191585
 21
13.863132821
  0
LINE
  5
2C7
100
AcDbEntity
  8
0
100
AcDbLine
 62
7
  6
CONTINUOUS
 10
16.6417565645
 20
13.9967923468
 11
16.6218705607
 21
14.0948937318
  0
LINE
  5
2C8
100
AcDbEntity
  8
0
100
AcDbLine
 62
7
  6
CONTINUOUS
 10
16.5633358202
 20
14.1707003074
 11
15.285363691
 21
14.1707003074
  0
LINE
  5
2C9
100
AcDbEntity
  8
0
100
AcDbLine
 62
7
  6
CONTINUOUS
 10
16.617742336
 20
14.1067546092
 11
16.5939883917
 21
14.1551600582
  0
ARC
  5
2CA
100
AcDbEntity
  8
0
100
AcDbCircle
 62
7
  6
CONTINUOUS
 10
5.4686719938
 20
5.4701198968
 40
0.025
100
AcDbArc
 50
191.0
 51
270.0
  0
ARC
  5
2CB
100
AcDbEntity
  8
0
100
AcDbCircle
 62
7
  6
CONTINUOUS
 10
5.4978290351
 20
5.3201199227
 40
0.025
100
AcDbArc
 50
191.0000604691
 51
270.0000115377
  0
ARC
  5
2CC
100
AcDbEntity
  8
0
100
AcDbCircle
 62
7
  6
CONTINUOUS
 10
5.5116172762
 20
5.6422488016
 40
0.1
100
AcDbArc
 50
180.0
 51
191.0
  0
ARC
  5
2CD
100
AcDbEntity
  8
0
100
AcDbCircle
 62
7
  6
CONTINUOUS
 10
5.4366172762
 20
5.7201198968
 40
0.025
100
AcDbArc
 50
90.0
 51
180.0
  0
ARC
  5
2CE
100
AcDbEntity
  8
0
100
AcDbCircle
 62
7
  6
CONTINUOUS
 10
6.7629055122
 20
5.3201198968
 40
0.025
100
AcDbArc
 50
270.0
 51
349.0
  0
ARC
  5
2CF
100
AcDbEntity
  8
0
100
AcDbCircle
 62
7
  6
CONTINUOUS
 10
6.7920625586
 20
5.4701198968
 40
0.025
100
AcDbArc
 50
270.0
 51
349.0
  0
ARC
  5
2D0
100
AcDbEntity
  8
0
100
AcDbCircle
 62
7
  6
CONTINUOUS
 10
6.7491172762
 20
5.6422488016
 40
0.1
100
AcDbArc
 50
349.0
 51
360.0
  0
ARC
  5
2D1
100
AcDbEntity
  8
0
100
AcDbCircle
 62
7
  6
CONTINUOUS
 10
6.8241172762
 20
5.7201198968
 40
0.025
100
AcDbArc
 50
0.0
 51
90.0
  0
ARC
  5
2D2
100
AcDbEntity
  8
0
100
AcDbCircle
 62
7
  6
CONTINUOUS
 10
13.7324992181
 20
5.2731247044
 40
0.0375
100
AcDbArc
 50
193.0
 51
270.0
  0
ARC
  5
2D3
100
AcDbEntity
  8
0
100
AcDbCircle
 62
7
  6
CONTINUOUS
 10
13.8882112957
 20
5.2731247044
 40
0.0375
100
AcDbArc
 50
270.0
 51
347.0
  0
ARC
  5
2D4
100
AcDbEntity
  8
0
100
AcDbCircle
 62
7
  6
CONTINUOUS
 10
14.2324992181
 20
5.2731247044
 40
0.0375
100
AcDbArc
 50
193.0
 51
270.0
  0
ARC
  5
2D5
100
AcDbEntity
  8
0
100
AcDbCircle
 62
7
  6
CONTINUOUS
 10
14.3882112957
 20
5.2731247044
 40
0.0375
100
AcDbArc
 50
270.0
 51
347.0
  0
ARC
  5
2D6
100
AcDbEntity
  8
0
100
AcDbCircle
 62
7
  6
CONTINUOUS
 10
14.7324992181
 20
5.2731247044
 40
0.0375
100
AcDbArc
 50
193.0
 51
270.0
  0
ARC
  5
2D7
100
AcDbEntity
  8
0
100
AcDbCircle
 62
7
  6
CONTINUOUS
 10
14.8882112957
 20
5.2731247044
 40
0.0375
100
AcDbArc
 50
270.0
 51
347.0
  0
ARC
  5
2D8
100
AcDbEntity
  8
0
100
AcDbCircle
 62
7
  6
CONTINUOUS
 10
15.2324992181
 20
5.2731247044
 40
0.0375
100
AcDbArc
 50
193.0
 51
270.0
  0
ARC
  5
2D9
100
AcDbEntity
  8
0
100
AcDbCircle
 62
7
  6
CONTINUOUS
 10
15.3882112957
 20
5.2731247044
 40
0.0375
100
AcDbArc
 50
270.0
 51
347.0
  0
ARC
  5
2DA
100
AcDbEntity
  8
0
100
AcDbCircle
 62
7
  6
CONTINUOUS
 10
13.6382112957
 20
5.3481247044
 40
0.0375
100
AcDbArc
 50
13.0
 51
90.0
  0
ARC
  5
2DB
100
AcDbEntity
  8
0
100
AcDbCircle
 62
7
  6
CONTINUOUS
 10
13.9824992181
 20
5.3481247044
 40
0.0375
100
AcDbArc
 50
90.0
 51
167.0
  0
ARC
  5
2DC
100
AcDbEntity
  8
0
100
AcDbCircle
 62
7
  6
CONTINUOUS
 10
14.1382112957
 20
5.3481247044
 40
0.0375
100
AcDbArc
 50
13.0
 51
90.0
  0
ARC
  5
2DD
100
AcDbEntity
  8
0
100
AcDbCircle
 62
7
  6
CONTINUOUS
 10
14.4824992181
 20
5.3481247044
 40
0.0375
100
AcDbArc
 50
90.0
 51
167.0
  0
ARC
  5
2DE
100
AcDbEntity
  8
0
100
AcDbCircle
 62
7
  6
CONTINUOUS
 10
14.6382112957
 20
5.3481247044
 40
0.0375
100
AcDbArc
 50
13.0
 51
90.0
  0
ARC
  5
2DF
100
AcDbEntity
  8
0
100
AcDbCircle
 62
7
  6
CONTINUOUS
 10
14.9824992181
 20
5.3481247044
 40
0.0375
100
AcDbArc
 50
90.0
 51
167.0
  0
ARC
  5
2E0
100
AcDbEntity
  8
0
100
AcDbCircle
 62
7
  6
CONTINUOUS
 10
15.1382112957
 20
5.3481247044
 40
0.0375
100
AcDbArc
 50
13.0
 51
90.0
  0
ARC
  5
2E1
100
AcDbEntity
  8
0
100
AcDbCircle
 62
7
  6
CONTINUOUS
 10
15.4824992181
 20
5.3481247044
 40
0.0375
100
AcDbArc
 50
90.0
 51
167.0
  0
ARC
  5
2E2
100
AcDbEntity
  8
0
100
AcDbCircle
 62
7
  6
CONTINUOUS
 10
17.3882112957
 20
5.2731247044
 40
0.0375
100
AcDbArc
 50
270.0
 51
347.0
  0
ARC
  5
2E3
100
AcDbEntity
  8
0
100
AcDbCircle
 62
7
  6
CONTINUOUS
 10
17.2324992181
 20
5.2731247044
 40
0.0375
100
AcDbArc
 50
193.0
 51
270.0
  0
ARC
  5
2E4
100
AcDbEntity
  8
0
100
AcDbCircle
 62
7
  6
CONTINUOUS
 10
16.8882112957
 20
5.2731247044
 40
0.0375
100
AcDbArc
 50
270.0
 51
347.0
  0
ARC
  5
2E5
100
AcDbEntity
  8
0
100
AcDbCircle
 62
7
  6
CONTINUOUS
 10
16.7324992181
 20
5.2731247044
 40
0.0375
100
AcDbArc
 50
193.0
 51
270.0
  0
ARC
  5
2E6
100
AcDbEntity
  8
0
100
AcDbCircle
 62
7
  6
CONTINUOUS
 10
16.3882112957
 20
5.2731247044
 40
0.0375
100
AcDbArc
 50
270.0
 51
347.0
  0
ARC
  5
2E7
100
AcDbEntity
  8
0
100
AcDbCircle
 62
7
  6
CONTINUOUS
 10
16.2324992181
 20
5.2731247044
 40
0.0375
100
AcDbArc
 50
193.0
 51
270.0
  0
ARC
  5
2E8
100
AcDbEntity
  8
0
100
AcDbCircle
 62
7
  6
CONTINUOUS
 10
15.8882112957
 20
5.2731247044
 40
0.0375
100
AcDbArc
 50
270.0
 51
347.0
  0
ARC
  5
2E9
100
AcDbEntity
  8
0
100
AcDbCircle
 62
7
  6
CONTINUOUS
 10
15.7324992181
 20
5.2731247044
 40
0.0375
100
AcDbArc
 50
193.0
 51
270.0
  0
ARC
  5
2EA
100
AcDbEntity
  8
0
100
AcDbCircle
 62
7
  6
CONTINUOUS
 10
17.4824992181
 20
5.3481247044
 40
0.0375
100
AcDbArc
 50
90.0
 51
167.0
  0
ARC
  5
2EB
100
AcDbEntity
  8
0
100
AcDbCircle
 62
7
  6
CONTINUOUS
 10
17.1382112957
 20
5.3481247044
 40
0.0375
100
AcDbArc
 50
13.0
 51
90.0
  0
ARC
  5
2EC
100
AcDbEntity
  8
0
100
AcDbCircle
 62
7
  6
CONTINUOUS
 10
16.9824992181
 20
5.3481247044
 40
0.0375
100
AcDbArc
 50
90.0
 51
167.0
  0
ARC
  5
2ED
100
AcDbEntity
  8
0
100
AcDbCircle
 62
7
  6
CONTINUOUS
 10
16.6382112957
 20
5.3481247044
 40
0.0375
100
AcDbArc
 50
13.0
 51
90.0
  0
ARC
  5
2EE
100
AcDbEntity
  8
0
100
AcDbCircle
 62
7
  6
CONTINUOUS
 10
16.4824992181
 20
5.3481247044
 40
0.0375
100
AcDbArc
 50
90.0
 51
167.0
  0
ARC
  5
2EF
100
AcDbEntity
  8
0
100
AcDbCircle
 62
7
  6
CONTINUOUS
 10
16.1382112957
 20
5.3481247044
 40
0.0375
100
AcDbArc
 50
13.0
 51
90.0
  0
ARC
  5
2F0
100
AcDbEntity
  8
0
100
AcDbCircle
 62
7
  6
CONTINUOUS
 10
15.9824992181
 20
5.3481247044
 40
0.0375
100
AcDbArc
 50
90.0
 51
167.0
  0
ARC
  5
2F1
100
AcDbEntity
  8
0
100
AcDbCircle
 62
7
  6
CONTINUOUS
 10
15.6382112957
 20
5.3481247044
 40
0.0375
100
AcDbArc
 50
13.0
 51
90.0
  0
SPLINE
  5
2F2
100
AcDbEntity
  8
0
100
AcDbSpline
 62
7
  6
CONTINUOUS
 70
0
 71
3
 72
15
 73
11
 74
0
 42
0.0000001
 43
0.0000001
 44
0.0000000001
 40
0.0
 40
0.0
 40
0.0
 40
0.0
 40
0.1295685032
 40
0.2645756426
 40
0.4012660048
 40
0.5362717002
 40
0.6662157456
 40
0.7881011106
 40
0.8998143761
 40
1.0
 40
1.0
 40
1.0
 40
1.0
 10
16.5633358202
 20
14.1707003074
 30
0.0
 10
16.5648840786
 20
14.1707003074
 30
0.0
 10
16.56804803
 20
14.1704850791
 30
0.0
 10
16.5727705456
 20
14.1696011879
 30
0.0
 10
16.5774268533
 20
14.1681737356
 30
0.0
 10
16.5818387207
 20
14.1662584161
 30
0.0
 10
16.5858449099
 20
14.1639297309
 30
0.0
 10
16.5892969926
 20
14.1612683979
 30
0.0
 10
16.5920628446
 20
14.1583723516
 30
0.0
 10
16.593460995
 20
14.1562347797
 30
0.0
 10
16.5939883917
 20
14.1551600582
 30
0.0
  0
SPLINE
  5
2F3
100
AcDbEntity
  8
0
100
AcDbSpline
 62
7
  6
CONTINUOUS
 70
0
 71
3
 72
15
 73
11
 74
0
 42
0.0000001
 43
0.0000001
 44
0.0000000001
 40
0.0
 40
0.0
 40
0.0
 40
0.0
 40
0.0996460676
 40
0.2028720334
 40
0.3125943348
 40
0.4308572919
 40
0.5588154257
 40
0.6968314503
 40
0.844398437
 40
1.0
 40
1.0
 40
1.0
 40
1.0
 10
15.2691042011
 20
14.1625412508
 30
0.0
 10
15.2692943162
 20
14.1631564921
 30
0.0
 10
15.2698329556
 20
14.1643674353
 30
0.0
 10
15.2710639445
 20
14.1659883804
 30
0.0
 10
15.2726873324
 20
14.1674035474
 30
0.0
 10
15.2746714979
 20
14.1685876062
 30
0.0
 10
15.2769790406
 20
14.1695262372
 30
0.0
 10
15.2795706547
 20
14.1702049631
 30
0.0
 10
15.2823975299
 20
14.1706126247
 30
0.0
 10
15.284358143
 20
14.1707003074
 30
0.0
 10
15.285363691
 20
14.1707003074
 30
0.0
  0
SPLINE
  5
2F4
100
AcDbEntity
  8
0
100
AcDbSpline
 62
7
  6
CONTINUOUS
 70
0
 71
3
 72
11
 73
7
 74
0
 42
0.0000001
 43
0.0000001
 44
0.0000000001
 40
0.0
 40
0.0
 40
0.0
 40
0.0
 40
0.2336945428
 40
0.474728071
 40
0.7289544318
 40
1.0
 40
1.0
 40
1.0
 40
1.0
 10
14.3008389074
 20
11.0292336123
 30
0.0
 10
14.3006640527
 20
11.0286677562
 30
0.0
 10
14.3004337411
 20
11.0274756086
 30
0.0
 10
14.3004760318
 20
11.0256163303
 30
0.0
 10
14.3008938395
 20
11.0237091553
 30
0.0
 10
14.3013953037
 20
11.0224690854
 30
0.0
 10
14.3016979192
 20
11.0218524197
 30
0.0
  0
SPLINE
  5
2F5
100
AcDbEntity
  8
0
100
AcDbSpline
 62
7
  6
CONTINUOUS
 70
0
 71
3
 72
9
 73
5
 74
0
 42
0.0000001
 43
0.0000001
 44
0.0000000001
 40
0.0
 40
0.0
 40
0.0
 40
0.0
 40
0.5134075856
 40
1.0
 40
1.0
 40
1.0
 40
1.0
 10
16.617742336
 20
14.1067546092
 30
0.0
 10
16.6186911177
 20
14.1048211953
 30
0.0
 10
16.6203317078
 20
14.1009484008
 30
0.0
 10
16.6214650434
 20
14.0968942248
 30
0.0
 10
16.6218705607
 20
14.0948937318
 30
0.0
  0
SPLINE
  5
2F6
100
AcDbEntity
  8
0
100
AcDbSpline
 62
7
  6
CONTINUOUS
 70
0
 71
3
 72
14
 73
10
 74
0
 42
0.0000001
 43
0.0000001
 44
0.0000000001
 40
0.0
 40
0.0
 40
0.0
 40
0.0
 40
0.1555869094
 40
0.3032339811
 40
0.5688651197
 40
0.6871855247
 40
0.7969113288
 40
0.9001855305
 40
1.0
 40
1.0
 40
1.0
 40
1.0
 10
15.6570587365
 20
10.8509096784
 30
0.0
 10
15.6580636098
 20
10.8509096784
 30
0.0
 10
15.6600243875
 20
10.8509976569
 30
0.0
 10
15.6636624616
 20
10.8515224331
 30
0.0
 10
15.666983756
 20
10.8525664958
 30
0.0
 10
15.6697343179
 20
10.8542054526
 30
0.0
 10
15.6713580852
 20
10.8556198491
 30
0.0
 10
15.6725884299
 20
10.8572414214
 30
0.0
 10
15.6731280542
 20
10.8584527654
 30
0.0
 10
15.6733176551
 20
10.8590689147
 30
0.0
  0
SPLINE
  5
2F7
100
AcDbEntity
  8
0
100
AcDbSpline
 62
7
  6
CONTINUOUS
 70
0
 71
3
 72
15
 73
11
 74
0
 42
0.0000001
 43
0.0000001
 44
0.0000000001
 40
0.0
 40
0.0
 40
0.0
 40
0.0
 40
0.1075856617
 40
0.2244583962
 40
0.3487083269
 40
0.4782296551
 40
0.6107075103
 40
0.7436377494
 40
0.8743953829
 40
1.0
 40
1.0
 40
1.0
 40
1.0
 10
14.4093609164
 20
10.8634847083
 30
0.0
 10
14.4100735773
 20
10.8625695724
 30
0.0
 10
14.41172677
 20
10.8607874962
 30
0.0
 10
14.414637826
 20
10.8583942669
 30
0.0
 10
14.4180133153
 20
10.8562393121
 30
0.0
 10
14.4217478076
 20
10.854380615
 30
0.0
 10
14.4257375139
 20
10.8528740618
 30
0.0
 10
14.4298678061
 20
10.8517588991
 30
0.0
 10
14.4340156191
 20
10.851075539
 30
0.0
 10
14.4367811463
 20
10.8509096784
 30
0.0
 10
14.4381353075
 20
10.8509096784
 30
0.0
  0
SPLINE
  5
2F8
100
AcDbEntity
  8
0
100
AcDbSpline
 62
7
  6
CONTINUOUS
 70
0
 71
3
 72
9
 73
5
 74
0
 42
0.0000001
 43
0.0000001
 44
0.0000000001
 40
0.0
 40
0.0
 40
0.0
 40
0.0
 40
0.2397652029
 40
1.0
 40
1.0
 40
1.0
 40
1.0
 10
14.3254518635
 20
10.9734469707
 30
0.0
 10
14.3259466976
 20
10.9724386048
 30
0.0
 10
14.328132693
 20
10.9682932061
 30
0.0
 10
14.3307763348
 20
10.9643960501
 30
0.0
 10
14.3329645851
 20
10.9615860933
 30
0.0
  0
SPLINE
  5
2F9
100
AcDbEntity
  8
0
100
AcDbSpline
 62
7
  6
CONTINUOUS
 70
0
 71
3
 72
9
 73
5
 74
0
 42
0.0000001
 43
0.0000001
 44
0.0000000001
 40
0.0
 40
0.0
 40
0.0
 40
0.0
 40
0.4865924144
 40
1.0
 40
1.0
 40
1.0
 40
1.0
 10
15.6536052671
 20
10.9615860933
 30
0.0
 10
15.6531997498
 20
10.9635865863
 30
0.0
 10
15.6520664141
 20
10.9676407623
 30
0.0
 10
15.6504258241
 20
10.9715135568
 30
0.0
 10
15.6494770423
 20
10.9734469707
 30
0.0
  0
SPLINE
  5
2FA
100
AcDbEntity
  8
0
100
AcDbSpline
 62
7
  6
CONTINUOUS
 70
0
 71
3
 72
15
 73
11
 74
0
 42
0.0000001
 43
0.0000001
 44
0.0000000001
 40
0.0
 40
0.0
 40
0.0
 40
0.0
 40
0.1001856239
 40
0.2118988894
 40
0.3337842544
 40
0.4637282998
 40
0.5987339952
 40
0.7354243574
 40
0.8704314968
 40
1.0
 40
1.0
 40
1.0
 40
1.0
 10
15.6257230981
 20
11.0218524197
 30
0.0
 10
15.6251957014
 20
11.0229271412
 30
0.0
 10
15.623797551
 20
11.0250647131
 30
0.0
 10
15.6210316989
 20
11.0279607593
 30
0.0
 10
15.6175796162
 20
11.0306220924
 30
0.0
 10
15.6135734271
 20
11.0329507776
 30
0.0
 10
15.6091615596
 20
11.0348660971
 30
0.0
 10
15.604505252
 20
11.0362935494
 30
0.0
 10
15.5997827364
 20
11.0371774406
 30
0.0
 10
15.5966187849
 20
11.0373926689
 30
0.0
 10
15.5950705266
 20
11.0373926689
 30
0.0
  0
SPLINE
  5
2FB
100
AcDbEntity
  8
0
100
AcDbSpline
 62
7
  6
CONTINUOUS
 70
0
 71
3
 72
15
 73
11
 74
0
 42
0.0000001
 43
0.0000001
 44
0.0000000001
 40
0.0
 40
0.0
 40
0.0
 40
0.0
 40
0.155601563
 40
0.3031685497
 40
0.4411845743
 40
0.5691427081
 40
0.6874056652
 40
0.7971279666
 40
0.9003539324
 40
1.0
 40
1.0
 40
1.0
 40
1.0
 10
14.3170983974
 20
11.0373926689
 30
0.0
 10
14.3160928494
 20
11.0373926689
 30
0.0
 10
14.3141322363
 20
11.0373049862
 30
0.0
 10
14.3113053611
 20
11.0368973246
 30
0.0
 10
14.308713747
 20
11.0362185987
 30
0.0
 10
14.3064062042
 20
11.0352799676
 30
0.0
 10
14.3044220388
 20
11.0340959089
 30
0.0
 10
14.3027986509
 20
11.0326807419
 30
0.0
 10
14.301567662
 20
11.0310597968
 30
0.0
 10
14.3010290226
 20
11.0298488536
 30
0.0
 10
14.3008389074
 20
11.0292336123
 30
0.0
  0
ENDSEC
  0
SECTION
  2
OBJECTS
  0
DICTIONARY
  5
C
100
AcDbDictionary
280
0
281
1
  3
ACAD_GROUP
350
D
  3
ACAD_MLINESTYLE
350
17
  3
ACAD_LAYOUT
350
1A
  3
ACAD_PLOTSETTINGS
350
19
  3
ACAD_PLOTSTYLENAME
350
E
  0
DICTIONARY
  5
D
102
{ACAD_REACTORS
330
C
102
}
100
AcDbDictionary
280
0
281
1
  0
ACDBDICTIONARYWDFLT
  5
E
102
{ACAD_REACTORS
330
C
102
}
100
AcDbDictionary
281
1
  3
Normal
350
F
100
AcDbDictionaryWithDefault
340
F
  0
DICTIONARY
  5
17
102
{ACAD_REACTORS
330
C
102
}
100
AcDbDictionary
280
0
281
1
  3
Standard
350
18
  0
DICTIONARY
  5
19
102
{ACAD_REACTORS
330
C
102
}
100
AcDbDictionary
281
1
  0
DICTIONARY
  5
1A
102
{ACAD_REACTORS
330
C
102
}
100
AcDbDictionary
281
1
  3
Model
350
2FC
  3
Layout1
350
2FD
  0
ACDBPLACEHOLDER
  5
F
102
{ACAD_REACTORS
330
E
102
}
  0
MLINESTYLE
  5
18
102
{ACAD_REACTORS
330
17
102
}
100
AcDbMlineStyle
  2
STANDARD
 70
0
  3

 62
256
 51
90.0
 52
90.0
 71
2
 49
0.5
 62
256
  6
BYLAYER
 49
-0.5
 62
256
  6
BYLAYER
  0
LAYOUT
  5
2FC
102
{ACAD_REACTORS
330
1A
102
}
100
AcDbPlotSettings
  1

  2
none_device
  4
ANSI_C_(22.00_x_17.00_Inches)
  6

 40
0.0
 41
0.0
 42
0.0
 43
0.0
 44
558.8
 45
431.8
 46
0.0
 47
0.0
 48
0.0
 49
0.0
140
0.0
141
0.0
142
1.0
143
1.0
 70
1024
 72
0
 73
0
 74
0
  7

 75
0
147
1.0
148
0.0
149
0.0
100
AcDbLayout
  1
Model
 70
0
 71
0
 10
0.0
 20
0.0
 11
22.0
 21
17.0
 12
0.0
 22
0.0
 32
0.0
 14
0.0
 24
0.0
 34
0.0
 15
0.0
 25
0.0
 35
0.0
146
0.0
 13
0.0
 23
0.0
 33
0.0
 16
1.0
 26
0.0
 36
0.0
 17
0.0
 27
1.0
 37
0.0
 76
0
330
216
345
0
346
0
  0
LAYOUT
  5
2FD
102
{ACAD_REACTORS
330
1A
102
}
100
AcDbPlotSettings
  1

  2
none_device
  4
ANSI_C_(22.00_x_17.00_Inches)
  6

 40
0.0
 41
0.0
 42
0.0
 43
0.0
 44
558.8
 45
431.8
 46
0.0
 47
0.0
 48
0.0
 49
0.0
140
0.0
141
0.0
142
1.0
143
1.0
 70
0
 72
0
 73
0
 74
0
  7

 75
0
147
1.0
148
0.0
149
0.0
100
AcDbLayout
  1
Layout1
 70
0
 71
1
 10
0.0
 20
0.0
 11
22.0
 21
17.0
 12
0.0
 22
0.0
 32
0.0
 14
0.0
 24
0.0
 34
0.0
 15
0.0
 25
0.0
 35
0.0
146
0.0
 13
0.0
 23
0.0
 33
0.0
 16
1.0
 26
0.0
 36
0.0
 17
0.0
 27
1.0
 37
0.0
 76
0
330
217
345
0
346
0
  0
ENDSEC
  0
EOF