999
DXF file: _cgs_temp_output.dxf
999
Pro/ENGINEER 2016360 by Parametric Technology Corporation
  0
SECTION
  2
HEADER
  9
$ACADVER
  1
AC1021
  9
$DWGCODEPAGE
  3
ANSI_1252
  9
$EXTMAX
 10
22.0
 20
17.0
 30
0.0
  9
$EXTMIN
 10
0.0
 20
0.0
 30
0.0
  9
$LIMMIN
 10
0.0
 20
0.0
  9
$LIMMAX
 10
22.0
 20
17.0
  9
$VIEWCTR
 10
11.0
 20
8.5
  9
$VIEWSIZE
 40
17.0
  9
$CLAYER
  8
0
  9
$LTSCALE
 40
1.21
  9
$CELTYPE
  6
BYLAYER
  9
$DIMSCALE
 40
1.0
  9
$DIMASZ
 40
0.1875
  9
$DIMEXO
 40
0.0625
  9
$DIMDLI
 40
0.836
  9
$DIMEXE
 40
0.125
  9
$DIMCEN
 40
0.198
  9
$DIMLFAC
 40
1.0
  9
$DIMBLK
  1
_CLOSED
  9
$DIMALT
 70
0
  9
$DIMALTF
 40
25.4
  9
$DIMTXT
 40
0.15625
  9
$DIMTOL
 70
0
  9
$DIMLIM
 70
0
  9
$DIMTFAC
 40
1.0
  9
$DIMGAP
 40
0.09
  9
$DIMDSEP
 70
46
  9
$AUNITS
 70
0
  9
$PDMODE
 70
3
  9
$PDSIZE
 40
0.3125
  9
$HANDSEED
  5
308
  9
$TILEMODE
 70
1
  9
$MEASUREMENT
 70
0
  9
$INSUNITS
 70
1
  0
ENDSEC
  0
SECTION
  2
CLASSES
  0
CLASS
  1
ACDBDICTIONARYWDFLT
  2
AcDbDictionaryWithDefault
  3
AutoCAD 2000
 90
0
 91
1
280
0
281
0
  0
CLASS
  1
ACDBPLACEHOLDER
  2
AcDbPlaceHolder
  3
AutoCAD 2000
 90
0
 91
1
280
0
281
0
  0
CLASS
  1
LAYOUT
  2
AcDbLayout
  3
AutoCAD 2000
 90
0
 91
0
280
0
281
0
  0
ENDSEC
  0
SECTION
  2
TABLES
  0
TABLE
  2
VPORT
  5
8
100
AcDbSymbolTable
 70
2
  0
VPORT
  5
1F4
100
AcDbSymbolTableRecord
100
AcDbViewportTableRecord
  2
*ACTIVE
 70
0
 10
0.0
 20
0.0
 11
1.0
 21
1.0
 12
11.0
 22
8.5
 13
0.0
 23
0.0
 14
1.0
 24
1.0
 15
0.0
 25
0.0
 16
0.0
 26
0.0
 36
1.0
 17
0.0
 27
0.0
 37
0.0
 40
17.0
 41
1.2941176471
 42
50.0
 43
0.0
 44
0.0
 50
0.0
 51
0.0
 71
0
 72
100
 73
1
 74
1
 75
0
 76
0
 77
0
 78
0
  0
ENDTAB
  0
TABLE
  2
LTYPE
  5
5
100
AcDbSymbolTable
 70
6
  0
LTYPE
  5
14
100
AcDbSymbolTableRecord
100
AcDbLinetypeTableRecord
  2
BYBLOCK
 70
0
  3

 72
65
 73
0
 40
0.0
  0
LTYPE
  5
15
100
AcDbSymbolTableRecord
100
AcDbLinetypeTableRecord
  2
BYLAYER
 70
0
  3

 72
65
 73
0
 40
0.0
  0
LTYPE
  5
16
100
AcDbSymbolTableRecord
100
AcDbLinetypeTableRecord
  2
CONTINUOUS
 70
64
  3
Solid line
 72
65
 73
0
 40
0.0
  0
LTYPE
  5
1F5
100
AcDbSymbolTableRecord
100
AcDbLinetypeTableRecord
  2
CENTER
 70
64
  3
____ _ ____ _ ____ _ ____ _ ____ _ ____ _ ____
 72
65
 73
4
 40
0.6
 49
0.375
 74
0
 49
-0.075
 74
0
 49
0.075
 74
0
 49
-0.075
 74
0
  0
LTYPE
  5
1F6
100
AcDbSymbolTableRecord
100
AcDbLinetypeTableRecord
  2
HIDDEN
 70
64
  3
- - - - - - - - - - - - - - - - - - - -
 72
65
 73
2
 40
0.2
 49
0.1
 74
0
 49
-0.1
 74
0
  0
LTYPE
  5
1F7
100
AcDbSymbolTableRecord
100
AcDbLinetypeTableRecord
  2
PHANTOM
 70
64
  3
_____ _ _ _____ _ _ _____ _ _ _____
 72
65
 73
6
 40
0.8
 49
0.45
 74
0
 49
-0.05
 74
0
 49
0.1
 74
0
 49
-0.05
 74
0
 49
0.1
 74
0
 49
-0.05
 74
0
  0
LTYPE
  5
1F8
100
AcDbSymbolTableRecord
100
AcDbLinetypeTableRecord
  2
DOT
 70
64
  3
. . . . . . . . . . . . . . . . . . . .
 72
65
 73
2
 40
0.2
 49
0.1
 74
0
 49
-0.1
 74
0
  0
LTYPE
  5
1F9
100
AcDbSymbolTableRecord
100
AcDbLinetypeTableRecord
  2
DASHED
 70
64
  3
- - - - - - - - - - - - - - - - - - - -
 72
65
 73
2
 40
0.2
 49
0.1
 74
0
 49
-0.1
 74
0
  0
ENDTAB
  0
TABLE
  2
LAYER
  5
2
100
AcDbSymbolTable
 70
36
  0
LAYER
  5
10
100
AcDbSymbolTableRecord
100
AcDbLayerTableRecord
  2
0
 70
0
 62
7
  6
CONTINUOUS
370
-3
390
F
  0
LAYER
  5
1FA
100
AcDbSymbolTableRecord
100
AcDbLayerTableRecord
  2
DEFAULT_1
 70
0
 62
7
  6
CENTER
370
-3
390
F
  0
LAYER
  5
1FB
100
AcDbSymbolTableRecord
100
AcDbLayerTableRecord
  2
DEFAULT_2
 70
0
 62
8
  6
HIDDEN
370
-3
390
F
  0
LAYER
  5
1FC
100
AcDbSymbolTableRecord
100
AcDbLayerTableRecord
  2
DEFAULT_3
 70
0
 62
7
  6
PHANTOM
370
-3
390
F
  0
LAYER
  5
1FD
100
AcDbSymbolTableRecord
100
AcDbLayerTableRecord
  2
01_ALL_DTM_PLN
 70
0
 62
7
  6
CONTINUOUS
370
-3
390
F
  0
LAYER
  5
1FE
100
AcDbSymbolTableRecord
100
AcDbLayerTableRecord
  2
01__ASM_ALL_DTM_PLN
 70
0
 62
7
  6
CONTINUOUS
370
-3
390
F
  0
LAYER
  5
1FF
100
AcDbSymbolTableRecord
100
AcDbLayerTableRecord
  2
01__ASM_DEF_DTM_PLN
 70
0
 62
7
  6
CONTINUOUS
370
-3
390
F
  0
LAYER
  5
200
100
AcDbSymbolTableRecord
100
AcDbLayerTableRecord
  2
01___PRT_ALL_DTM_PLN
 70
0
 62
7
  6
CONTINUOUS
370
-3
390
F
  0
LAYER
  5
201
100
AcDbSymbolTableRecord
100
AcDbLayerTableRecord
  2
01___PRT_DEF_DTM_PLN
 70
0
 62
7
  6
CONTINUOUS
370
-3
390
F
  0
LAYER
  5
202
100
AcDbSymbolTableRecord
100
AcDbLayerTableRecord
  2
02_ALL_AXES
 70
0
 62
7
  6
CONTINUOUS
370
-3
390
F
  0
LAYER
  5
203
100
AcDbSymbolTableRecord
100
AcDbLayerTableRecord
  2
02__ASM_ALL_AXES
 70
0
 62
7
  6
CONTINUOUS
370
-3
390
F
  0
LAYER
  5
204
100
AcDbSymbolTableRecord
100
AcDbLayerTableRecord
  2
02___PRT_ALL_AXES
 70
0
 62
7
  6
CONTINUOUS
370
-3
390
F
  0
LAYER
  5
205
100
AcDbSymbolTableRecord
100
AcDbLayerTableRecord
  2
03_ALL_CURVES
 70
0
 62
7
  6
CONTINUOUS
370
-3
390
F
  0
LAYER
  5
206
100
AcDbSymbolTableRecord
100
AcDbLayerTableRecord
  2
03__ASM_ALL_CURVES
 70
0
 62
7
  6
CONTINUOUS
370
-3
390
F
  0
LAYER
  5
207
100
AcDbSymbolTableRecord
100
AcDbLayerTableRecord
  2
03___PRT_ALL_CURVES
 70
0
 62
7
  6
CONTINUOUS
370
-3
390
F
  0
LAYER
  5
208
100
AcDbSymbolTableRecord
100
AcDbLayerTableRecord
  2
04_ALL_DTM_PNT
 70
0
 62
7
  6
CONTINUOUS
370
-3
390
F
  0
LAYER
  5
209
100
AcDbSymbolTableRecord
100
AcDbLayerTableRecord
  2
04__ASM_ALL_DTM_PNT
 70
0
 62
7
  6
CONTINUOUS
370
-3
390
F
  0
LAYER
  5
20A
100
AcDbSymbolTableRecord
100
AcDbLayerTableRecord
  2
04___PRT_ALL_DTM_PNT
 70
0
 62
7
  6
CONTINUOUS
370
-3
390
F
  0
LAYER
  5
20B
100
AcDbSymbolTableRecord
100
AcDbLayerTableRecord
  2
05_ALL_DTM_CSYS
 70
0
 62
7
  6
CONTINUOUS
370
-3
390
F
  0
LAYER
  5
20C
100
AcDbSymbolTableRecord
100
AcDbLayerTableRecord
  2
05__ASM_ALL_DTM_CSYS
 70
0
 62
7
  6
CONTINUOUS
370
-3
390
F
  0
LAYER
  5
20D
100
AcDbSymbolTableRecord
100
AcDbLayerTableRecord
  2
05__ASM_DEF_DTM_CSYS
 70
0
 62
7
  6
CONTINUOUS
370
-3
390
F
  0
LAYER
  5
20E
100
AcDbSymbolTableRecord
100
AcDbLayerTableRecord
  2
05___PRT_ALL_DTM_CSYS
 70
0
 62
7
  6
CONTINUOUS
370
-3
390
F
  0
LAYER
  5
20F
100
AcDbSymbolTableRecord
100
AcDbLayerTableRecord
  2
05___PRT_DEF_DTM_CSYS
 70
0
 62
7
  6
CONTINUOUS
370
-3
390
F
  0
LAYER
  5
210
100
AcDbSymbolTableRecord
100
AcDbLayerTableRecord
  2
06_ALL_SURFS
 70
0
 62
7
  6
CONTINUOUS
370
-3
390
F
  0
LAYER
  5
211
100
AcDbSymbolTableRecord
100
AcDbLayerTableRecord
  2
06__ASM_ALL_SURFS
 70
0
 62
7
  6
CONTINUOUS
370
-3
390
F
  0
LAYER
  5
212
100
AcDbSymbolTableRecord
100
AcDbLayerTableRecord
  2
06___PRT_ALL_SURFS
 70
0
 62
7
  6
CONTINUOUS
370
-3
390
F
  0
LAYER
  5
213
100
AcDbSymbolTableRecord
100
AcDbLayerTableRecord
  2
07__ASM_ALL_SKELETONS
 70
0
 62
7
  6
CONTINUOUS
370
-3
390
F
  0
ENDTAB
  0
TABLE
  2
STYLE
  5
3
100
AcDbSymbolTable
 70
1
  0
STYLE
  5
11
100
AcDbSymbolTableRecord
100
AcDbTextStyleTableRecord
  2
STANDARD
 70
0
 40
0.0
 41
0.8
 50
0.0
 71
0
 42
0.2
  3
txt
  4

  0
STYLE
  5
214
100
AcDbSymbolTableRecord
100
AcDbTextStyleTableRecord
  2
TEXTSTYLE_1
 70
0
 40
0.0
 41
0.8
 50
0.0
 71
0
 42
0.2
  3
gdt
  4

  0
ENDTAB
  0
TABLE
  2
VIEW
  5
6
100
AcDbSymbolTable
 70
0
  0
ENDTAB
  0
TABLE
  2
UCS
  5
7
100
AcDbSymbolTable
 70
0
  0
ENDTAB
  0
TABLE
  2
APPID
  5
9
100
AcDbSymbolTable
 70
1
  0
APPID
  5
215
100
AcDbSymbolTableRecord
100
AcDbRegAppTableRecord
  2
ACAD
 70
0
  0
ENDTAB
  0
TABLE
  2
BLOCK_RECORD
  5
1
100
AcDbSymbolTable
 70
0
  0
BLOCK_RECORD
  5
216
100
AcDbSymbolTableRecord
100
AcDbBlockTableRecord
  2
*Model_Space
  0
BLOCK_RECORD
  5
217
100
AcDbSymbolTableRecord
100
AcDbBlockTableRecord
  2
*Paper_Space
  0
ENDTAB
  0
TABLE
  2
DIMSTYLE
  5
A
100
AcDbSymbolTable
 70
1
100
AcDbDimStyleTable
 71
0
  0
DIMSTYLE
105
218
100
AcDbSymbolTableRecord
100
AcDbDimStyleTableRecord
  2
STANDARD
 70
0
  3

  4

 40
1.0
 41
0.1875
 42
0.0625
 43
0.38
 44
0.125
 45
0.0
 46
0.0
 47
0.0001
 48
0.0001
140
0.15625
141
0.09
142
0.0
143
25.4
144
1.0
145
0.0
146
1.0
147
0.09
 71
0.0
 72
0.0
 73
1
 74
1
 75
0
 76
0
 77
0
 78
4
 79
1
170
0
171
3
172
0
173
0
174
0
175
0
176
0
177
0
178
0
270
2
179
4
271
4
272
4
273
2
274
2
275
0
280
0
281
0
282
0
283
1
284
4
285
0
286
0
287
3
288
0
340
11
278
46
  0
ENDTAB
  0
ENDSEC
  0
SECTION
  2
BLOCKS
  0
BLOCK
  5
20
100
AcDbEntity
  8
0
100
AcDbBlockBegin
  2
*Model_Space
 70
0
 10
0.0
 20
0.0
 30
0.0
  3
*Model_Space
  1

  0
ENDBLK
  5
21
100
AcDbEntity
  8
0
100
AcDbBlockEnd
  0
BLOCK
  5
1C
100
AcDbEntity
  8
0
100
AcDbBlockBegin
  2
*Paper_Space
 70
0
 10
0.0
 20
0.0
 30
0.0
  3
*Paper_Space
  1

  0
ENDBLK
  5
1D
100
AcDbEntity
  8
0
100
AcDbBlockEnd
  0
ENDSEC
  0
SECTION
  2
ENTITIES
  0
MTEXT
  5
219
100
AcDbEntity
  8
0
100
AcDbMText
 62
7
  6
CONTINUOUS
  7
STANDARD
 71
1
 72
1
 10
15.9560215477
 20
0.9479130325
 30
0.0
 11
1.0
 21
0.0
 31
0.0
 44
0.9
  1
SCALE: 1:1.000
 40
0.3
 41
3.36
  0
LINE
  5
21A
100
AcDbEntity
  8
0
100
AcDbLine
 62
7
  6
CONTINUOUS
 10
0.0
 20
0.0
 11
0.0
 21
17.0
  0
LINE
  5
21B
100
AcDbEntity
  8
0
100
AcDbLine
 62
7
  6
CONTINUOUS
 10
0.0
 20
0.0
 11
22.0
 21
0.0
  0
LINE
  5
21C
100
AcDbEntity
  8
0
100
AcDbLine
 62
7
  6
CONTINUOUS
 10
0.0
 20
17.0
 11
22.0
 21
17.0
  0
LINE
  5
21D
100
AcDbEntity
  8
0
100
AcDbLine
 62
7
  6
CONTINUOUS
 10
22.0
 20
0.0
 11
22.0
 21
17.0
  0
LINE
  5
21E
100
AcDbEntity
  8
0
100
AcDbLine
 62
7
  6
CONTINUOUS
 10
5.3803672762
 20
5.7251198968
 11
5.3803672762
 21
5.6482851465
  0
LINE
  5
21F
100
AcDbEntity
  8
0
100
AcDbLine
 62
7
  6
CONTINUOUS
 10
5.4678447766
 20
5.3086494206
 11
5.3837746935
 21
5.622403242
  0
LINE
  5
220
100
AcDbEntity
  8
0
100
AcDbLine
 62
7
  6
CONTINUOUS
 10
5.4919929223
 20
5.2901198968
 11
6.7687416301
 21
5.2901198968
  0
LINE
  5
221
100
AcDbEntity
  8
0
100
AcDbLine
 62
7
  6
CONTINUOUS
 10
5.4509073794
 20
5.4434532301
 11
6.8098271729
 21
5.4434532301
  0
LINE
  5
222
100
AcDbEntity
  8
0
100
AcDbLine
 62
7
  6
CONTINUOUS
 10
6.8553672762
 20
5.7501198968
 11
5.4053672762
 21
5.7501198968
  0
LINE
  5
223
100
AcDbEntity
  8
0
100
AcDbLine
 62
7
  6
CONTINUOUS
 10
6.8803672762
 20
5.6482851465
 11
6.8803672762
 21
5.7251198968
  0
LINE
  5
224
100
AcDbEntity
  8
0
100
AcDbLine
 62
7
  6
CONTINUOUS
 10
6.7928897757
 20
5.3086494206
 11
6.8769598588
 21
5.622403242
  0
LINE
  5
225
100
AcDbEntity
  8
0
100
AcDbLine
 62
7
  6
CONTINUOUS
 10
6.8208720839
 20
10.6000477814
 11
5.3208720839
 21
10.6000477814
  0
LINE
  5
226
100
AcDbEntity
  8
0
100
AcDbLine
 62
7
  6
CONTINUOUS
 10
5.3208720839
 20
10.6000477814
 11
5.3208720839
 21
14.6000477814
  0
LINE
  5
227
100
AcDbEntity
  8
0
100
AcDbLine
 62
7
  6
CONTINUOUS
 10
6.8208720839
 20
10.6000477814
 11
6.8208720839
 21
14.6000477814
  0
LINE
  5
228
100
AcDbEntity
  8
0
100
AcDbLine
 62
7
  6
CONTINUOUS
 10
5.3208720839
 20
14.6000477814
 11
6.8208720839
 21
14.6000477814
  0
LINE
  5
229
100
AcDbEntity
  8
0
100
AcDbLine
 62
7
  6
CONTINUOUS
 10
13.5603552569
 20
5.3839580378
 11
13.5603552569
 21
5.6906247044
  0
LINE
  5
22A
100
AcDbEntity
  8
0
100
AcDbLine
 62
7
  6
CONTINUOUS
 10
13.6745145046
 20
5.3542478282
 11
13.6961960092
 21
5.260334914
  0
LINE
  5
22B
100
AcDbEntity
  8
0
100
AcDbLine
 62
7
  6
CONTINUOUS
 10
13.9245145046
 20
5.260334914
 11
13.9461960092
 21
5.3542478282
  0
LINE
  5
22C
100
AcDbEntity
  8
0
100
AcDbLine
 62
7
  6
CONTINUOUS
 10
14.1745145046
 20
5.3542478282
 11
14.1961960092
 21
5.260334914
  0
LINE
  5
22D
100
AcDbEntity
  8
0
100
AcDbLine
 62
7
  6
CONTINUOUS
 10
14.4245145046
 20
5.260334914
 11
14.4461960092
 21
5.3542478282
  0
LINE
  5
22E
100
AcDbEntity
  8
0
100
AcDbLine
 62
7
  6
CONTINUOUS
 10
14.6745145046
 20
5.3542478282
 11
14.6961960092
 21
5.260334914
  0
LINE
  5
22F
100
AcDbEntity
  8
0
100
AcDbLine
 62
7
  6
CONTINUOUS
 10
14.9245145046
 20
5.260334914
 11
14.9461960092
 21
5.3542478282
  0
LINE
  5
230
100
AcDbEntity
  8
0
100
AcDbLine
 62
7
  6
CONTINUOUS
 10
15.1745145046
 20
5.3542478282
 11
15.1961960092
 21
5.260334914
  0
LINE
  5
231
100
AcDbEntity
  8
0
100
AcDbLine
 62
7
  6
CONTINUOUS
 10
13.7335468617
 20
5.2306247044
 11
13.8871636521
 21
5.2306247044
  0
LINE
  5
232
100
AcDbEntity
  8
0
100
AcDbLine
 62
7
  6
CONTINUOUS
 10
14.2335468617
 20
5.2306247044
 11
14.3871636521
 21
5.2306247044
  0
LINE
  5
233
100
AcDbEntity
  8
0
100
AcDbLine
 62
7
  6
CONTINUOUS
 10
14.7335468617
 20
5.2306247044
 11
14.8871636521
 21
5.2306247044
  0
LINE
  5
234
100
AcDbEntity
  8
0
100
AcDbLine
 62
7
  6
CONTINUOUS
 10
15.2335468617
 20
5.2306247044
 11
15.3871636521
 21
5.2306247044
  0
LINE
  5
235
100
AcDbEntity
  8
0
100
AcDbLine
 62
7
  6
CONTINUOUS
 10
15.7335468617
 20
5.2306247044
 11
15.8871636521
 21
5.2306247044
  0
LINE
  5
236
100
AcDbEntity
  8
0
100
AcDbLine
 62
7
  6
CONTINUOUS
 10
16.2335468617
 20
5.2306247044
 11
16.3871636521
 21
5.2306247044
  0
LINE
  5
237
100
AcDbEntity
  8
0
100
AcDbLine
 62
7
  6
CONTINUOUS
 10
16.7335468617
 20
5.2306247044
 11
16.8871636521
 21
5.2306247044
  0
LINE
  5
238
100
AcDbEntity
  8
0
100
AcDbLine
 62
7
  6
CONTINUOUS
 10
17.2335468617
 20
5.2306247044
 11
17.3871636521
 21
5.2306247044
  0
LINE
  5
239
100
AcDbEntity
  8
0
100
AcDbLine
 62
7
  6
CONTINUOUS
 10
15.4245145046
 20
5.260334914
 11
15.4461960092
 21
5.3542478282
  0
LINE
  5
23A
100
AcDbEntity
  8
0
100
AcDbLine
 62
7
  6
CONTINUOUS
 10
13.5603552569
 20
5.3839580378
 11
13.6371636521
 21
5.3839580378
  0
LINE
  5
23B
100
AcDbEntity
  8
0
100
AcDbLine
 62
7
  6
CONTINUOUS
 10
13.9835468617
 20
5.3839580378
 11
14.1371636521
 21
5.3839580378
  0
LINE
  5
23C
100
AcDbEntity
  8
0
100
AcDbLine
 62
7
  6
CONTINUOUS
 10
14.4835468617
 20
5.3839580378
 11
14.6371636521
 21
5.3839580378
  0
LINE
  5
23D
100
AcDbEntity
  8
0
100
AcDbLine
 62
7
  6
CONTINUOUS
 10
14.9835468617
 20
5.3839580378
 11
15.1371636521
 21
5.3839580378
  0
LINE
  5
23E
100
AcDbEntity
  8
0
100
AcDbLine
 62
7
  6
CONTINUOUS
 10
15.4835468617
 20
5.3839580378
 11
15.6371636521
 21
5.3839580378
  0
LINE
  5
23F
100
AcDbEntity
  8
0
100
AcDbLine
 62
7
  6
CONTINUOUS
 10
15.9835468617
 20
5.3839580378
 11
16.1371636521
 21
5.3839580378
  0
LINE
  5
240
100
AcDbEntity
  8
0
100
AcDbLine
 62
7
  6
CONTINUOUS
 10
16.4835468617
 20
5.3839580378
 11
16.6371636521
 21
5.3839580378
  0
LINE
  5
241
100
AcDbEntity
  8
0
100
AcDbLine
 62
7
  6
CONTINUOUS
 10
16.9835468617
 20
5.3839580378
 11
17.1371636521
 21
5.3839580378
  0
LINE
  5
242
100
AcDbEntity
  8
0
100
AcDbLine
 62
7
  6
CONTINUOUS
 10
17.4835468617
 20
5.3839580378
 11
17.5603552569
 21
5.3839580378
  0
LINE
  5
243
100
AcDbEntity
  8
0
100
AcDbLine
 62
7
  6
CONTINUOUS
 10
15.6745145046
 20
5.3542478282
 11
15.6961960092
 21
5.260334914
  0
LINE
  5
244
100
AcDbEntity
  8
0
100
AcDbLine
 62
7
  6
CONTINUOUS
 10
13.5603552569
 20
5.6906247044
 11
17.5603552569
 21
5.6906247044
  0
LINE
  5
245
100
AcDbEntity
  8
0
100
AcDbLine
 62
7
  6
CONTINUOUS
 10
15.9245145046
 20
5.260334914
 11
15.9461960092
 21
5.3542478282
  0
LINE
  5
246
100
AcDbEntity
  8
0
100
AcDbLine
 62
7
  6
CONTINUOUS
 10
16.1745145046
 20
5.3542478282
 11
16.1961960092
 21
5.260334914
  0
LINE
  5
247
100
AcDbEntity
  8
0
100
AcDbLine
 62
7
  6
CONTINUOUS
 10
16.4245145046
 20
5.260334914
 11
16.4461960092
 21
5.3542478282
  0
LINE
  5
248
100
AcDbEntity
  8
0
100
AcDbLine
 62
7
  6
CONTINUOUS
 10
16.6745145046
 20
5.3542478282
 11
16.6961960092
 21
5.260334914
  0
LINE
  5
249
100
AcDbEntity
  8
0
100
AcDbLine
 62
7
  6
CONTINUOUS
 10
16.9245145046
 20
5.260334914
 11
16.9461960092
 21
5.3542478282
  0
LINE
  5
24A
100
AcDbEntity
  8
0
100
AcDbLine
 62
7
  6
CONTINUOUS
 10
17.1745145046
 20
5.3542478282
 11
17.1961960092
 21
5.260334914
  0
LINE
  5
24B
100
AcDbEntity
  8
0
100
AcDbLine
 62
7
  6
CONTINUOUS
 10
17.5603552569
 20
5.3839580378
 11
17.5603552569
 21
5.6906247044
  0
LINE
  5
24C
100
AcDbEntity
  8
0
100
AcDbLine
 62
7
  6
CONTINUOUS
 10
17.4245145046
 20
5.260334914
 11
17.4461960092
 21
5.3542478282
  0
LINE
  5
24D
100
AcDbEntity
  8
0
100
AcDbLine
 62
7
  6
CONTINUOUS
 10
14.3125011588
 20
10.9600747564
 11
14.4010275073
 21
10.8603557819
  0
LWPOLYLINE
  5
24E
100
AcDbEntity
  8
0
100
AcDbPolyline
 62
7
  6
CONTINUOUS
 90
6
 70
0
 10
15.7209679182
 20
10.8746848499
 10
15.72222707
 20
10.8747155458
 10
15.7316731436
 20
10.8770291724
 10
15.7390430159
 20
10.8821007205
 10
15.7439823935
 20
10.8885365819
 10
15.7468383995
 20
10.8948188537
  0
LINE
  5
24F
100
AcDbEntity
  8
0
100
AcDbLine
 62
7
  6
CONTINUOUS
 10
14.4289217029
 20
10.8488376452
 11
15.6805697186
 21
10.8488376452
  0
LINE
  5
250
100
AcDbEntity
  8
0
100
AcDbLine
 62
7
  6
CONTINUOUS
 10
15.7022952294
 20
10.8746848101
 11
15.7209765676
 21
10.8746848101
  0
LINE
  5
251
100
AcDbEntity
  8
0
100
AcDbLine
 62
7
  6
CONTINUOUS
 10
14.2780298395
 20
11.0239244529
 11
14.3014676551
 21
10.9761632063
  0
LINE
  5
252
100
AcDbEntity
  8
0
100
AcDbLine
 62
7
  6
CONTINUOUS
 10
15.628968759
 20
11.0394647021
 11
14.2934303177
 21
11.0394647021
  0
LWPOLYLINE
  5
253
100
AcDbEntity
  8
0
100
AcDbPolyline
 62
7
  6
CONTINUOUS
 90
6
 70
0
 10
15.8420010799
 20
11.2663483047
 10
15.8432602317
 20
11.2663790006
 10
15.8527063053
 20
11.2686926272
 10
15.8600761776
 20
11.2737641753
 10
15.8650155553
 20
11.2802000368
 10
15.8678715612
 20
11.2864823085
  0
LINE
  5
254
100
AcDbEntity
  8
0
100
AcDbLine
 62
7
  6
CONTINUOUS
 10
15.8233283911
 20
11.2663482649
 11
15.8420097293
 21
11.2663482649
  0
LWPOLYLINE
  5
255
100
AcDbEntity
  8
0
100
AcDbPolyline
 62
7
  6
CONTINUOUS
 90
6
 70
0
 10
15.9630342416
 20
11.6580117595
 10
15.9642933934
 20
11.6580424554
 10
15.973739467
 20
11.6603560821
 10
15.9811093393
 20
11.6654276301
 10
15.986048717
 20
11.6718634916
 10
15.9889047229
 20
11.6781457633
  0
LINE
  5
256
100
AcDbEntity
  8
0
100
AcDbLine
 62
7
  6
CONTINUOUS
 10
15.9443615528
 20
11.6580117197
 11
15.963042891
 21
11.6580117197
  0
LINE
  5
257
100
AcDbEntity
  8
0
100
AcDbLine
 62
7
  6
CONTINUOUS
 10
14.2771708432
 20
11.0313056372
 11
15.2454361368
 21
14.1646132757
  0
LWPOLYLINE
  5
258
100
AcDbEntity
  8
0
100
AcDbPolyline
 62
7
  6
CONTINUOUS
 90
6
 70
0
 10
16.0840674033
 20
12.0496752144
 10
16.0853265551
 20
12.0497059102
 10
16.0947726287
 20
12.0520195369
 10
16.102142501
 20
12.0570910849
 10
16.1070818787
 20
12.0635269464
 10
16.1099378846
 20
12.0698092181
  0
LINE
  5
259
100
AcDbEntity
  8
0
100
AcDbLine
 62
7
  6
CONTINUOUS
 10
16.0653947145
 20
12.0496751745
 11
16.0840760528
 21
12.0496751745
  0
LINE
  5
25A
100
AcDbEntity
  8
0
100
AcDbLine
 62
7
  6
CONTINUOUS
 10
15.6830591461
 20
10.9761632063
 11
15.6596213305
 21
11.0239244529
  0
LWPOLYLINE
  5
25B
100
AcDbEntity
  8
0
100
AcDbPolyline
 62
7
  6
CONTINUOUS
 90
6
 70
0
 10
16.205100565
 20
12.4413386692
 10
16.2063597168
 20
12.441369365
 10
16.2158057904
 20
12.4436829917
 10
16.2231756627
 20
12.4487545397
 10
16.2281150404
 20
12.4551904012
 10
16.2309710463
 20
12.461472673
  0
LINE
  5
25C
100
AcDbEntity
  8
0
100
AcDbLine
 62
7
  6
CONTINUOUS
 10
16.1864278762
 20
12.4413386293
 11
16.2051092145
 21
12.4413386293
  0
LINE
  5
25D
100
AcDbEntity
  8
0
100
AcDbLine
 62
7
  6
CONTINUOUS
 10
15.6971593531
 20
10.8603557819
 11
15.6878157714
 21
10.9600747564
  0
LINE
  5
25E
100
AcDbEntity
  8
0
100
AcDbLine
 62
7
  6
CONTINUOUS
 10
15.788526599
 20
11.0417360453
 11
15.7883050676
 21
11.1170969542
  0
LINE
  5
25F
100
AcDbEntity
  8
0
100
AcDbLine
 62
7
  6
CONTINUOUS
 10
15.7883045386
 20
11.1171188095
 11
15.788389802
 21
11.1224745084
  0
LINE
  5
260
100
AcDbEntity
  8
0
100
AcDbLine
 62
7
  6
CONTINUOUS
 10
15.7884229724
 20
11.0379437157
 11
15.7885262971
 21
11.0417903765
  0
LWPOLYLINE
  5
261
100
AcDbEntity
  8
0
100
AcDbPolyline
 62
7
  6
CONTINUOUS
 90
5
 70
0
 10
15.788389802
 20
11.1224745084
 10
15.7893491548
 20
11.1367352694
 10
15.791374358
 20
11.1527812335
 10
15.7942571444
 20
11.1687209546
 10
15.7976164833
 20
11.1827896264
  0
LINE
  5
262
100
AcDbEntity
  8
0
100
AcDbLine
 62
7
  6
CONTINUOUS
 10
15.6968263145
 20
10.8569975957
 11
15.6971593531
 21
10.8603557819
  0
LWPOLYLINE
  5
263
100
AcDbEntity
  8
0
100
AcDbPolyline
 62
7
  6
CONTINUOUS
 90
6
 70
0
 10
16.3261337267
 20
12.833002124
 10
16.3273928785
 20
12.8330328199
 10
16.3368389522
 20
12.8353464465
 10
16.3442088244
 20
12.8404179945
 10
16.3491482021
 20
12.846853856
 10
16.352004208
 20
12.8531361278
  0
LINE
  5
264
100
AcDbEntity
  8
0
100
AcDbLine
 62
7
  6
CONTINUOUS
 10
16.3074610379
 20
12.8330020841
 11
16.3261423762
 21
12.8330020841
  0
LINE
  5
265
100
AcDbEntity
  8
0
100
AcDbLine
 62
7
  6
CONTINUOUS
 10
15.9095597607
 20
11.4333995001
 11
15.9093382293
 21
11.508760409
  0
LINE
  5
266
100
AcDbEntity
  8
0
100
AcDbLine
 62
7
  6
CONTINUOUS
 10
16.0305929224
 20
11.8250629549
 11
16.030371391
 21
11.9004238638
  0
LINE
  5
267
100
AcDbEntity
  8
0
100
AcDbLine
 62
7
  6
CONTINUOUS
 10
15.9093377003
 20
11.5087822644
 11
15.9094229637
 21
11.5141379633
  0
LINE
  5
268
100
AcDbEntity
  8
0
100
AcDbLine
 62
7
  6
CONTINUOUS
 10
15.9094561342
 20
11.4296071705
 11
15.9095594588
 21
11.4334538313
  0
LWPOLYLINE
  5
269
100
AcDbEntity
  8
0
100
AcDbPolyline
 62
7
  6
CONTINUOUS
 90
5
 70
0
 10
15.9094229637
 20
11.5141379633
 10
15.9103823165
 20
11.5283987242
 10
15.9124075197
 20
11.5444446883
 10
15.9152903061
 20
11.5603844095
 10
15.918649645
 20
11.5744530812
  0
LINE
  5
26A
100
AcDbEntity
  8
0
100
AcDbLine
 62
7
  6
CONTINUOUS
 10
15.7875364724
 20
11.0295842074
 11
15.7884229724
 21
11.0379437157
  0
LINE
  5
26B
100
AcDbEntity
  8
0
100
AcDbLine
 62
7
  6
CONTINUOUS
 10
15.9085696341
 20
11.4212476622
 11
15.9094561342
 21
11.4296071705
  0
LINE
  5
26C
100
AcDbEntity
  8
0
100
AcDbLine
 62
7
  6
CONTINUOUS
 10
16.5650839799
 20
13.665928727
 11
16.5668065463
 21
13.6700342801
  0
LINE
  5
26D
100
AcDbEntity
  8
0
100
AcDbLine
 62
7
  6
CONTINUOUS
 10
16.5668065463
 20
13.6700342801
 11
16.5675411938
 21
13.6714966456
  0
LINE
  5
26E
100
AcDbEntity
  8
0
100
AcDbLine
 62
7
  6
CONTINUOUS
 10
16.4457733846
 20
13.2783708252
 11
16.4465080321
 21
13.2798331908
  0
LINE
  5
26F
100
AcDbEntity
  8
0
100
AcDbLine
 62
7
  6
CONTINUOUS
 10
16.1516260841
 20
12.2167264097
 11
16.1514045527
 21
12.2920873186
  0
LINE
  5
270
100
AcDbEntity
  8
0
100
AcDbLine
 62
7
  6
CONTINUOUS
 10
16.030370862
 20
11.9004457192
 11
16.0304561254
 21
11.9058014181
  0
LINE
  5
271
100
AcDbEntity
  8
0
100
AcDbLine
 62
7
  6
CONTINUOUS
 10
16.1514040237
 20
12.292109174
 11
16.1514892871
 21
12.2974648729
  0
LINE
  5
272
100
AcDbEntity
  8
0
100
AcDbLine
 62
7
  6
CONTINUOUS
 10
16.0304892959
 20
11.8212706253
 11
16.0305926205
 21
11.8251172861
  0
LINE
  5
273
100
AcDbEntity
  8
0
100
AcDbLine
 62
7
  6
CONTINUOUS
 10
16.1515224576
 20
12.2129340801
 11
16.1516257822
 21
12.2167807409
  0
LWPOLYLINE
  5
274
100
AcDbEntity
  8
0
100
AcDbPolyline
 62
7
  6
CONTINUOUS
 90
5
 70
0
 10
16.0304561254
 20
11.9058014181
 10
16.0314154782
 20
11.9200621791
 10
16.0334406814
 20
11.9361081431
 10
16.0363234678
 20
11.9520478643
 10
16.0396828067
 20
11.966116536
  0
LWPOLYLINE
  5
275
100
AcDbEntity
  8
0
100
AcDbPolyline
 62
7
  6
CONTINUOUS
 90
5
 70
0
 10
16.1514892871
 20
12.2974648729
 10
16.1524486399
 20
12.3117256339
 10
16.1544738431
 20
12.327771598
 10
16.1573566295
 20
12.3437113191
 10
16.1607159684
 20
12.3577799908
  0
LINE
  5
276
100
AcDbEntity
  8
0
100
AcDbLine
 62
7
  6
CONTINUOUS
 10
16.0296027958
 20
11.812911117
 11
16.0304892959
 21
11.8212706253
  0
LINE
  5
277
100
AcDbEntity
  8
0
100
AcDbLine
 62
7
  6
CONTINUOUS
 10
15.7858583036
 20
11.0212198247
 11
15.7875364724
 21
11.0295842074
  0
LINE
  5
278
100
AcDbEntity
  8
0
100
AcDbLine
 62
7
  6
CONTINUOUS
 10
15.9068914653
 20
11.4128832795
 11
15.9085696341
 21
11.4212476622
  0
LINE
  5
279
100
AcDbEntity
  8
0
100
AcDbLine
 62
7
  6
CONTINUOUS
 10
16.027924627
 20
11.8045467343
 11
16.0296027958
 21
11.812911117
  0
LINE
  5
27A
100
AcDbEntity
  8
0
100
AcDbLine
 62
7
  6
CONTINUOUS
 10
15.7976164833
 20
11.1827896264
 11
15.799263574
 21
11.1884799221
  0
LINE
  5
27B
100
AcDbEntity
  8
0
100
AcDbLine
 62
7
  6
CONTINUOUS
 10
15.918649645
 20
11.5744530812
 11
15.9202967357
 21
11.580143377
  0
LINE
  5
27C
100
AcDbEntity
  8
0
100
AcDbLine
 62
7
  6
CONTINUOUS
 10
16.0396828067
 20
11.966116536
 11
16.0413298974
 21
11.9718068318
  0
LWPOLYLINE
  5
27D
100
AcDbEntity
  8
0
100
AcDbPolyline
 62
7
  6
CONTINUOUS
 90
3
 70
0
 10
16.5626531791
 20
13.6588062594
 10
16.5630110094
 20
13.6599466127
 10
16.5650839799
 20
13.665928727
  0
LWPOLYLINE
  5
27E
100
AcDbEntity
  8
0
100
AcDbPolyline
 62
7
  6
CONTINUOUS
 90
3
 70
0
 10
16.4416200174
 20
13.2671428046
 10
16.4419778477
 20
13.2682831579
 10
16.4440508182
 20
13.2742652722
  0
LINE
  5
27F
100
AcDbEntity
  8
0
100
AcDbLine
 62
7
  6
CONTINUOUS
 10
16.4440508182
 20
13.2742652722
 11
16.4457733846
 21
13.2783708252
  0
LINE
  5
280
100
AcDbEntity
  8
0
100
AcDbLine
 62
7
  6
CONTINUOUS
 10
16.3230176565
 20
12.8826018174
 11
16.3247402229
 21
12.8867073704
  0
LINE
  5
281
100
AcDbEntity
  8
0
100
AcDbLine
 62
7
  6
CONTINUOUS
 10
16.2019844948
 20
12.4909383625
 11
16.2037070612
 21
12.4950439156
  0
LINE
  5
282
100
AcDbEntity
  8
0
100
AcDbLine
 62
7
  6
CONTINUOUS
 10
16.3247402229
 20
12.8867073704
 11
16.3254748704
 21
12.888169736
  0
LINE
  5
283
100
AcDbEntity
  8
0
100
AcDbLine
 62
7
  6
CONTINUOUS
 10
16.2037070612
 20
12.4950439156
 11
16.2044417087
 21
12.4965062812
  0
LWPOLYLINE
  5
284
100
AcDbEntity
  8
0
100
AcDbPolyline
 62
7
  6
CONTINUOUS
 90
6
 70
0
 10
16.4471668884
 20
13.2246655788
 10
16.4484260402
 20
13.2246962747
 10
16.4578721139
 20
13.2270099013
 10
16.4652419861
 20
13.2320814493
 10
16.4701813638
 20
13.2385173108
 10
16.4730373697
 20
13.2447995826
  0
LINE
  5
285
100
AcDbEntity
  8
0
100
AcDbLine
 62
7
  6
CONTINUOUS
 10
16.2726592458
 20
12.6083898645
 11
16.2724377144
 21
12.6837507734
  0
LINE
  5
286
100
AcDbEntity
  8
0
100
AcDbLine
 62
7
  6
CONTINUOUS
 10
16.2724371854
 20
12.6837726288
 11
16.2725224488
 21
12.6891283277
  0
LINE
  5
287
100
AcDbEntity
  8
0
100
AcDbLine
 62
7
  6
CONTINUOUS
 10
16.2725556193
 20
12.604597535
 11
16.2726589439
 21
12.6084441957
  0
LWPOLYLINE
  5
288
100
AcDbEntity
  8
0
100
AcDbPolyline
 62
7
  6
CONTINUOUS
 90
5
 70
0
 10
16.2725224488
 20
12.6891283277
 10
16.2734818016
 20
12.7033890887
 10
16.2755070048
 20
12.7194350528
 10
16.2783897912
 20
12.7353747739
 10
16.2817491301
 20
12.7494434456
  0
LINE
  5
289
100
AcDbEntity
  8
0
100
AcDbLine
 62
7
  6
CONTINUOUS
 10
16.1506359575
 20
12.2045745718
 11
16.1515224576
 21
12.2129340801
  0
LINE
  5
28A
100
AcDbEntity
  8
0
100
AcDbLine
 62
7
  6
CONTINUOUS
 10
16.2716691192
 20
12.5962380266
 11
16.2725556193
 21
12.604597535
  0
LINE
  5
28B
100
AcDbEntity
  8
0
100
AcDbLine
 62
7
  6
CONTINUOUS
 10
16.1489577887
 20
12.1962101891
 11
16.1506359575
 21
12.2045745718
  0
LINE
  5
28C
100
AcDbEntity
  8
0
100
AcDbLine
 62
7
  6
CONTINUOUS
 10
16.2699909504
 20
12.5878736439
 11
16.2716691192
 21
12.5962380266
  0
LINE
  5
28D
100
AcDbEntity
  8
0
100
AcDbLine
 62
7
  6
CONTINUOUS
 10
16.3910241121
 20
12.9795370987
 11
16.3927022809
 21
12.9879014815
  0
LINE
  5
28E
100
AcDbEntity
  8
0
100
AcDbLine
 62
7
  6
CONTINUOUS
 10
15.7848564665
 20
11.0176398845
 11
15.7858583036
 21
11.0212198247
  0
LINE
  5
28F
100
AcDbEntity
  8
0
100
AcDbLine
 62
7
  6
CONTINUOUS
 10
15.9058896282
 20
11.4093033393
 11
15.9068914653
 21
11.4128832795
  0
LINE
  5
290
100
AcDbEntity
  8
0
100
AcDbLine
 62
7
  6
CONTINUOUS
 10
16.0269227899
 20
11.8009667941
 11
16.027924627
 21
11.8045467343
  0
LINE
  5
291
100
AcDbEntity
  8
0
100
AcDbLine
 62
7
  6
CONTINUOUS
 10
16.1479559516
 20
12.1926302489
 11
16.1489577887
 21
12.1962101891
  0
LINE
  5
292
100
AcDbEntity
  8
0
100
AcDbLine
 62
7
  6
CONTINUOUS
 10
16.2689891133
 20
12.5842937037
 11
16.2699909504
 21
12.5878736439
  0
LINE
  5
293
100
AcDbEntity
  8
0
100
AcDbLine
 62
7
  6
CONTINUOUS
 10
16.390022275
 20
12.9759571585
 11
16.3910241121
 21
12.9795370987
  0
LINE
  5
294
100
AcDbEntity
  8
0
100
AcDbLine
 62
7
  6
CONTINUOUS
 10
16.5110554367
 20
13.3676206133
 11
16.5120572738
 21
13.3712005536
  0
LINE
  5
295
100
AcDbEntity
  8
0
100
AcDbLine
 62
7
  6
CONTINUOUS
 10
16.6320885984
 20
13.7592840681
 11
16.6330904355
 21
13.7628640084
  0
LINE
  5
296
100
AcDbEntity
  8
0
100
AcDbLine
 62
7
  6
CONTINUOUS
 10
16.1607159684
 20
12.3577799908
 11
16.1623630591
 21
12.3634702866
  0
LINE
  5
297
100
AcDbEntity
  8
0
100
AcDbLine
 62
7
  6
CONTINUOUS
 10
16.2817491301
 20
12.7494434456
 11
16.2833962208
 21
12.7551337414
  0
LINE
  5
298
100
AcDbEntity
  8
0
100
AcDbLine
 62
7
  6
CONTINUOUS
 10
16.4027822918
 20
13.1411069005
 11
16.4044293825
 21
13.1467971962
  0
LINE
  5
299
100
AcDbEntity
  8
0
100
AcDbLine
 62
7
  6
CONTINUOUS
 10
16.5238154535
 20
13.5327703553
 11
16.5254625442
 21
13.538460651
  0
LINE
  5
29A
100
AcDbEntity
  8
0
100
AcDbLine
 62
7
  6
CONTINUOUS
 10
16.6448486152
 20
13.9244338101
 11
16.6464957059
 21
13.9301241058
  0
LINE
  5
29B
100
AcDbEntity
  8
0
100
AcDbLine
 62
7
  6
CONTINUOUS
 10
16.4044354375
 20
13.1468113561
 11
16.4416208903
 21
13.2671435257
  0
LINE
  5
29C
100
AcDbEntity
  8
0
100
AcDbLine
 62
7
  6
CONTINUOUS
 10
16.5254685992
 20
13.5384748109
 11
16.562654052
 21
13.6588069805
  0
LINE
  5
29D
100
AcDbEntity
  8
0
100
AcDbLine
 62
7
  6
CONTINUOUS
 10
16.6465017609
 20
13.9301382658
 11
16.6650944867
 21
13.9903043486
  0
LINE
  5
29E
100
AcDbEntity
  8
0
100
AcDbLine
 62
7
  6
CONTINUOUS
 10
15.7476838434
 20
10.8973488262
 11
15.784869295
 21
11.0176809917
  0
LINE
  5
29F
100
AcDbEntity
  8
0
100
AcDbLine
 62
7
  6
CONTINUOUS
 10
15.8687170051
 20
11.289012281
 11
15.9059024567
 21
11.4093444465
  0
LINE
  5
2A0
100
AcDbEntity
  8
0
100
AcDbLine
 62
7
  6
CONTINUOUS
 10
15.9897501668
 20
11.6806757358
 11
16.0269356184
 21
11.8010079013
  0
LINE
  5
2A1
100
AcDbEntity
  8
0
100
AcDbLine
 62
7
  6
CONTINUOUS
 10
16.1107833285
 20
12.0723391906
 11
16.1479687801
 21
12.1926713561
  0
LINE
  5
2A2
100
AcDbEntity
  8
0
100
AcDbLine
 62
7
  6
CONTINUOUS
 10
16.2318164902
 20
12.4640026454
 11
16.2690019418
 21
12.5843348109
  0
LINE
  5
2A3
100
AcDbEntity
  8
0
100
AcDbLine
 62
7
  6
CONTINUOUS
 10
16.3528496519
 20
12.8556661003
 11
16.3900351035
 21
12.9759982657
  0
LINE
  5
2A4
100
AcDbEntity
  8
0
100
AcDbLine
 62
7
  6
CONTINUOUS
 10
16.4738828136
 20
13.2473295551
 11
16.5110682652
 21
13.3676617205
  0
LINE
  5
2A5
100
AcDbEntity
  8
0
100
AcDbLine
 62
7
  6
CONTINUOUS
 10
16.5949159753
 20
13.6389930099
 11
16.6321014269
 21
13.7593251754
  0
LWPOLYLINE
  5
2A6
100
AcDbEntity
  8
0
100
AcDbPolyline
 62
7
  6
CONTINUOUS
 90
3
 70
0
 10
16.2834022758
 20
12.7551479013
 10
16.3209446859
 20
12.8766197031
 10
16.3230176565
 20
12.8826018174
  0
LWPOLYLINE
  5
2A7
100
AcDbEntity
  8
0
100
AcDbPolyline
 62
7
  6
CONTINUOUS
 90
3
 70
0
 10
16.1623691141
 20
12.3634844465
 10
16.1999115242
 20
12.4849562483
 10
16.2019844948
 20
12.4909383625
  0
LWPOLYLINE
  5
2A8
100
AcDbEntity
  8
0
100
AcDbPolyline
 62
7
  6
CONTINUOUS
 90
3
 70
0
 10
16.0413359523
 20
11.9718209917
 10
16.0788783625
 20
12.0932927935
 10
16.0809513331
 20
12.0992749077
  0
LWPOLYLINE
  5
2A9
100
AcDbEntity
  8
0
100
AcDbPolyline
 62
7
  6
CONTINUOUS
 90
3
 70
0
 10
15.9203027906
 20
11.5801575369
 10
15.9578452008
 20
11.7016293387
 10
15.9599181714
 20
11.7076114529
  0
LWPOLYLINE
  5
2AA
100
AcDbEntity
  8
0
100
AcDbPolyline
 62
7
  6
CONTINUOUS
 90
3
 70
0
 10
15.7992696289
 20
11.1884940821
 10
15.8368120391
 20
11.3099658839
 10
15.8388850097
 20
11.3159479981
  0
LWPOLYLINE
  5
2AB
100
AcDbEntity
  8
0
100
AcDbPolyline
 62
7
  6
CONTINUOUS
 90
3
 70
0
 10
15.6978055189
 20
10.8601561016
 10
15.7157788774
 20
10.918302429
 10
15.717851848
 20
10.9242845433
  0
LINE
  5
2AC
100
AcDbEntity
  8
0
100
AcDbLine
 62
7
  6
CONTINUOUS
 10
16.5940705314
 20
13.6364630374
 11
16.5949317
 21
13.639044528
  0
LINE
  5
2AD
100
AcDbEntity
  8
0
100
AcDbLine
 62
7
  6
CONTINUOUS
 10
16.4730373697
 20
13.2447995826
 11
16.4738985383
 21
13.2473810732
  0
LINE
  5
2AE
100
AcDbEntity
  8
0
100
AcDbLine
 62
7
  6
CONTINUOUS
 10
16.352004208
 20
12.8531361278
 11
16.3528653766
 21
12.8557176183
  0
LINE
  5
2AF
100
AcDbEntity
  8
0
100
AcDbLine
 62
7
  6
CONTINUOUS
 10
16.2309710463
 20
12.461472673
 11
16.2318322149
 21
12.4640541635
  0
LINE
  5
2B0
100
AcDbEntity
  8
0
100
AcDbLine
 62
7
  6
CONTINUOUS
 10
16.1099378846
 20
12.0698092181
 11
16.1107990532
 21
12.0723907087
  0
LINE
  5
2B1
100
AcDbEntity
  8
0
100
AcDbLine
 62
7
  6
CONTINUOUS
 10
15.9889047229
 20
11.6781457633
 11
15.9897658915
 21
11.6807272539
  0
LINE
  5
2B2
100
AcDbEntity
  8
0
100
AcDbLine
 62
7
  6
CONTINUOUS
 10
15.8678715612
 20
11.2864823085
 11
15.8687327298
 21
11.2890637991
  0
LINE
  5
2B3
100
AcDbEntity
  8
0
100
AcDbLine
 62
7
  6
CONTINUOUS
 10
15.7468383995
 20
10.8948188537
 11
15.7476995681
 21
10.8974003443
  0
LINE
  5
2B4
100
AcDbEntity
  8
0
100
AcDbLine
 62
7
  6
CONTINUOUS
 10
16.0809513331
 20
12.0992749077
 11
16.0826738995
 21
12.1033804608
  0
LINE
  5
2B5
100
AcDbEntity
  8
0
100
AcDbLine
 62
7
  6
CONTINUOUS
 10
15.9599181714
 20
11.7076114529
 11
15.9616407378
 21
11.711717006
  0
LINE
  5
2B6
100
AcDbEntity
  8
0
100
AcDbLine
 62
7
  6
CONTINUOUS
 10
15.8388850097
 20
11.3159479981
 11
15.8406075761
 21
11.3200535512
  0
LINE
  5
2B7
100
AcDbEntity
  8
0
100
AcDbLine
 62
7
  6
CONTINUOUS
 10
16.0826738995
 20
12.1033804608
 11
16.083408547
 21
12.1048428264
  0
LINE
  5
2B8
100
AcDbEntity
  8
0
100
AcDbLine
 62
7
  6
CONTINUOUS
 10
15.9616407378
 20
11.711717006
 11
15.9623753853
 21
11.7131793716
  0
LINE
  5
2B9
100
AcDbEntity
  8
0
100
AcDbLine
 62
7
  6
CONTINUOUS
 10
16.4284941996
 20
13.2246655389
 11
16.4471755379
 21
13.2246655389
  0
LINE
  5
2BA
100
AcDbEntity
  8
0
100
AcDbLine
 62
7
  6
CONTINUOUS
 10
16.3936924075
 20
13.0000533193
 11
16.3934708761
 21
13.0754142282
  0
LINE
  5
2BB
100
AcDbEntity
  8
0
100
AcDbLine
 62
7
  6
CONTINUOUS
 10
16.3934703471
 20
13.0754360836
 11
16.3935556105
 21
13.0807917825
  0
LINE
  5
2BC
100
AcDbEntity
  8
0
100
AcDbLine
 62
7
  6
CONTINUOUS
 10
16.393588781
 20
12.9962609898
 11
16.3936921057
 21
13.0001076505
  0
LWPOLYLINE
  5
2BD
100
AcDbEntity
  8
0
100
AcDbPolyline
 62
7
  6
CONTINUOUS
 90
5
 70
0
 10
16.3935556105
 20
13.0807917825
 10
16.3945149633
 20
13.0950525435
 10
16.3965401665
 20
13.1110985076
 10
16.3994229529
 20
13.1270382287
 10
16.4027822918
 20
13.1411069005
  0
LINE
  5
2BE
100
AcDbEntity
  8
0
100
AcDbLine
 62
7
  6
CONTINUOUS
 10
16.3927022809
 20
12.9879014815
 11
16.393588781
 21
12.9962609898
  0
LINE
  5
2BF
100
AcDbEntity
  8
0
100
AcDbLine
 62
7
  6
CONTINUOUS
 10
16.5137354426
 20
13.3795649363
 11
16.5146219427
 21
13.3879244446
  0
LINE
  5
2C0
100
AcDbEntity
  8
0
100
AcDbLine
 62
7
  6
CONTINUOUS
 10
16.5120572738
 20
13.3712005536
 11
16.5137354426
 21
13.3795649363
  0
LINE
  5
2C1
100
AcDbEntity
  8
0
100
AcDbLine
 62
7
  6
CONTINUOUS
 10
16.6330904355
 20
13.7628640084
 11
16.6347686043
 21
13.7712283911
  0
LINE
  5
2C2
100
AcDbEntity
  8
0
100
AcDbLine
 62
7
  6
CONTINUOUS
 10
15.717851848
 20
10.9242845433
 11
15.7195744144
 21
10.9283900964
  0
LINE
  5
2C3
100
AcDbEntity
  8
0
100
AcDbLine
 62
7
  6
CONTINUOUS
 10
15.8406075761
 20
11.3200535512
 11
15.8413422236
 21
11.3215159167
  0
LINE
  5
2C4
100
AcDbEntity
  8
0
100
AcDbLine
 62
7
  6
CONTINUOUS
 10
15.7195744144
 20
10.9283900964
 11
15.7203090619
 21
10.9298524619
  0
LINE
  5
2C5
100
AcDbEntity
  8
0
100
AcDbLine
 62
7
  6
CONTINUOUS
 10
16.5147255693
 20
13.3917167741
 11
16.5145040378
 21
13.4670776831
  0
LINE
  5
2C6
100
AcDbEntity
  8
0
100
AcDbLine
 62
7
  6
CONTINUOUS
 10
16.5145035088
 20
13.4670995384
 11
16.5145887722
 21
13.4724552373
  0
LINE
  5
2C7
100
AcDbEntity
  8
0
100
AcDbLine
 62
7
  6
CONTINUOUS
 10
16.5146219427
 20
13.3879244446
 11
16.5147252674
 21
13.3917711054
  0
LWPOLYLINE
  5
2C8
100
AcDbEntity
  8
0
100
AcDbPolyline
 62
7
  6
CONTINUOUS
 90
5
 70
0
 10
16.5145887722
 20
13.4724552373
 10
16.515548125
 20
13.4867159983
 10
16.5175733282
 20
13.5027619624
 10
16.5204561146
 20
13.5187016835
 10
16.5238154535
 20
13.5327703553
  0
LWPOLYLINE
  5
2C9
100
AcDbEntity
  8
0
100
AcDbPolyline
 62
7
  6
CONTINUOUS
 90
5
 70
0
 10
16.6356219339
 20
13.8641186921
 10
16.6365812867
 20
13.8783794531
 10
16.6386064899
 20
13.8944254172
 10
16.6414892763
 20
13.9103651383
 10
16.6448486152
 20
13.9244338101
  0
LINE
  5
2CA
100
AcDbEntity
  8
0
100
AcDbLine
 62
7
  6
CONTINUOUS
 10
16.6654246468
 20
13.9936634204
 11
16.6650916081
 21
13.9903052342
  0
LINE
  5
2CB
100
AcDbEntity
  8
0
100
AcDbLine
 62
7
  6
CONTINUOUS
 10
16.6347686043
 20
13.7712283911
 11
16.6356551044
 21
13.7795878994
  0
LWPOLYLINE
  5
2CC
100
AcDbEntity
  8
0
100
AcDbPolyline
 62
7
  6
CONTINUOUS
 90
6
 70
0
 10
16.5682000501
 20
13.6163290336
 10
16.5694592019
 20
13.6163597295
 10
16.5789052756
 20
13.6186733561
 10
16.5862751478
 20
13.6237449042
 10
16.5912145255
 20
13.6301807656
 10
16.5940705314
 20
13.6364630374
  0
LINE
  5
2CD
100
AcDbEntity
  8
0
100
AcDbLine
 62
7
  6
CONTINUOUS
 10
16.5495273613
 20
13.6163289938
 11
16.5682086996
 21
13.6163289938
  0
LINE
  5
2CE
100
AcDbEntity
  8
0
100
AcDbLine
 62
7
  6
CONTINUOUS
 10
16.635758731
 20
13.783380229
 11
16.6355371995
 21
13.8587411379
  0
LINE
  5
2CF
100
AcDbEntity
  8
0
100
AcDbLine
 62
7
  6
CONTINUOUS
 10
16.6355366705
 20
13.8587629932
 11
16.6356219339
 21
13.8641186921
  0
LINE
  5
2D0
100
AcDbEntity
  8
0
100
AcDbLine
 62
7
  6
CONTINUOUS
 10
16.6356551044
 20
13.7795878994
 11
16.6357584291
 21
13.7834345602
  0
LINE
  5
2D1
100
AcDbEntity
  8
0
100
AcDbLine
 62
7
  6
CONTINUOUS
 10
16.6654246468
 20
13.9936634204
 11
16.656081065
 21
14.0933823949
  0
LINE
  5
2D2
100
AcDbEntity
  8
0
100
AcDbLine
 62
7
  6
CONTINUOUS
 10
16.5972340526
 20
14.1727723406
 11
15.2616956113
 21
14.1727723406
  0
LINE
  5
2D3
100
AcDbEntity
  8
0
100
AcDbLine
 62
7
  6
CONTINUOUS
 10
16.6513244397
 20
14.1094708448
 11
16.6278866241
 21
14.1572320914
  0
ARC
  5
2D4
100
AcDbEntity
  8
0
100
AcDbCircle
 62
7
  6
CONTINUOUS
 10
5.4509073794
 20
5.4684532301
 40
0.025
100
AcDbArc
 50
195.0
 51
270.0
  0
ARC
  5
2D5
100
AcDbEntity
  8
0
100
AcDbCircle
 62
7
  6
CONTINUOUS
 10
5.4919929168
 20
5.3151199172
 40
0.025
100
AcDbArc
 50
195.0000485589
 51
270.0000125676
  0
ARC
  5
2D6
100
AcDbEntity
  8
0
100
AcDbCircle
 62
7
  6
CONTINUOUS
 10
5.4803672762
 20
5.6482851465
 40
0.1
100
AcDbArc
 50
180.0
 51
195.0
  0
ARC
  5
2D7
100
AcDbEntity
  8
0
100
AcDbCircle
 62
7
  6
CONTINUOUS
 10
5.4053672762
 20
5.7251198968
 40
0.025
100
AcDbArc
 50
90.0
 51
180.0
  0
ARC
  5
2D8
100
AcDbEntity
  8
0
100
AcDbCircle
 62
7
  6
CONTINUOUS
 10
6.7687416301
 20
5.3151198968
 40
0.025
100
AcDbArc
 50
270.0
 51
345.0
  0
ARC
  5
2D9
100
AcDbEntity
  8
0
100
AcDbCircle
 62
7
  6
CONTINUOUS
 10
6.8098271729
 20
5.4684532301
 40
0.025
100
AcDbArc
 50
270.0
 51
345.0
  0
ARC
  5
2DA
100
AcDbEntity
  8
0
100
AcDbCircle
 62
7
  6
CONTINUOUS
 10
6.7803672762
 20
5.6482851465
 40
0.1
100
AcDbArc
 50
345.0
 51
360.0
  0
ARC
  5
2DB
100
AcDbEntity
  8
0
100
AcDbCircle
 62
7
  6
CONTINUOUS
 10
6.8553672762
 20
5.7251198968
 40
0.025
100
AcDbArc
 50
0.0
 51
90.0
  0
ARC
  5
2DC
100
AcDbEntity
  8
0
100
AcDbCircle
 62
7
  6
CONTINUOUS
 10
13.7335468617
 20
5.2689580378
 40
0.0383333333
100
AcDbArc
 50
193.0
 51
270.0
  0
ARC
  5
2DD
100
AcDbEntity
  8
0
100
AcDbCircle
 62
7
  6
CONTINUOUS
 10
13.8871636521
 20
5.2689580378
 40
0.0383333333
100
AcDbArc
 50
270.0
 51
347.0
  0
ARC
  5
2DE
100
AcDbEntity
  8
0
100
AcDbCircle
 62
7
  6
CONTINUOUS
 10
14.2335468617
 20
5.2689580378
 40
0.0383333333
100
AcDbArc
 50
193.0
 51
270.0
  0
ARC
  5
2DF
100
AcDbEntity
  8
0
100
AcDbCircle
 62
7
  6
CONTINUOUS
 10
14.3871636521
 20
5.2689580378
 40
0.0383333333
100
AcDbArc
 50
270.0
 51
347.0
  0
ARC
  5
2E0
100
AcDbEntity
  8
0
100
AcDbCircle
 62
7
  6
CONTINUOUS
 10
14.7335468617
 20
5.2689580378
 40
0.0383333333
100
AcDbArc
 50
193.0
 51
270.0
  0
ARC
  5
2E1
100
AcDbEntity
  8
0
100
AcDbCircle
 62
7
  6
CONTINUOUS
 10
14.8871636521
 20
5.2689580378
 40
0.0383333333
100
AcDbArc
 50
270.0
 51
347.0
  0
ARC
  5
2E2
100
AcDbEntity
  8
0
100
AcDbCircle
 62
7
  6
CONTINUOUS
 10
15.2335468617
 20
5.2689580378
 40
0.0383333333
100
AcDbArc
 50
193.0
 51
270.0
  0
ARC
  5
2E3
100
AcDbEntity
  8
0
100
AcDbCircle
 62
7
  6
CONTINUOUS
 10
15.3871636521
 20
5.2689580378
 40
0.0383333333
100
AcDbArc
 50
270.0
 51
347.0
  0
ARC
  5
2E4
100
AcDbEntity
  8
0
100
AcDbCircle
 62
7
  6
CONTINUOUS
 10
13.6371636521
 20
5.3456247044
 40
0.0383333333
100
AcDbArc
 50
13.0
 51
90.0
  0
ARC
  5
2E5
100
AcDbEntity
  8
0
100
AcDbCircle
 62
7
  6
CONTINUOUS
 10
13.9835468617
 20
5.3456247044
 40
0.0383333333
100
AcDbArc
 50
90.0
 51
167.0
  0
ARC
  5
2E6
100
AcDbEntity
  8
0
100
AcDbCircle
 62
7
  6
CONTINUOUS
 10
14.1371636521
 20
5.3456247044
 40
0.0383333333
100
AcDbArc
 50
13.0
 51
90.0
  0
ARC
  5
2E7
100
AcDbEntity
  8
0
100
AcDbCircle
 62
7
  6
CONTINUOUS
 10
14.4835468617
 20
5.3456247044
 40
0.0383333333
100
AcDbArc
 50
90.0
 51
167.0
  0
ARC
  5
2E8
100
AcDbEntity
  8
0
100
AcDbCircle
 62
7
  6
CONTINUOUS
 10
14.6371636521
 20
5.3456247044
 40
0.0383333333
100
AcDbArc
 50
13.0
 51
90.0
  0
ARC
  5
2E9
100
AcDbEntity
  8
0
100
AcDbCircle
 62
7
  6
CONTINUOUS
 10
14.9835468617
 20
5.3456247044
 40
0.0383333333
100
AcDbArc
 50
90.0
 51
167.0
  0
ARC
  5
2EA
100
AcDbEntity
  8
0
100
AcDbCircle
 62
7
  6
CONTINUOUS
 10
15.1371636521
 20
5.3456247044
 40
0.0383333333
100
AcDbArc
 50
13.0
 51
90.0
  0
ARC
  5
2EB
100
AcDbEntity
  8
0
100
AcDbCircle
 62
7
  6
CONTINUOUS
 10
15.4835468617
 20
5.3456247044
 40
0.0383333333
100
AcDbArc
 50
90.0
 51
167.0
  0
ARC
  5
2EC
100
AcDbEntity
  8
0
100
AcDbCircle
 62
7
  6
CONTINUOUS
 10
17.3871636521
 20
5.2689580378
 40
0.0383333333
100
AcDbArc
 50
270.0
 51
347.0
  0
ARC
  5
2ED
100
AcDbEntity
  8
0
100
AcDbCircle
 62
7
  6
CONTINUOUS
 10
17.2335468617
 20
5.2689580378
 40
0.0383333333
100
AcDbArc
 50
193.0
 51
270.0
  0
ARC
  5
2EE
100
AcDbEntity
  8
0
100
AcDbCircle
 62
7
  6
CONTINUOUS
 10
16.8871636521
 20
5.2689580378
 40
0.0383333333
100
AcDbArc
 50
270.0
 51
347.0
  0
ARC
  5
2EF
100
AcDbEntity
  8
0
100
AcDbCircle
 62
7
  6
CONTINUOUS
 10
16.7335468617
 20
5.2689580378
 40
0.0383333333
100
AcDbArc
 50
193.0
 51
270.0
  0
ARC
  5
2F0
100
AcDbEntity
  8
0
100
AcDbCircle
 62
7
  6
CONTINUOUS
 10
16.3871636521
 20
5.2689580378
 40
0.0383333333
100
AcDbArc
 50
270.0
 51
347.0
  0
ARC
  5
2F1
100
AcDbEntity
  8
0
100
AcDbCircle
 62
7
  6
CONTINUOUS
 10
16.2335468617
 20
5.2689580378
 40
0.0383333333
100
AcDbArc
 50
193.0
 51
270.0
  0
ARC
  5
2F2
100
AcDbEntity
  8
0
100
AcDbCircle
 62
7
  6
CONTINUOUS
 10
15.8871636521
 20
5.2689580378
 40
0.0383333333
100
AcDbArc
 50
270.0
 51
347.0
  0
ARC
  5
2F3
100
AcDbEntity
  8
0
100
AcDbCircle
 62
7
  6
CONTINUOUS
 10
15.7335468617
 20
5.2689580378
 40
0.0383333333
100
AcDbArc
 50
193.0
 51
270.0
  0
ARC
  5
2F4
100
AcDbEntity
  8
0
100
AcDbCircle
 62
7
  6
CONTINUOUS
 10
17.4835468617
 20
5.3456247044
 40
0.0383333333
100
AcDbArc
 50
90.0
 51
167.0
  0
ARC
  5
2F5
100
AcDbEntity
  8
0
100
AcDbCircle
 62
7
  6
CONTINUOUS
 10
17.1371636521
 20
5.3456247044
 40
0.0383333333
100
AcDbArc
 50
13.0
 51
90.0
  0
ARC
  5
2F6
100
AcDbEntity
  8
0
100
AcDbCircle
 62
7
  6
CONTINUOUS
 10
16.9835468617
 20
5.3456247044
 40
0.0383333333
100
AcDbArc
 50
90.0
 51
167.0
  0
ARC
  5
2F7
100
AcDbEntity
  8
0
100
AcDbCircle
 62
7
  6
CONTINUOUS
 10
16.6371636521
 20
5.3456247044
 40
0.0383333333
100
AcDbArc
 50
13.0
 51
90.0
  0
ARC
  5
2F8
100
AcDbEntity
  8
0
100
AcDbCircle
 62
7
  6
CONTINUOUS
 10
16.4835468617
 20
5.3456247044
 40
0.0383333333
100
AcDbArc
 50
90.0
 51
167.0
  0
ARC
  5
2F9
100
AcDbEntity
  8
0
100
AcDbCircle
 62
7
  6
CONTINUOUS
 10
16.1371636521
 20
5.3456247044
 40
0.0383333333
100
AcDbArc
 50
13.0
 51
90.0
  0
ARC
  5
2FA
100
AcDbEntity
  8
0
100
AcDbCircle
 62
7
  6
CONTINUOUS
 10
15.9835468617
 20
5.3456247044
 40
0.0383333333
100
AcDbArc
 50
90.0
 51
167.0
  0
ARC
  5
2FB
100
AcDbEntity
  8
0
100
AcDbCircle
 62
7
  6
CONTINUOUS
 10
15.6371636521
 20
5.3456247044
 40
0.0383333333
100
AcDbArc
 50
13.0
 51
90.0
  0
SPLINE
  5
2FC
100
AcDbEntity
  8
0
100
AcDbSpline
 62
7
  6
CONTINUOUS
 70
0
 71
3
 72
15
 73
11
 74
0
 42
0.0000001
 43
0.0000001
 44
0.0000000001
 40
0.0
 40
0.0
 40
0.0
 40
0.0
 40
0.1295685558
 40
0.2645757251
 40
0.4012660152
 40
0.5362716927
 40
0.6662157272
 40
0.7881010325
 40
0.899814324
 40
1.0
 40
1.0
 40
1.0
 40
1.0
 10
16.5972340526
 20
14.1727723406
 30
0.0
 10
16.5987823116
 20
14.1727723406
 30
0.0
 10
16.6019462639
 20
14.1725571113
 30
0.0
 10
16.6066687798
 20
14.1716732212
 30
0.0
 10
16.6113250867
 20
14.1702457686
 30
0.0
 10
16.6157369526
 20
14.1683304489
 30
0.0
 10
16.6197431412
 20
14.166001765
 30
0.0
 10
16.6231952241
 20
14.1633404329
 30
0.0
 10
16.6259610751
 20
14.1604443854
 30
0.0
 10
16.6273592271
 20
14.1583068135
 30
0.0
 10
16.6278866241
 20
14.1572320914
 30
0.0
  0
SPLINE
  5
2FD
100
AcDbEntity
  8
0
100
AcDbSpline
 62
7
  6
CONTINUOUS
 70
0
 71
3
 72
15
 73
11
 74
0
 42
0.0000001
 43
0.0000001
 44
0.0000000001
 40
0.0
 40
0.0
 40
0.0
 40
0.0
 40
0.0996460258
 40
0.202871995
 40
0.3125942961
 40
0.4308571914
 40
0.5588152516
 40
0.6968313121
 40
0.8443983882
 40
1.0
 40
1.0
 40
1.0
 40
1.0
 10
15.2454361207
 20
14.1646132842
 30
0.0
 10
15.2456262358
 20
14.1652285252
 30
0.0
 10
15.2461648757
 20
14.166439468
 30
0.0
 10
15.2473958646
 20
14.1680604126
 30
0.0
 10
15.2490192519
 20
14.1694755797
 30
0.0
 10
15.251003416
 20
14.1706596389
 30
0.0
 10
15.2533109581
 20
14.1715982702
 30
0.0
 10
15.2559025727
 20
14.1722769952
 30
0.0
 10
15.258729449
 20
14.1726846574
 30
0.0
 10
15.2606900629
 20
14.1727723406
 30
0.0
 10
15.2616956113
 20
14.1727723406
 30
0.0
  0
SPLINE
  5
2FE
100
AcDbEntity
  8
0
100
AcDbSpline
 62
7
  6
CONTINUOUS
 70
0
 71
3
 72
11
 73
7
 74
0
 42
0.0000001
 43
0.0000001
 44
0.0000000001
 40
0.0
 40
0.0
 40
0.0
 40
0.0
 40
0.2336944074
 40
0.4747279727
 40
0.7289544192
 40
1.0
 40
1.0
 40
1.0
 40
1.0
 10
14.277170827
 20
11.0313056457
 30
0.0
 10
14.2769959724
 20
11.03073979
 30
0.0
 10
14.2767656609
 20
11.0295476425
 30
0.0
 10
14.2768079529
 20
11.0276883643
 30
0.0
 10
14.27722576
 20
11.025781189
 30
0.0
 10
14.2777272239
 20
11.0245411186
 30
0.0
 10
14.2780298395
 20
11.0239244529
 30
0.0
  0
SPLINE
  5
2FF
100
AcDbEntity
  8
0
100
AcDbSpline
 62
7
  6
CONTINUOUS
 70
0
 71
3
 72
9
 73
5
 74
0
 42
0.0000001
 43
0.0000001
 44
0.0000000001
 40
0.0
 40
0.0
 40
0.0
 40
0.0
 40
0.5176005198
 40
1.0
 40
1.0
 40
1.0
 40
1.0
 10
16.6513244397
 20
14.1094708448
 30
0.0
 10
16.6526048825
 20
14.1068615768
 30
0.0
 10
16.6547066284
 20
14.101623642
 30
0.0
 10
16.6558283554
 20
14.0960794272
 30
0.0
 10
16.656081065
 20
14.0933823949
 30
0.0
  0
SPLINE
  5
300
100
AcDbEntity
  8
0
100
AcDbSpline
 62
7
  6
CONTINUOUS
 70
0
 71
3
 72
14
 73
10
 74
0
 42
0.0000001
 43
0.0000001
 44
0.0000000001
 40
0.0
 40
0.0
 40
0.0
 40
0.0
 40
0.1556293983
 40
0.3032646104
 40
0.5688233938
 40
0.6871314535
 40
0.7968673364
 40
0.9001626739
 40
1.0
 40
1.0
 40
1.0
 40
1.0
 10
15.6805697186
 20
10.8488376452
 30
0.0
 10
15.6815748697
 20
10.8488376452
 30
0.0
 10
15.6835358559
 20
10.8489254594
 30
0.0
 10
15.687173705
 20
10.8494501453
 30
0.0
 10
15.6904943028
 20
10.850494232
 30
0.0
 10
15.6932445409
 20
10.8521328623
 30
0.0
 10
15.6948683865
 20
10.8535472158
 30
0.0
 10
15.6960998179
 20
10.8551686383
 30
0.0
 10
15.6966381299
 20
10.8563808522
 30
0.0
 10
15.6968279979
 20
10.856997076
 30
0.0
  0
SPLINE
  5
301
100
AcDbEntity
  8
0
100
AcDbSpline
 62
7
  6
CONTINUOUS
 70
0
 71
3
 72
15
 73
11
 74
0
 42
0.0000001
 43
0.0000001
 44
0.0000000001
 40
0.0
 40
0.0
 40
0.0
 40
0.0
 40
0.1102070219
 40
0.2287221836
 40
0.3536316563
 40
0.4829519578
 40
0.6145659269
 40
0.7462249233
 40
0.8755868761
 40
1.0
 40
1.0
 40
1.0
 40
1.0
 10
14.4010275073
 20
10.8603557819
 30
0.0
 10
14.4017828405
 20
10.8595049499
 30
0.0
 10
14.4034854612
 20
10.8578568291
 30
0.0
 10
14.4064028262
 20
10.8556498794
 30
0.0
 10
14.4097139013
 20
10.8536750979
 30
0.0
 10
14.4133256691
 20
10.8519807848
 30
0.0
 10
14.4171471101
 20
10.8506129819
 30
0.0
 10
14.4210791983
 20
10.8496039388
 30
0.0
 10
14.4250159739
 20
10.8489866568
 30
0.0
 10
14.4276373083
 20
10.8488376452
 30
0.0
 10
14.4289217029
 20
10.8488376452
 30
0.0
  0
SPLINE
  5
302
100
AcDbEntity
  8
0
100
AcDbSpline
 62
7
  6
CONTINUOUS
 70
0
 71
3
 72
9
 73
5
 74
0
 42
0.0000001
 43
0.0000001
 44
0.0000000001
 40
0.0
 40
0.0
 40
0.0
 40
0.0
 40
0.4813568173
 40
1.0
 40
1.0
 40
1.0
 40
1.0
 10
14.3014676551
 20
10.9761632063
 30
0.0
 10
14.3028497393
 20
10.9733468148
 30
0.0
 10
14.3061967646
 20
10.9677234681
 30
0.0
 10
14.310257044
 20
10.9626026007
 30
0.0
 10
14.3125011588
 20
10.9600747564
 30
0.0
  0
SPLINE
  5
303
100
AcDbEntity
  8
0
100
AcDbSpline
 62
7
  6
CONTINUOUS
 70
0
 71
3
 72
15
 73
11
 74
0
 42
0.0000001
 43
0.0000001
 44
0.0000000001
 40
0.0
 40
0.0
 40
0.0
 40
0.0
 40
0.100185676
 40
0.2118989675
 40
0.3337842728
 40
0.4637283073
 40
0.5987339848
 40
0.7354242749
 40
0.8704314442
 40
1.0
 40
1.0
 40
1.0
 40
1.0
 10
15.6596213305
 20
11.0239244529
 30
0.0
 10
15.6590939335
 20
11.024999175
 30
0.0
 10
15.6576957815
 20
11.0271367469
 30
0.0
 10
15.6549299305
 20
11.0300327943
 30
0.0
 10
15.6514778476
 20
11.0326941265
 30
0.0
 10
15.647471659
 20
11.0350228103
 30
0.0
 10
15.643059793
 20
11.0369381301
 30
0.0
 10
15.6384034862
 20
11.0383655827
 30
0.0
 10
15.6336809703
 20
11.0392494728
 30
0.0
 10
15.6305170179
 20
11.0394647021
 30
0.0
 10
15.628968759
 20
11.0394647021
 30
0.0
  0
SPLINE
  5
304
100
AcDbEntity
  8
0
100
AcDbSpline
 62
7
  6
CONTINUOUS
 70
0
 71
3
 72
15
 73
11
 74
0
 42
0.0000001
 43
0.0000001
 44
0.0000000001
 40
0.0
 40
0.0
 40
0.0
 40
0.0
 40
0.1556016118
 40
0.3031686879
 40
0.4411847484
 40
0.5691428086
 40
0.6874057039
 40
0.797128005
 40
0.9003539742
 40
1.0
 40
1.0
 40
1.0
 40
1.0
 10
14.2934303177
 20
11.0394647021
 30
0.0
 10
14.2924247693
 20
11.0394647021
 30
0.0
 10
14.2904641553
 20
11.0393770189
 30
0.0
 10
14.2876372791
 20
11.0389693567
 30
0.0
 10
14.2850456645
 20
11.0382906317
 30
0.0
 10
14.2827381224
 20
11.0373520004
 30
0.0
 10
14.2807539583
 20
11.0361679412
 30
0.0
 10
14.279130571
 20
11.0347527741
 30
0.0
 10
14.277899582
 20
11.0331318295
 30
0.0
 10
14.2773609422
 20
11.0319208867
 30
0.0
 10
14.277170827
 20
11.0313056457
 30
0.0
  0
SPLINE
  5
305
100
AcDbEntity
  8
0
100
AcDbSpline
 62
7
  6
CONTINUOUS
 70
0
 71
3
 72
9
 73
5
 74
0
 42
0.0000001
 43
0.0000001
 44
0.0000000001
 40
0.0
 40
0.0
 40
0.0
 40
0.0
 40
0.4823994802
 40
1.0
 40
1.0
 40
1.0
 40
1.0
 10
15.6878157714
 20
10.9600747564
 30
0.0
 10
15.6875630618
 20
10.9627717887
 30
0.0
 10
15.6864413348
 20
10.9683160035
 30
0.0
 10
15.6843395889
 20
10.9735539383
 30
0.0
 10
15.6830591461
 20
10.9761632063
 30
0.0
  0
ENDSEC
  0
SECTION
  2
OBJECTS
  0
DICTIONARY
  5
C
100
AcDbDictionary
280
0
281
1
  3
ACAD_GROUP
350
D
  3
ACAD_MLINESTYLE
350
17
  3
ACAD_LAYOUT
350
1A
  3
ACAD_PLOTSETTINGS
350
19
  3
ACAD_PLOTSTYLENAME
350
E
  0
DICTIONARY
  5
D
102
{ACAD_REACTORS
330
C
102
}
100
AcDbDictionary
280
0
281
1
  0
ACDBDICTIONARYWDFLT
  5
E
102
{ACAD_REACTORS
330
C
102
}
100
AcDbDictionary
281
1
  3
Normal
350
F
100
AcDbDictionaryWithDefault
340
F
  0
DICTIONARY
  5
17
102
{ACAD_REACTORS
330
C
102
}
100
AcDbDictionary
280
0
281
1
  3
Standard
350
18
  0
DICTIONARY
  5
19
102
{ACAD_REACTORS
330
C
102
}
100
AcDbDictionary
281
1
  0
DICTIONARY
  5
1A
102
{ACAD_REACTORS
330
C
102
}
100
AcDbDictionary
281
1
  3
Model
350
306
  3
Layout1
350
307
  0
ACDBPLACEHOLDER
  5
F
102
{ACAD_REACTORS
330
E
102
}
  0
MLINESTYLE
  5
18
102
{ACAD_REACTORS
330
17
102
}
100
AcDbMlineStyle
  2
STANDARD
 70
0
  3

 62
256
 51
90.0
 52
90.0
 71
2
 49
0.5
 62
256
  6
BYLAYER
 49
-0.5
 62
256
  6
BYLAYER
  0
LAYOUT
  5
306
102
{ACAD_REACTORS
330
1A
102
}
100
AcDbPlotSettings
  1

  2
none_device
  4
ANSI_C_(22.00_x_17.00_Inches)
  6

 40
0.0
 41
0.0
 42
0.0
 43
0.0
 44
558.8
 45
431.8
 46
0.0
 47
0.0
 48
0.0
 49
0.0
140
0.0
141
0.0
142
1.0
143
1.0
 70
1024
 72
0
 73
0
 74
0
  7

 75
0
147
1.0
148
0.0
149
0.0
100
AcDbLayout
  1
Model
 70
0
 71
0
 10
0.0
 20
0.0
 11
22.0
 21
17.0
 12
0.0
 22
0.0
 32
0.0
 14
0.0
 24
0.0
 34
0.0
 15
0.0
 25
0.0
 35
0.0
146
0.0
 13
0.0
 23
0.0
 33
0.0
 16
1.0
 26
0.0
 36
0.0
 17
0.0
 27
1.0
 37
0.0
 76
0
330
216
345
0
346
0
  0
LAYOUT
  5
307
102
{ACAD_REACTORS
330
1A
102
}
100
AcDbPlotSettings
  1

  2
none_device
  4
ANSI_C_(22.00_x_17.00_Inches)
  6

 40
0.0
 41
0.0
 42
0.0
 43
0.0
 44
558.8
 45
431.8
 46
0.0
 47
0.0
 48
0.0
 49
0.0
140
0.0
141
0.0
142
1.0
143
1.0
 70
0
 72
0
 73
0
 74
0
  7

 75
0
147
1.0
148
0.0
149
0.0
100
AcDbLayout
  1
Layout1
 70
0
 71
1
 10
0.0
 20
0.0
 11
22.0
 21
17.0
 12
0.0
 22
0.0
 32
0.0
 14
0.0
 24
0.0
 34
0.0
 15
0.0
 25
0.0
 35
0.0
146
0.0
 13
0.0
 23
0.0
 33
0.0
 16
1.0
 26
0.0
 36
0.0
 17
0.0
 27
1.0
 37
0.0
 76
0
330
217
345
0
346
0
  0
ENDSEC
  0
EOF