999
DXF file: _cgs_temp_output.dxf
999
Pro/ENGINEER 2015110 by Parametric Technology Corporation
  0
SECTION
  2
HEADER
  9
$ACADVER
  1
AC1021
  9
$DWGCODEPAGE
  3
ANSI_1252
  9
$EXTMAX
 10
22.0
 20
17.0
 30
0.0
  9
$EXTMIN
 10
0.0
 20
0.0
 30
0.0
  9
$LIMMIN
 10
0.0
 20
0.0
  9
$LIMMAX
 10
22.0
 20
17.0
  9
$VIEWCTR
 10
11.0
 20
8.5
  9
$VIEWSIZE
 40
17.0
  9
$CLAYER
  8
0
  9
$LTSCALE
 40
1.21
  9
$CELTYPE
  6
BYLAYER
  9
$DIMSCALE
 40
1.0
  9
$DIMASZ
 40
0.1875
  9
$DIMEXO
 40
0.0625
  9
$DIMDLI
 40
0.836
  9
$DIMEXE
 40
0.125
  9
$DIMCEN
 40
0.198
  9
$DIMLFAC
 40
1.0
  9
$DIMBLK
  1
_CLOSED
  9
$DIMALT
 70
0
  9
$DIMALTF
 40
25.4
  9
$DIMTXT
 40
0.15625
  9
$DIMTOL
 70
0
  9
$DIMLIM
 70
0
  9
$DIMTFAC
 40
1.0
  9
$DIMGAP
 40
0.09
  9
$DIMDSEP
 70
46
  9
$AUNITS
 70
0
  9
$PDMODE
 70
3
  9
$PDSIZE
 40
0.3125
  9
$HANDSEED
  5
2A8
  9
$TILEMODE
 70
1
  9
$MEASUREMENT
 70
0
  9
$INSUNITS
 70
1
  0
ENDSEC
  0
SECTION
  2
CLASSES
  0
CLASS
  1
ACDBDICTIONARYWDFLT
  2
AcDbDictionaryWithDefault
  3
AutoCAD 2000
 90
0
 91
1
280
0
281
0
  0
CLASS
  1
ACDBPLACEHOLDER
  2
AcDbPlaceHolder
  3
AutoCAD 2000
 90
0
 91
1
280
0
281
0
  0
CLASS
  1
LAYOUT
  2
AcDbLayout
  3
AutoCAD 2000
 90
0
 91
0
280
0
281
0
  0
ENDSEC
  0
SECTION
  2
TABLES
  0
TABLE
  2
VPORT
  5
8
100
AcDbSymbolTable
 70
2
  0
VPORT
  5
1F4
100
AcDbSymbolTableRecord
100
AcDbViewportTableRecord
  2
*ACTIVE
 70
0
 10
0.0
 20
0.0
 11
1.0
 21
1.0
 12
11.0
 22
8.5
 13
0.0
 23
0.0
 14
1.0
 24
1.0
 15
0.0
 25
0.0
 16
0.0
 26
0.0
 36
1.0
 17
0.0
 27
0.0
 37
0.0
 40
17.0
 41
1.2941176471
 42
50.0
 43
0.0
 44
0.0
 50
0.0
 51
0.0
 71
0
 72
100
 73
1
 74
1
 75
0
 76
0
 77
0
 78
0
  0
ENDTAB
  0
TABLE
  2
LTYPE
  5
5
100
AcDbSymbolTable
 70
6
  0
LTYPE
  5
14
100
AcDbSymbolTableRecord
100
AcDbLinetypeTableRecord
  2
BYBLOCK
 70
0
  3

 72
65
 73
0
 40
0.0
  0
LTYPE
  5
15
100
AcDbSymbolTableRecord
100
AcDbLinetypeTableRecord
  2
BYLAYER
 70
0
  3

 72
65
 73
0
 40
0.0
  0
LTYPE
  5
16
100
AcDbSymbolTableRecord
100
AcDbLinetypeTableRecord
  2
CONTINUOUS
 70
64
  3
Solid line
 72
65
 73
0
 40
0.0
  0
LTYPE
  5
1F5
100
AcDbSymbolTableRecord
100
AcDbLinetypeTableRecord
  2
CENTER
 70
64
  3
____ _ ____ _ ____ _ ____ _ ____ _ ____ _ ____
 72
65
 73
4
 40
0.6
 49
0.375
 74
0
 49
-0.075
 74
0
 49
0.075
 74
0
 49
-0.075
 74
0
  0
LTYPE
  5
1F6
100
AcDbSymbolTableRecord
100
AcDbLinetypeTableRecord
  2
HIDDEN
 70
64
  3
- - - - - - - - - - - - - - - - - - - -
 72
65
 73
2
 40
0.2
 49
0.1
 74
0
 49
-0.1
 74
0
  0
LTYPE
  5
1F7
100
AcDbSymbolTableRecord
100
AcDbLinetypeTableRecord
  2
PHANTOM
 70
64
  3
_____ _ _ _____ _ _ _____ _ _ _____
 72
65
 73
6
 40
0.8
 49
0.45
 74
0
 49
-0.05
 74
0
 49
0.1
 74
0
 49
-0.05
 74
0
 49
0.1
 74
0
 49
-0.05
 74
0
  0
LTYPE
  5
1F8
100
AcDbSymbolTableRecord
100
AcDbLinetypeTableRecord
  2
DOT
 70
64
  3
. . . . . . . . . . . . . . . . . . . .
 72
65
 73
2
 40
0.2
 49
0.1
 74
0
 49
-0.1
 74
0
  0
LTYPE
  5
1F9
100
AcDbSymbolTableRecord
100
AcDbLinetypeTableRecord
  2
DASHED
 70
64
  3
- - - - - - - - - - - - - - - - - - - -
 72
65
 73
2
 40
0.2
 49
0.1
 74
0
 49
-0.1
 74
0
  0
ENDTAB
  0
TABLE
  2
LAYER
  5
2
100
AcDbSymbolTable
 70
36
  0
LAYER
  5
10
100
AcDbSymbolTableRecord
100
AcDbLayerTableRecord
  2
0
 70
0
 62
7
  6
CONTINUOUS
370
-3
390
F
  0
LAYER
  5
1FA
100
AcDbSymbolTableRecord
100
AcDbLayerTableRecord
  2
DEFAULT_1
 70
0
 62
7
  6
CENTER
370
-3
390
F
  0
LAYER
  5
1FB
100
AcDbSymbolTableRecord
100
AcDbLayerTableRecord
  2
DEFAULT_2
 70
0
 62
8
  6
HIDDEN
370
-3
390
F
  0
LAYER
  5
1FC
100
AcDbSymbolTableRecord
100
AcDbLayerTableRecord
  2
DEFAULT_3
 70
0
 62
7
  6
PHANTOM
370
-3
390
F
  0
LAYER
  5
1FD
100
AcDbSymbolTableRecord
100
AcDbLayerTableRecord
  2
01_ALL_DTM_PLN
 70
0
 62
7
  6
CONTINUOUS
370
-3
390
F
  0
LAYER
  5
1FE
100
AcDbSymbolTableRecord
100
AcDbLayerTableRecord
  2
01__ASM_ALL_DTM_PLN
 70
0
 62
7
  6
CONTINUOUS
370
-3
390
F
  0
LAYER
  5
1FF
100
AcDbSymbolTableRecord
100
AcDbLayerTableRecord
  2
01__ASM_DEF_DTM_PLN
 70
0
 62
7
  6
CONTINUOUS
370
-3
390
F
  0
LAYER
  5
200
100
AcDbSymbolTableRecord
100
AcDbLayerTableRecord
  2
01___PRT_ALL_DTM_PLN
 70
0
 62
7
  6
CONTINUOUS
370
-3
390
F
  0
LAYER
  5
201
100
AcDbSymbolTableRecord
100
AcDbLayerTableRecord
  2
01___PRT_DEF_DTM_PLN
 70
0
 62
7
  6
CONTINUOUS
370
-3
390
F
  0
LAYER
  5
202
100
AcDbSymbolTableRecord
100
AcDbLayerTableRecord
  2
02_ALL_AXES
 70
0
 62
7
  6
CONTINUOUS
370
-3
390
F
  0
LAYER
  5
203
100
AcDbSymbolTableRecord
100
AcDbLayerTableRecord
  2
02__ASM_ALL_AXES
 70
0
 62
7
  6
CONTINUOUS
370
-3
390
F
  0
LAYER
  5
204
100
AcDbSymbolTableRecord
100
AcDbLayerTableRecord
  2
02___PRT_ALL_AXES
 70
0
 62
7
  6
CONTINUOUS
370
-3
390
F
  0
LAYER
  5
205
100
AcDbSymbolTableRecord
100
AcDbLayerTableRecord
  2
03_ALL_CURVES
 70
0
 62
7
  6
CONTINUOUS
370
-3
390
F
  0
LAYER
  5
206
100
AcDbSymbolTableRecord
100
AcDbLayerTableRecord
  2
03__ASM_ALL_CURVES
 70
0
 62
7
  6
CONTINUOUS
370
-3
390
F
  0
LAYER
  5
207
100
AcDbSymbolTableRecord
100
AcDbLayerTableRecord
  2
03___PRT_ALL_CURVES
 70
0
 62
7
  6
CONTINUOUS
370
-3
390
F
  0
LAYER
  5
208
100
AcDbSymbolTableRecord
100
AcDbLayerTableRecord
  2
04_ALL_DTM_PNT
 70
0
 62
7
  6
CONTINUOUS
370
-3
390
F
  0
LAYER
  5
209
100
AcDbSymbolTableRecord
100
AcDbLayerTableRecord
  2
04__ASM_ALL_DTM_PNT
 70
0
 62
7
  6
CONTINUOUS
370
-3
390
F
  0
LAYER
  5
20A
100
AcDbSymbolTableRecord
100
AcDbLayerTableRecord
  2
04___PRT_ALL_DTM_PNT
 70
0
 62
7
  6
CONTINUOUS
370
-3
390
F
  0
LAYER
  5
20B
100
AcDbSymbolTableRecord
100
AcDbLayerTableRecord
  2
05_ALL_DTM_CSYS
 70
0
 62
7
  6
CONTINUOUS
370
-3
390
F
  0
LAYER
  5
20C
100
AcDbSymbolTableRecord
100
AcDbLayerTableRecord
  2
05__ASM_ALL_DTM_CSYS
 70
0
 62
7
  6
CONTINUOUS
370
-3
390
F
  0
LAYER
  5
20D
100
AcDbSymbolTableRecord
100
AcDbLayerTableRecord
  2
05__ASM_DEF_DTM_CSYS
 70
0
 62
7
  6
CONTINUOUS
370
-3
390
F
  0
LAYER
  5
20E
100
AcDbSymbolTableRecord
100
AcDbLayerTableRecord
  2
05___PRT_ALL_DTM_CSYS
 70
0
 62
7
  6
CONTINUOUS
370
-3
390
F
  0
LAYER
  5
20F
100
AcDbSymbolTableRecord
100
AcDbLayerTableRecord
  2
05___PRT_DEF_DTM_CSYS
 70
0
 62
7
  6
CONTINUOUS
370
-3
390
F
  0
LAYER
  5
210
100
AcDbSymbolTableRecord
100
AcDbLayerTableRecord
  2
06_ALL_SURFS
 70
0
 62
7
  6
CONTINUOUS
370
-3
390
F
  0
LAYER
  5
211
100
AcDbSymbolTableRecord
100
AcDbLayerTableRecord
  2
06__ASM_ALL_SURFS
 70
0
 62
7
  6
CONTINUOUS
370
-3
390
F
  0
LAYER
  5
212
100
AcDbSymbolTableRecord
100
AcDbLayerTableRecord
  2
06___PRT_ALL_SURFS
 70
0
 62
7
  6
CONTINUOUS
370
-3
390
F
  0
LAYER
  5
213
100
AcDbSymbolTableRecord
100
AcDbLayerTableRecord
  2
07__ASM_ALL_SKELETONS
 70
0
 62
7
  6
CONTINUOUS
370
-3
390
F
  0
ENDTAB
  0
TABLE
  2
STYLE
  5
3
100
AcDbSymbolTable
 70
1
  0
STYLE
  5
11
100
AcDbSymbolTableRecord
100
AcDbTextStyleTableRecord
  2
STANDARD
 70
0
 40
0.0
 41
0.8
 50
0.0
 71
0
 42
0.2
  3
txt
  4

  0
STYLE
  5
214
100
AcDbSymbolTableRecord
100
AcDbTextStyleTableRecord
  2
TEXTSTYLE_1
 70
0
 40
0.0
 41
0.8
 50
0.0
 71
0
 42
0.2
  3
gdt
  4

  0
ENDTAB
  0
TABLE
  2
VIEW
  5
6
100
AcDbSymbolTable
 70
0
  0
ENDTAB
  0
TABLE
  2
UCS
  5
7
100
AcDbSymbolTable
 70
0
  0
ENDTAB
  0
TABLE
  2
APPID
  5
9
100
AcDbSymbolTable
 70
1
  0
APPID
  5
215
100
AcDbSymbolTableRecord
100
AcDbRegAppTableRecord
  2
ACAD
 70
0
  0
ENDTAB
  0
TABLE
  2
BLOCK_RECORD
  5
1
100
AcDbSymbolTable
 70
0
  0
BLOCK_RECORD
  5
216
100
AcDbSymbolTableRecord
100
AcDbBlockTableRecord
  2
*Model_Space
  0
BLOCK_RECORD
  5
217
100
AcDbSymbolTableRecord
100
AcDbBlockTableRecord
  2
*Paper_Space
  0
ENDTAB
  0
TABLE
  2
DIMSTYLE
  5
A
100
AcDbSymbolTable
 70
1
100
AcDbDimStyleTable
 71
0
  0
DIMSTYLE
105
218
100
AcDbSymbolTableRecord
100
AcDbDimStyleTableRecord
  2
STANDARD
 70
0
  3

  4

 40
1.0
 41
0.1875
 42
0.0625
 43
0.38
 44
0.125
 45
0.0
 46
0.0
 47
0.0001
 48
0.0001
140
0.15625
141
0.09
142
0.0
143
25.4
144
1.0
145
0.0
146
1.0
147
0.09
 71
0.0
 72
0.0
 73
1
 74
1
 75
0
 76
0
 77
0
 78
4
170
0
171
2
172
0
173
0
174
0
175
0
176
0
177
0
178
0
270
2
271
4
272
4
273
2
274
2
275
0
280
0
281
0
282
0
283
1
284
4
285
0
286
0
287
3
288
0
340
11
278
46
  0
ENDTAB
  0
ENDSEC
  0
SECTION
  2
BLOCKS
  0
BLOCK
  5
20
100
AcDbEntity
  8
0
100
AcDbBlockBegin
  2
*Model_Space
 70
0
 10
0.0
 20
0.0
 30
0.0
  3
*Model_Space
  1

  0
ENDBLK
  5
21
100
AcDbEntity
  8
0
100
AcDbBlockEnd
  0
BLOCK
  5
1C
100
AcDbEntity
  8
0
100
AcDbBlockBegin
  2
*Paper_Space
 70
0
 10
0.0
 20
0.0
 30
0.0
  3
*Paper_Space
  1

  0
ENDBLK
  5
1D
100
AcDbEntity
  8
0
100
AcDbBlockEnd
  0
ENDSEC
  0
SECTION
  2
ENTITIES
  0
MTEXT
  5
219
100
AcDbEntity
  8
0
100
AcDbMText
 62
7
  6
CONTINUOUS
  7
STANDARD
 71
1
 72
1
 10
15.9560215477
 20
0.9479130325
 30
0.0
 11
1.0
 21
0.0
 31
0.0
 44
0.9
  1
SCALE: 1:1.000
 40
0.3
 41
3.36
  0
LINE
  5
21A
100
AcDbEntity
  8
0
100
AcDbLine
 62
7
  6
CONTINUOUS
 10
0.0
 20
0.0
 11
0.0
 21
17.0
  0
LINE
  5
21B
100
AcDbEntity
  8
0
100
AcDbLine
 62
7
  6
CONTINUOUS
 10
0.0
 20
0.0
 11
22.0
 21
0.0
  0
LINE
  5
21C
100
AcDbEntity
  8
0
100
AcDbLine
 62
7
  6
CONTINUOUS
 10
0.0
 20
17.0
 11
22.0
 21
17.0
  0
LINE
  5
21D
100
AcDbEntity
  8
0
100
AcDbLine
 62
7
  6
CONTINUOUS
 10
22.0
 20
0.0
 11
22.0
 21
17.0
  0
LINE
  5
21E
100
AcDbEntity
  8
0
100
AcDbLine
 62
7
  6
CONTINUOUS
 10
4.4768239691
 20
5.7151986369
 11
4.4768239691
 21
5.5549624164
  0
LINE
  5
21F
100
AcDbEntity
  8
0
100
AcDbLine
 62
7
  6
CONTINUOUS
 10
4.6914231305
 20
5.3250411566
 11
4.8134059101
 21
5.3250411566
  0
LINE
  5
220
100
AcDbEntity
  8
0
100
AcDbLine
 62
7
  6
CONTINUOUS
 10
5.2426042328
 20
5.3250411566
 11
5.3645870124
 21
5.3250411566
  0
LINE
  5
221
100
AcDbEntity
  8
0
100
AcDbLine
 62
7
  6
CONTINUOUS
 10
5.7937853352
 20
5.3250411566
 11
5.9157681148
 21
5.3250411566
  0
LINE
  5
222
100
AcDbEntity
  8
0
100
AcDbLine
 62
7
  6
CONTINUOUS
 10
6.3449664376
 20
5.3250411566
 11
6.4669492171
 21
5.3250411566
  0
LINE
  5
223
100
AcDbEntity
  8
0
100
AcDbLine
 62
7
  6
CONTINUOUS
 10
6.8961475399
 20
5.3250411566
 11
7.0181303195
 21
5.3250411566
  0
LINE
  5
224
100
AcDbEntity
  8
0
100
AcDbLine
 62
7
  6
CONTINUOUS
 10
7.4473286423
 20
5.3250411566
 11
7.5693114219
 21
5.3250411566
  0
LINE
  5
225
100
AcDbEntity
  8
0
100
AcDbLine
 62
7
  6
CONTINUOUS
 10
4.4768239691
 20
5.5549624164
 11
4.5366312066
 21
5.5549624164
  0
LINE
  5
226
100
AcDbEntity
  8
0
100
AcDbLine
 62
7
  6
CONTINUOUS
 10
4.9681978339
 20
5.5549624164
 11
5.087812309
 21
5.5549624164
  0
LINE
  5
227
100
AcDbEntity
  8
0
100
AcDbLine
 62
7
  6
CONTINUOUS
 10
5.5193789362
 20
5.5549624164
 11
5.6389934114
 21
5.5549624164
  0
LINE
  5
228
100
AcDbEntity
  8
0
100
AcDbLine
 62
7
  6
CONTINUOUS
 10
6.0705600386
 20
5.5549624164
 11
6.1901745137
 21
5.5549624164
  0
LINE
  5
229
100
AcDbEntity
  8
0
100
AcDbLine
 62
7
  6
CONTINUOUS
 10
6.621741141
 20
5.5549624164
 11
6.7413556161
 21
5.5549624164
  0
LINE
  5
22A
100
AcDbEntity
  8
0
100
AcDbLine
 62
7
  6
CONTINUOUS
 10
7.1729222433
 20
5.5549624164
 11
7.2925367185
 21
5.5549624164
  0
LINE
  5
22B
100
AcDbEntity
  8
0
100
AcDbLine
 62
7
  6
CONTINUOUS
 10
7.7241033457
 20
5.5549624164
 11
7.7839105833
 21
5.5549624164
  0
LINE
  5
22C
100
AcDbEntity
  8
0
100
AcDbLine
 62
7
  6
CONTINUOUS
 10
7.7839105833
 20
5.7151986369
 11
4.4768239691
 21
5.7151986369
  0
LINE
  5
22D
100
AcDbEntity
  8
0
100
AcDbLine
 62
7
  6
CONTINUOUS
 10
7.7839105833
 20
5.5549624164
 11
7.7839105833
 21
5.7151986369
  0
LINE
  5
22E
100
AcDbEntity
  8
0
100
AcDbLine
 62
7
  6
CONTINUOUS
 10
7.7244153909
 20
10.3362682538
 11
4.4173287768
 21
10.3362682538
  0
LINE
  5
22F
100
AcDbEntity
  8
0
100
AcDbLine
 62
7
  6
CONTINUOUS
 10
4.4173287768
 20
14.8638273089
 11
4.4173287768
 21
10.3362682538
  0
LINE
  5
230
100
AcDbEntity
  8
0
100
AcDbLine
 62
7
  6
CONTINUOUS
 10
7.7244153909
 20
14.8638273089
 11
7.7244153909
 21
10.3362682538
  0
LINE
  5
231
100
AcDbEntity
  8
0
100
AcDbLine
 62
7
  6
CONTINUOUS
 10
4.4173287768
 20
14.8638273089
 11
7.7244153909
 21
14.8638273089
  0
LINE
  5
232
100
AcDbEntity
  8
0
100
AcDbLine
 62
7
  6
CONTINUOUS
 10
13.2965757294
 20
5.2655459643
 11
13.2965757294
 21
5.6557034446
  0
LINE
  5
233
100
AcDbEntity
  8
0
100
AcDbLine
 62
7
  6
CONTINUOUS
 10
13.2965757294
 20
5.2655459643
 11
17.8241347845
 21
5.2655459643
  0
LINE
  5
234
100
AcDbEntity
  8
0
100
AcDbLine
 62
7
  6
CONTINUOUS
 10
17.8241347845
 20
5.4954672241
 11
13.2965757294
 21
5.4954672241
  0
LINE
  5
235
100
AcDbEntity
  8
0
100
AcDbLine
 62
7
  6
CONTINUOUS
 10
17.8241347845
 20
5.6557034446
 11
13.2965757294
 21
5.6557034446
  0
LINE
  5
236
100
AcDbEntity
  8
0
100
AcDbLine
 62
7
  6
CONTINUOUS
 10
17.8241347845
 20
5.2655459643
 11
17.8241347845
 21
5.6557034446
  0
LINE
  5
237
100
AcDbEntity
  8
0
100
AcDbLine
 62
7
  6
CONTINUOUS
 10
13.3756740613
 20
10.858788461
 11
13.4245528171
 21
10.7591840291
  0
LINE
  5
238
100
AcDbEntity
  8
0
100
AcDbLine
 62
7
  6
CONTINUOUS
 10
13.6923473443
 20
10.616262682
 11
13.8047009245
 21
10.616262682
  0
LINE
  5
239
100
AcDbEntity
  8
0
100
AcDbLine
 62
7
  6
CONTINUOUS
 10
14.2000187583
 20
10.616262682
 11
14.3123723385
 21
10.616262682
  0
LINE
  5
23A
100
AcDbEntity
  8
0
100
AcDbLine
 62
7
  6
CONTINUOUS
 10
14.7076901723
 20
10.616262682
 11
14.8200437525
 21
10.616262682
  0
LINE
  5
23B
100
AcDbEntity
  8
0
100
AcDbLine
 62
7
  6
CONTINUOUS
 10
15.2153615863
 20
10.616262682
 11
15.3277151665
 21
10.616262682
  0
LINE
  5
23C
100
AcDbEntity
  8
0
100
AcDbLine
 62
7
  6
CONTINUOUS
 10
15.7230330003
 20
10.616262682
 11
15.8353865806
 21
10.616262682
  0
LINE
  5
23D
100
AcDbEntity
  8
0
100
AcDbLine
 62
7
  6
CONTINUOUS
 10
16.2307044143
 20
10.616262682
 11
16.3430579946
 21
10.616262682
  0
LINE
  5
23E
100
AcDbEntity
  8
0
100
AcDbLine
 62
7
  6
CONTINUOUS
 10
13.4245528171
 20
10.7591840291
 11
13.4796389308
 21
10.7591840291
  0
LINE
  5
23F
100
AcDbEntity
  8
0
100
AcDbLine
 62
7
  6
CONTINUOUS
 10
13.8771381174
 20
10.7591840291
 11
13.9873103448
 21
10.7591840291
  0
LINE
  5
240
100
AcDbEntity
  8
0
100
AcDbLine
 62
7
  6
CONTINUOUS
 10
14.3848095314
 20
10.7591840291
 11
14.4949817588
 21
10.7591840291
  0
LINE
  5
241
100
AcDbEntity
  8
0
100
AcDbLine
 62
7
  6
CONTINUOUS
 10
14.8924809455
 20
10.7591840291
 11
15.0026531728
 21
10.7591840291
  0
LINE
  5
242
100
AcDbEntity
  8
0
100
AcDbLine
 62
7
  6
CONTINUOUS
 10
15.4001523595
 20
10.7591840291
 11
15.5103245868
 21
10.7591840291
  0
LINE
  5
243
100
AcDbEntity
  8
0
100
AcDbLine
 62
7
  6
CONTINUOUS
 10
15.9078237735
 20
10.7591840291
 11
16.0179960008
 21
10.7591840291
  0
LINE
  5
244
100
AcDbEntity
  8
0
100
AcDbLine
 62
7
  6
CONTINUOUS
 10
16.4154951875
 20
10.7591840291
 11
16.4705813012
 21
10.7591840291
  0
LINE
  5
245
100
AcDbEntity
  8
0
100
AcDbLine
 62
7
  6
CONTINUOUS
 10
14.4716436358
 20
14.4053473038
 11
13.3756740613
 21
10.858788461
  0
LINE
  5
246
100
AcDbEntity
  8
0
100
AcDbLine
 62
7
  6
CONTINUOUS
 10
16.4217025454
 20
10.858788461
 11
13.3756740613
 21
10.858788461
  0
LINE
  5
247
100
AcDbEntity
  8
0
100
AcDbLine
 62
7
  6
CONTINUOUS
 10
13.8867929974
 20
10.7591840291
 11
13.8506478879
 21
10.6422184119
  0
LINE
  5
248
100
AcDbEntity
  8
0
100
AcDbLine
 62
7
  6
CONTINUOUS
 10
13.8492710496
 20
10.6380177429
 11
13.8506450425
 21
10.6422192908
  0
LINE
  5
249
100
AcDbEntity
  8
0
100
AcDbLine
 62
7
  6
CONTINUOUS
 10
14.3944644114
 20
10.7591840291
 11
14.358319302
 21
10.6422184119
  0
LINE
  5
24A
100
AcDbEntity
  8
0
100
AcDbLine
 62
7
  6
CONTINUOUS
 10
14.3569424636
 20
10.6380177429
 11
14.3583164565
 21
10.6422192908
  0
LINE
  5
24B
100
AcDbEntity
  8
0
100
AcDbLine
 62
7
  6
CONTINUOUS
 10
14.9021358255
 20
10.7591840291
 11
14.865990716
 21
10.6422184119
  0
LINE
  5
24C
100
AcDbEntity
  8
0
100
AcDbLine
 62
7
  6
CONTINUOUS
 10
14.8646138776
 20
10.6380177429
 11
14.8659878706
 21
10.6422192908
  0
LINE
  5
24D
100
AcDbEntity
  8
0
100
AcDbLine
 62
7
  6
CONTINUOUS
 10
16.4705813012
 20
10.7591840291
 11
16.4217025454
 21
10.858788461
  0
LINE
  5
24E
100
AcDbEntity
  8
0
100
AcDbLine
 62
7
  6
CONTINUOUS
 10
15.4098072395
 20
10.7591840291
 11
15.37366213
 21
10.6422184119
  0
LINE
  5
24F
100
AcDbEntity
  8
0
100
AcDbLine
 62
7
  6
CONTINUOUS
 10
15.3722852916
 20
10.6380177429
 11
15.3736592846
 21
10.6422192908
  0
LINE
  5
250
100
AcDbEntity
  8
0
100
AcDbLine
 62
7
  6
CONTINUOUS
 10
15.9174786535
 20
10.7591840291
 11
15.881333544
 21
10.6422184119
  0
LINE
  5
251
100
AcDbEntity
  8
0
100
AcDbLine
 62
7
  6
CONTINUOUS
 10
15.8799567056
 20
10.6380177429
 11
15.8813306986
 21
10.6422192908
  0
LINE
  5
252
100
AcDbEntity
  8
0
100
AcDbLine
 62
7
  6
CONTINUOUS
 10
17.5176721199
 20
14.4053473038
 11
16.4217025454
 21
10.858788461
  0
LINE
  5
253
100
AcDbEntity
  8
0
100
AcDbLine
 62
7
  6
CONTINUOUS
 10
16.4251500675
 20
10.7591840291
 11
16.389004958
 21
10.6422184119
  0
LINE
  5
254
100
AcDbEntity
  8
0
100
AcDbLine
 62
7
  6
CONTINUOUS
 10
17.5665508757
 20
14.3057428719
 11
16.4705813012
 21
10.7591840291
  0
LINE
  5
255
100
AcDbEntity
  8
0
100
AcDbLine
 62
7
  6
CONTINUOUS
 10
16.3876281196
 20
10.6380177429
 11
16.3890037792
 21
10.6422187762
  0
LINE
  5
256
100
AcDbEntity
  8
0
100
AcDbLine
 62
7
  6
CONTINUOUS
 10
14.4716436358
 20
14.4053473038
 11
17.5176721199
 21
14.4053473038
  0
LINE
  5
257
100
AcDbEntity
  8
0
100
AcDbLine
 62
7
  6
CONTINUOUS
 10
17.5665508757
 20
14.3057428719
 11
17.5176721199
 21
14.4053473038
  0
ARC
  5
258
100
AcDbEntity
  8
0
100
AcDbCircle
 62
7
  6
CONTINUOUS
 10
4.5284971974
 20
5.5549624164
 40
0.3961614173
100
AcDbArc
 50
330.5258999203
 51
354.0364298817
  0
ARC
  5
259
100
AcDbEntity
  8
0
100
AcDbCircle
 62
7
  6
CONTINUOUS
 10
5.5275129455
 20
5.5549624164
 40
0.3961614173
100
AcDbArc
 50
185.9635701183
 51
209.4741000797
  0
ARC
  5
25A
100
AcDbEntity
  8
0
100
AcDbCircle
 62
7
  6
CONTINUOUS
 10
5.0796782998
 20
5.5549624164
 40
0.3961614173
100
AcDbArc
 50
330.5258999203
 51
354.0364298817
  0
ARC
  5
25B
100
AcDbEntity
  8
0
100
AcDbCircle
 62
7
  6
CONTINUOUS
 10
6.0786940478
 20
5.5549624164
 40
0.3961614173
100
AcDbArc
 50
185.9635701183
 51
209.4741000797
  0
ARC
  5
25C
100
AcDbEntity
  8
0
100
AcDbCircle
 62
7
  6
CONTINUOUS
 10
5.6308594022
 20
5.5549624164
 40
0.3961614173
100
AcDbArc
 50
330.5258999203
 51
354.0364298817
  0
ARC
  5
25D
100
AcDbEntity
  8
0
100
AcDbCircle
 62
7
  6
CONTINUOUS
 10
6.6298751502
 20
5.5549624164
 40
0.3961614173
100
AcDbArc
 50
185.9635701183
 51
209.4741000797
  0
ARC
  5
25E
100
AcDbEntity
  8
0
100
AcDbCircle
 62
7
  6
CONTINUOUS
 10
4.9763318431
 20
5.5549624164
 40
0.3961614173
100
AcDbArc
 50
185.9635701183
 51
209.4741000797
  0
ARC
  5
25F
100
AcDbEntity
  8
0
100
AcDbCircle
 62
7
  6
CONTINUOUS
 10
7.2844027092
 20
5.5549624164
 40
0.3961614173
100
AcDbArc
 50
330.5258999203
 51
354.0364298817
  0
ARC
  5
260
100
AcDbEntity
  8
0
100
AcDbCircle
 62
7
  6
CONTINUOUS
 10
7.7322373549
 20
5.5549624164
 40
0.3961614173
100
AcDbArc
 50
185.9635701183
 51
209.4741000797
  0
ARC
  5
261
100
AcDbEntity
  8
0
100
AcDbCircle
 62
7
  6
CONTINUOUS
 10
6.7332216069
 20
5.5549624164
 40
0.3961614173
100
AcDbArc
 50
330.5258999203
 51
354.0364298817
  0
ARC
  5
262
100
AcDbEntity
  8
0
100
AcDbCircle
 62
7
  6
CONTINUOUS
 10
7.1810562525
 20
5.5549624164
 40
0.3961614173
100
AcDbArc
 50
185.9635701183
 51
209.4741000797
  0
ARC
  5
263
100
AcDbEntity
  8
0
100
AcDbCircle
 62
7
  6
CONTINUOUS
 10
6.1820405045
 20
5.5549624164
 40
0.3961614173
100
AcDbArc
 50
330.5258999203
 51
354.0364298817
  0
ARC
  5
264
100
AcDbEntity
  8
0
100
AcDbCircle
 62
7
  6
CONTINUOUS
 10
4.6914231305
 20
5.3939387944
 40
0.0688976378
100
AcDbArc
 50
209.4741000797
 51
270.0
  0
ARC
  5
265
100
AcDbEntity
  8
0
100
AcDbCircle
 62
7
  6
CONTINUOUS
 10
4.8134059101
 20
5.3939387944
 40
0.0688976378
100
AcDbArc
 50
270.0
 51
330.5258999203
  0
ARC
  5
266
100
AcDbEntity
  8
0
100
AcDbCircle
 62
7
  6
CONTINUOUS
 10
5.2426042328
 20
5.3939387944
 40
0.0688976378
100
AcDbArc
 50
209.4741000797
 51
270.0
  0
ARC
  5
267
100
AcDbEntity
  8
0
100
AcDbCircle
 62
7
  6
CONTINUOUS
 10
5.3645870124
 20
5.3939387944
 40
0.0688976378
100
AcDbArc
 50
270.0
 51
330.5258999203
  0
ARC
  5
268
100
AcDbEntity
  8
0
100
AcDbCircle
 62
7
  6
CONTINUOUS
 10
5.7937853352
 20
5.3939387944
 40
0.0688976378
100
AcDbArc
 50
209.4741000797
 51
270.0
  0
ARC
  5
269
100
AcDbEntity
  8
0
100
AcDbCircle
 62
7
  6
CONTINUOUS
 10
5.9157681148
 20
5.3939387944
 40
0.0688976378
100
AcDbArc
 50
270.0
 51
330.5258999203
  0
ARC
  5
26A
100
AcDbEntity
  8
0
100
AcDbCircle
 62
7
  6
CONTINUOUS
 10
6.3449664376
 20
5.3939387944
 40
0.0688976378
100
AcDbArc
 50
209.4741000797
 51
270.0
  0
ARC
  5
26B
100
AcDbEntity
  8
0
100
AcDbCircle
 62
7
  6
CONTINUOUS
 10
7.5693114219
 20
5.3939387944
 40
0.0688976378
100
AcDbArc
 50
270.0
 51
330.5258999203
  0
ARC
  5
26C
100
AcDbEntity
  8
0
100
AcDbCircle
 62
7
  6
CONTINUOUS
 10
7.4473286423
 20
5.3939387944
 40
0.0688976378
100
AcDbArc
 50
209.4741000797
 51
270.0
  0
ARC
  5
26D
100
AcDbEntity
  8
0
100
AcDbCircle
 62
7
  6
CONTINUOUS
 10
7.0181303195
 20
5.3939387944
 40
0.0688976378
100
AcDbArc
 50
270.0
 51
330.5258999203
  0
ARC
  5
26E
100
AcDbEntity
  8
0
100
AcDbCircle
 62
7
  6
CONTINUOUS
 10
6.8961475399
 20
5.3939387944
 40
0.0688976378
100
AcDbArc
 50
209.4741000797
 51
270.0
  0
ARC
  5
26F
100
AcDbEntity
  8
0
100
AcDbCircle
 62
7
  6
CONTINUOUS
 10
6.4669492171
 20
5.3939387944
 40
0.0688976378
100
AcDbArc
 50
270.0
 51
330.5258999203
  0
ARC
  5
270
100
AcDbEntity
  8
0
100
AcDbCircle
 62
7
  6
CONTINUOUS
 10
4.5366312066
 20
5.5090306579
 40
0.0459317585
100
AcDbArc
 50
5.9635701183
 51
90.0
  0
ARC
  5
271
100
AcDbEntity
  8
0
100
AcDbCircle
 62
7
  6
CONTINUOUS
 10
4.9681978339
 20
5.5090306579
 40
0.0459317585
100
AcDbArc
 50
90.0
 51
174.0364298817
  0
ARC
  5
272
100
AcDbEntity
  8
0
100
AcDbCircle
 62
7
  6
CONTINUOUS
 10
5.087812309
 20
5.5090306579
 40
0.0459317585
100
AcDbArc
 50
5.9635701183
 51
90.0
  0
ARC
  5
273
100
AcDbEntity
  8
0
100
AcDbCircle
 62
7
  6
CONTINUOUS
 10
5.5193789362
 20
5.5090306579
 40
0.0459317585
100
AcDbArc
 50
90.0
 51
174.0364298817
  0
ARC
  5
274
100
AcDbEntity
  8
0
100
AcDbCircle
 62
7
  6
CONTINUOUS
 10
5.6389934114
 20
5.5090306579
 40
0.0459317585
100
AcDbArc
 50
5.9635701183
 51
90.0
  0
ARC
  5
275
100
AcDbEntity
  8
0
100
AcDbCircle
 62
7
  6
CONTINUOUS
 10
6.0705600386
 20
5.5090306579
 40
0.0459317585
100
AcDbArc
 50
90.0
 51
174.0364298817
  0
ARC
  5
276
100
AcDbEntity
  8
0
100
AcDbCircle
 62
7
  6
CONTINUOUS
 10
6.1901745137
 20
5.5090306579
 40
0.0459317585
100
AcDbArc
 50
5.9635701183
 51
90.0
  0
ARC
  5
277
100
AcDbEntity
  8
0
100
AcDbCircle
 62
7
  6
CONTINUOUS
 10
6.621741141
 20
5.5090306579
 40
0.0459317585
100
AcDbArc
 50
90.0
 51
174.0364298817
  0
ARC
  5
278
100
AcDbEntity
  8
0
100
AcDbCircle
 62
7
  6
CONTINUOUS
 10
6.7413556161
 20
5.5090306579
 40
0.0459317585
100
AcDbArc
 50
5.9635701183
 51
90.0
  0
ARC
  5
279
100
AcDbEntity
  8
0
100
AcDbCircle
 62
7
  6
CONTINUOUS
 10
7.1729222433
 20
5.5090306579
 40
0.0459317585
100
AcDbArc
 50
90.0
 51
174.0364298817
  0
ARC
  5
27A
100
AcDbEntity
  8
0
100
AcDbCircle
 62
7
  6
CONTINUOUS
 10
7.2925367185
 20
5.5090306579
 40
0.0459317585
100
AcDbArc
 50
5.9635701183
 51
90.0
  0
ARC
  5
27B
100
AcDbEntity
  8
0
100
AcDbCircle
 62
7
  6
CONTINUOUS
 10
7.7241033457
 20
5.5090306579
 40
0.0459317585
100
AcDbArc
 50
90.0
 51
174.0364298817
  0
SPLINE
  5
27C
100
AcDbEntity
  8
0
100
AcDbSpline
 62
7
  6
CONTINUOUS
 70
0
 71
3
 72
11
 73
7
 74
0
 42
0.0000001
 43
0.0000001
 44
0.0000000001
 40
0.0
 40
0.0
 40
0.0
 40
0.0
 40
0.2022125587
 40
0.430033564
 40
0.6962189165
 40
1.0
 40
1.0
 40
1.0
 40
1.0
 10
13.8472649529
 20
10.7441936424
 30
0.0
 10
13.847971882
 20
10.746480189
 30
0.0
 10
13.8507344907
 20
10.7510017662
 30
0.0
 10
13.85767044
 20
10.7557536291
 30
0.0
 10
13.8667704263
 20
10.7586132966
 30
0.0
 10
13.8735426464
 20
10.7591840291
 30
0.0
 10
13.8771381174
 20
10.7591840291
 30
0.0
  0
SPLINE
  5
27D
100
AcDbEntity
  8
0
100
AcDbSpline
 62
7
  6
CONTINUOUS
 70
0
 71
3
 72
11
 73
7
 74
0
 42
0.0000001
 43
0.0000001
 44
0.0000000001
 40
0.0
 40
0.0
 40
0.0
 40
0.0
 40
0.2022125587
 40
0.430033564
 40
0.6962189165
 40
1.0
 40
1.0
 40
1.0
 40
1.0
 10
14.3549363669
 20
10.7441936424
 30
0.0
 10
14.355643296
 20
10.746480189
 30
0.0
 10
14.3584059047
 20
10.7510017662
 30
0.0
 10
14.3653418541
 20
10.7557536291
 30
0.0
 10
14.3744418403
 20
10.7586132966
 30
0.0
 10
14.3812140604
 20
10.7591840291
 30
0.0
 10
14.3848095314
 20
10.7591840291
 30
0.0
  0
SPLINE
  5
27E
100
AcDbEntity
  8
0
100
AcDbSpline
 62
7
  6
CONTINUOUS
 70
0
 71
3
 72
11
 73
7
 74
0
 42
0.0000001
 43
0.0000001
 44
0.0000000001
 40
0.0
 40
0.0
 40
0.0
 40
0.0
 40
0.2022125587
 40
0.430033564
 40
0.6962189165
 40
1.0
 40
1.0
 40
1.0
 40
1.0
 10
14.8626077809
 20
10.7441936424
 30
0.0
 10
14.86331471
 20
10.746480189
 30
0.0
 10
14.8660773187
 20
10.7510017662
 30
0.0
 10
14.8730132681
 20
10.7557536291
 30
0.0
 10
14.8821132543
 20
10.7586132966
 30
0.0
 10
14.8888854745
 20
10.7591840291
 30
0.0
 10
14.8924809455
 20
10.7591840291
 30
0.0
  0
SPLINE
  5
27F
100
AcDbEntity
  8
0
100
AcDbSpline
 62
7
  6
CONTINUOUS
 70
0
 71
3
 72
11
 73
7
 74
0
 42
0.0000001
 43
0.0000001
 44
0.0000000001
 40
0.0
 40
0.0
 40
0.0
 40
0.0
 40
0.2022125587
 40
0.430033564
 40
0.6962189165
 40
1.0
 40
1.0
 40
1.0
 40
1.0
 10
15.3702791949
 20
10.7441936424
 30
0.0
 10
15.370986124
 20
10.746480189
 30
0.0
 10
15.3737487328
 20
10.7510017662
 30
0.0
 10
15.3806846821
 20
10.7557536291
 30
0.0
 10
15.3897846684
 20
10.7586132966
 30
0.0
 10
15.3965568885
 20
10.7591840291
 30
0.0
 10
15.4001523595
 20
10.7591840291
 30
0.0
  0
SPLINE
  5
280
100
AcDbEntity
  8
0
100
AcDbSpline
 62
7
  6
CONTINUOUS
 70
0
 71
3
 72
11
 73
7
 74
0
 42
0.0000001
 43
0.0000001
 44
0.0000000001
 40
0.0
 40
0.0
 40
0.0
 40
0.0
 40
0.2022125587
 40
0.430033564
 40
0.6962189165
 40
1.0
 40
1.0
 40
1.0
 40
1.0
 10
15.8779506089
 20
10.7441936424
 30
0.0
 10
15.878657538
 20
10.746480189
 30
0.0
 10
15.8814201468
 20
10.7510017662
 30
0.0
 10
15.8883560961
 20
10.7557536291
 30
0.0
 10
15.8974560824
 20
10.7586132966
 30
0.0
 10
15.9042283025
 20
10.7591840291
 30
0.0
 10
15.9078237735
 20
10.7591840291
 30
0.0
  0
SPLINE
  5
281
100
AcDbEntity
  8
0
100
AcDbSpline
 62
7
  6
CONTINUOUS
 70
0
 71
3
 72
11
 73
7
 74
0
 42
0.0000001
 43
0.0000001
 44
0.0000000001
 40
0.0
 40
0.0
 40
0.0
 40
0.0
 40
0.2022125587
 40
0.430033564
 40
0.6962189165
 40
1.0
 40
1.0
 40
1.0
 40
1.0
 10
16.385622023
 20
10.7441936424
 30
0.0
 10
16.3863289521
 20
10.746480189
 30
0.0
 10
16.3890915608
 20
10.7510017662
 30
0.0
 10
16.3960275101
 20
10.7557536291
 30
0.0
 10
16.4051274964
 20
10.7586132966
 30
0.0
 10
16.4118997165
 20
10.7591840291
 30
0.0
 10
16.4154951875
 20
10.7591840291
 30
0.0
  0
SPLINE
  5
282
100
AcDbEntity
  8
0
100
AcDbSpline
 62
7
  6
CONTINUOUS
 70
0
 71
3
 72
11
 73
7
 74
0
 42
0.0000001
 43
0.0000001
 44
0.0000000001
 40
0.0
 40
0.0
 40
0.0
 40
0.0
 40
0.260041467
 40
0.5283846382
 40
0.7814265066
 40
1.0
 40
1.0
 40
1.0
 40
1.0
 10
13.4796389308
 20
10.7591840291
 30
0.0
 10
13.4850428317
 20
10.7591840291
 30
0.0
 10
13.4960439724
 20
10.757796731
 30
0.0
 10
13.5115074877
 20
10.752492305
 30
0.0
 10
13.5248009227
 20
10.7445500757
 30
0.0
 10
13.5318079651
 20
10.7374149433
 30
0.0
 10
13.5342713384
 20
10.7335987941
 30
0.0
  0
SPLINE
  5
283
100
AcDbEntity
  8
0
100
AcDbSpline
 62
7
  6
CONTINUOUS
 70
0
 71
3
 72
11
 73
7
 74
0
 42
0.0000001
 43
0.0000001
 44
0.0000000001
 40
0.0
 40
0.0
 40
0.0
 40
0.0
 40
0.260041467
 40
0.5283846382
 40
0.7814265066
 40
1.0
 40
1.0
 40
1.0
 40
1.0
 10
13.9873103448
 20
10.7591840291
 30
0.0
 10
13.9927142458
 20
10.7591840291
 30
0.0
 10
14.0037153864
 20
10.757796731
 30
0.0
 10
14.0191789017
 20
10.752492305
 30
0.0
 10
14.0324723367
 20
10.7445500757
 30
0.0
 10
14.0394793791
 20
10.7374149433
 30
0.0
 10
14.0419427524
 20
10.7335987941
 30
0.0
  0
SPLINE
  5
284
100
AcDbEntity
  8
0
100
AcDbSpline
 62
7
  6
CONTINUOUS
 70
0
 71
3
 72
9
 73
5
 74
0
 42
0.0000001
 43
0.0000001
 44
0.0000000001
 40
0.0
 40
0.0
 40
0.0
 40
0.0
 40
0.4746386337
 40
1.0
 40
1.0
 40
1.0
 40
1.0
 10
13.5342713384
 20
10.7335987941
 30
0.0
 10
13.5457069492
 20
10.7158832508
 30
0.0
 10
13.5740574181
 20
10.6812584382
 30
0.0
 10
13.6077802993
 20
10.6520560479
 30
0.0
 10
13.6264255527
 20
10.6380177429
 30
0.0
  0
SPLINE
  5
285
100
AcDbEntity
  8
0
100
AcDbSpline
 62
7
  6
CONTINUOUS
 70
0
 71
3
 72
11
 73
7
 74
0
 42
0.0000001
 43
0.0000001
 44
0.0000000001
 40
0.0
 40
0.0
 40
0.0
 40
0.0
 40
0.3029371939
 40
0.5690852785
 40
0.7975950215
 40
1.0
 40
1.0
 40
1.0
 40
1.0
 10
16.3430579946
 20
10.616262682
 30
0.0
 10
16.3483601362
 20
10.616262682
 30
0.0
 10
16.3583580087
 20
10.6170901104
 30
0.0
 10
16.3718294405
 20
10.6212372114
 30
0.0
 10
16.3821894758
 20
10.6281063252
 30
0.0
 10
16.3864676343
 20
10.6346706305
 30
0.0
 10
16.3876281196
 20
10.6380177429
 30
0.0
  0
SPLINE
  5
286
100
AcDbEntity
  8
0
100
AcDbSpline
 62
7
  6
CONTINUOUS
 70
0
 71
3
 72
9
 73
5
 74
0
 42
0.0000001
 43
0.0000001
 44
0.0000000001
 40
0.0
 40
0.0
 40
0.0
 40
0.0
 40
0.4970491714
 40
1.0
 40
1.0
 40
1.0
 40
1.0
 10
16.1647826228
 20
10.6380177429
 30
0.0
 10
16.1740805771
 20
10.6310171666
 30
0.0
 10
16.195478834
 20
10.6204718104
 30
0.0
 10
16.2189274938
 20
10.616262682
 30
0.0
 10
16.2307044143
 20
10.616262682
 30
0.0
  0
SPLINE
  5
287
100
AcDbEntity
  8
0
100
AcDbSpline
 62
7
  6
CONTINUOUS
 70
0
 71
3
 72
9
 73
5
 74
0
 42
0.0000001
 43
0.0000001
 44
0.0000000001
 40
0.0
 40
0.0
 40
0.0
 40
0.0
 40
0.474639384
 40
1.0
 40
1.0
 40
1.0
 40
1.0
 10
16.0726284085
 20
10.7335987941
 30
0.0
 10
16.0840640337
 20
10.7158832284
 30
0.0
 10
16.1124148694
 20
10.6812587515
 30
0.0
 10
16.146137402
 20
10.6520560233
 30
0.0
 10
16.1647826228
 20
10.6380177429
 30
0.0
  0
SPLINE
  5
288
100
AcDbEntity
  8
0
100
AcDbSpline
 62
7
  6
CONTINUOUS
 70
0
 71
3
 72
11
 73
7
 74
0
 42
0.0000001
 43
0.0000001
 44
0.0000000001
 40
0.0
 40
0.0
 40
0.0
 40
0.0
 40
0.3029371939
 40
0.5690852785
 40
0.7975950215
 40
1.0
 40
1.0
 40
1.0
 40
1.0
 10
15.8353865806
 20
10.616262682
 30
0.0
 10
15.8406887221
 20
10.616262682
 30
0.0
 10
15.8506865947
 20
10.6170901104
 30
0.0
 10
15.8641580265
 20
10.6212372114
 30
0.0
 10
15.8745180618
 20
10.6281063252
 30
0.0
 10
15.8787962203
 20
10.6346706305
 30
0.0
 10
15.8799567056
 20
10.6380177429
 30
0.0
  0
SPLINE
  5
289
100
AcDbEntity
  8
0
100
AcDbSpline
 62
7
  6
CONTINUOUS
 70
0
 71
3
 72
9
 73
5
 74
0
 42
0.0000001
 43
0.0000001
 44
0.0000000001
 40
0.0
 40
0.0
 40
0.0
 40
0.0
 40
0.4970491714
 40
1.0
 40
1.0
 40
1.0
 40
1.0
 10
15.6571112087
 20
10.6380177429
 30
0.0
 10
15.6664091631
 20
10.6310171666
 30
0.0
 10
15.68780742
 20
10.6204718104
 30
0.0
 10
15.7112560797
 20
10.616262682
 30
0.0
 10
15.7230330003
 20
10.616262682
 30
0.0
  0
SPLINE
  5
28A
100
AcDbEntity
  8
0
100
AcDbSpline
 62
7
  6
CONTINUOUS
 70
0
 71
3
 72
9
 73
5
 74
0
 42
0.0000001
 43
0.0000001
 44
0.0000000001
 40
0.0
 40
0.0
 40
0.0
 40
0.0
 40
0.4746386337
 40
1.0
 40
1.0
 40
1.0
 40
1.0
 10
15.5649569945
 20
10.7335987941
 30
0.0
 10
15.5763926052
 20
10.7158832508
 30
0.0
 10
15.6047430742
 20
10.6812584382
 30
0.0
 10
15.6384659554
 20
10.6520560479
 30
0.0
 10
15.6571112087
 20
10.6380177429
 30
0.0
  0
SPLINE
  5
28B
100
AcDbEntity
  8
0
100
AcDbSpline
 62
7
  6
CONTINUOUS
 70
0
 71
3
 72
11
 73
7
 74
0
 42
0.0000001
 43
0.0000001
 44
0.0000000001
 40
0.0
 40
0.0
 40
0.0
 40
0.0
 40
0.3029371939
 40
0.5690852785
 40
0.7975950215
 40
1.0
 40
1.0
 40
1.0
 40
1.0
 10
15.3277151665
 20
10.616262682
 30
0.0
 10
15.3330173081
 20
10.616262682
 30
0.0
 10
15.3430151807
 20
10.6170901104
 30
0.0
 10
15.3564866125
 20
10.6212372114
 30
0.0
 10
15.3668466478
 20
10.6281063252
 30
0.0
 10
15.3711248063
 20
10.6346706305
 30
0.0
 10
15.3722852916
 20
10.6380177429
 30
0.0
  0
SPLINE
  5
28C
100
AcDbEntity
  8
0
100
AcDbSpline
 62
7
  6
CONTINUOUS
 70
0
 71
3
 72
9
 73
5
 74
0
 42
0.0000001
 43
0.0000001
 44
0.0000000001
 40
0.0
 40
0.0
 40
0.0
 40
0.0
 40
0.4970491714
 40
1.0
 40
1.0
 40
1.0
 40
1.0
 10
15.1494397947
 20
10.6380177429
 30
0.0
 10
15.1587377491
 20
10.6310171666
 30
0.0
 10
15.180136006
 20
10.6204718104
 30
0.0
 10
15.2035846657
 20
10.616262682
 30
0.0
 10
15.2153615863
 20
10.616262682
 30
0.0
  0
SPLINE
  5
28D
100
AcDbEntity
  8
0
100
AcDbSpline
 62
7
  6
CONTINUOUS
 70
0
 71
3
 72
9
 73
5
 74
0
 42
0.0000001
 43
0.0000001
 44
0.0000000001
 40
0.0
 40
0.0
 40
0.0
 40
0.0
 40
0.4746386337
 40
1.0
 40
1.0
 40
1.0
 40
1.0
 10
15.0572855805
 20
10.7335987941
 30
0.0
 10
15.0687211912
 20
10.7158832508
 30
0.0
 10
15.0970716601
 20
10.6812584382
 30
0.0
 10
15.1307945413
 20
10.6520560479
 30
0.0
 10
15.1494397947
 20
10.6380177429
 30
0.0
  0
SPLINE
  5
28E
100
AcDbEntity
  8
0
100
AcDbSpline
 62
7
  6
CONTINUOUS
 70
0
 71
3
 72
11
 73
7
 74
0
 42
0.0000001
 43
0.0000001
 44
0.0000000001
 40
0.0
 40
0.0
 40
0.0
 40
0.0
 40
0.3029371939
 40
0.5690852785
 40
0.7975950215
 40
1.0
 40
1.0
 40
1.0
 40
1.0
 10
14.8200437525
 20
10.616262682
 30
0.0
 10
14.8253458941
 20
10.616262682
 30
0.0
 10
14.8353437667
 20
10.6170901104
 30
0.0
 10
14.8488151985
 20
10.6212372114
 30
0.0
 10
14.8591752338
 20
10.6281063252
 30
0.0
 10
14.8634533923
 20
10.6346706305
 30
0.0
 10
14.8646138776
 20
10.6380177429
 30
0.0
  0
SPLINE
  5
28F
100
AcDbEntity
  8
0
100
AcDbSpline
 62
7
  6
CONTINUOUS
 70
0
 71
3
 72
9
 73
5
 74
0
 42
0.0000001
 43
0.0000001
 44
0.0000000001
 40
0.0
 40
0.0
 40
0.0
 40
0.0
 40
0.4970491714
 40
1.0
 40
1.0
 40
1.0
 40
1.0
 10
14.6417683807
 20
10.6380177429
 30
0.0
 10
14.651066335
 20
10.6310171666
 30
0.0
 10
14.672464592
 20
10.6204718104
 30
0.0
 10
14.6959132517
 20
10.616262682
 30
0.0
 10
14.7076901723
 20
10.616262682
 30
0.0
  0
SPLINE
  5
290
100
AcDbEntity
  8
0
100
AcDbSpline
 62
7
  6
CONTINUOUS
 70
0
 71
3
 72
9
 73
5
 74
0
 42
0.0000001
 43
0.0000001
 44
0.0000000001
 40
0.0
 40
0.0
 40
0.0
 40
0.0
 40
0.4746386337
 40
1.0
 40
1.0
 40
1.0
 40
1.0
 10
14.5496141664
 20
10.7335987941
 30
0.0
 10
14.5610497772
 20
10.7158832508
 30
0.0
 10
14.5894002461
 20
10.6812584382
 30
0.0
 10
14.6231231273
 20
10.6520560479
 30
0.0
 10
14.6417683807
 20
10.6380177429
 30
0.0
  0
SPLINE
  5
291
100
AcDbEntity
  8
0
100
AcDbSpline
 62
7
  6
CONTINUOUS
 70
0
 71
3
 72
11
 73
7
 74
0
 42
0.0000001
 43
0.0000001
 44
0.0000000001
 40
0.0
 40
0.0
 40
0.0
 40
0.0
 40
0.3029371939
 40
0.5690852785
 40
0.7975950215
 40
1.0
 40
1.0
 40
1.0
 40
1.0
 10
14.3123723385
 20
10.616262682
 30
0.0
 10
14.3176744801
 20
10.616262682
 30
0.0
 10
14.3276723527
 20
10.6170901104
 30
0.0
 10
14.3411437844
 20
10.6212372114
 30
0.0
 10
14.3515038198
 20
10.6281063252
 30
0.0
 10
14.3557819782
 20
10.6346706305
 30
0.0
 10
14.3569424636
 20
10.6380177429
 30
0.0
  0
SPLINE
  5
292
100
AcDbEntity
  8
0
100
AcDbSpline
 62
7
  6
CONTINUOUS
 70
0
 71
3
 72
9
 73
5
 74
0
 42
0.0000001
 43
0.0000001
 44
0.0000000001
 40
0.0
 40
0.0
 40
0.0
 40
0.0
 40
0.4970491714
 40
1.0
 40
1.0
 40
1.0
 40
1.0
 10
14.1340969667
 20
10.6380177429
 30
0.0
 10
14.143394921
 20
10.6310171666
 30
0.0
 10
14.164793178
 20
10.6204718104
 30
0.0
 10
14.1882418377
 20
10.616262682
 30
0.0
 10
14.2000187583
 20
10.616262682
 30
0.0
  0
SPLINE
  5
293
100
AcDbEntity
  8
0
100
AcDbSpline
 62
7
  6
CONTINUOUS
 70
0
 71
3
 72
9
 73
5
 74
0
 42
0.0000001
 43
0.0000001
 44
0.0000000001
 40
0.0
 40
0.0
 40
0.0
 40
0.0
 40
0.4746386337
 40
1.0
 40
1.0
 40
1.0
 40
1.0
 10
14.0419427524
 20
10.7335987941
 30
0.0
 10
14.0533783632
 20
10.7158832508
 30
0.0
 10
14.0817288321
 20
10.6812584382
 30
0.0
 10
14.1154517133
 20
10.6520560479
 30
0.0
 10
14.1340969667
 20
10.6380177429
 30
0.0
  0
SPLINE
  5
294
100
AcDbEntity
  8
0
100
AcDbSpline
 62
7
  6
CONTINUOUS
 70
0
 71
3
 72
11
 73
7
 74
0
 42
0.0000001
 43
0.0000001
 44
0.0000000001
 40
0.0
 40
0.0
 40
0.0
 40
0.0
 40
0.3029371939
 40
0.5690852785
 40
0.7975950215
 40
1.0
 40
1.0
 40
1.0
 40
1.0
 10
13.8047009245
 20
10.616262682
 30
0.0
 10
13.8100030661
 20
10.616262682
 30
0.0
 10
13.8200009386
 20
10.6170901104
 30
0.0
 10
13.8334723704
 20
10.6212372114
 30
0.0
 10
13.8438324058
 20
10.6281063252
 30
0.0
 10
13.8481105642
 20
10.6346706305
 30
0.0
 10
13.8492710496
 20
10.6380177429
 30
0.0
  0
SPLINE
  5
295
100
AcDbEntity
  8
0
100
AcDbSpline
 62
7
  6
CONTINUOUS
 70
0
 71
3
 72
9
 73
5
 74
0
 42
0.0000001
 43
0.0000001
 44
0.0000000001
 40
0.0
 40
0.0
 40
0.0
 40
0.0
 40
0.4970491714
 40
1.0
 40
1.0
 40
1.0
 40
1.0
 10
13.6264255527
 20
10.6380177429
 30
0.0
 10
13.635723507
 20
10.6310171666
 30
0.0
 10
13.6571217639
 20
10.6204718104
 30
0.0
 10
13.6805704237
 20
10.616262682
 30
0.0
 10
13.6923473443
 20
10.616262682
 30
0.0
  0
SPLINE
  5
296
100
AcDbEntity
  8
0
100
AcDbSpline
 62
7
  6
CONTINUOUS
 70
0
 71
3
 72
11
 73
7
 74
0
 42
0.0000001
 43
0.0000001
 44
0.0000000001
 40
0.0
 40
0.0
 40
0.0
 40
0.0
 40
0.260041467
 40
0.5283846382
 40
0.7814265066
 40
1.0
 40
1.0
 40
1.0
 40
1.0
 10
14.4949817588
 20
10.7591840291
 30
0.0
 10
14.5003856598
 20
10.7591840291
 30
0.0
 10
14.5113868004
 20
10.757796731
 30
0.0
 10
14.5268503157
 20
10.752492305
 30
0.0
 10
14.5401437507
 20
10.7445500757
 30
0.0
 10
14.5471507931
 20
10.7374149433
 30
0.0
 10
14.5496141664
 20
10.7335987941
 30
0.0
  0
SPLINE
  5
297
100
AcDbEntity
  8
0
100
AcDbSpline
 62
7
  6
CONTINUOUS
 70
0
 71
3
 72
11
 73
7
 74
0
 42
0.0000001
 43
0.0000001
 44
0.0000000001
 40
0.0
 40
0.0
 40
0.0
 40
0.0
 40
0.260041467
 40
0.5283846382
 40
0.7814265066
 40
1.0
 40
1.0
 40
1.0
 40
1.0
 10
15.0026531728
 20
10.7591840291
 30
0.0
 10
15.0080570738
 20
10.7591840291
 30
0.0
 10
15.0190582145
 20
10.757796731
 30
0.0
 10
15.0345217297
 20
10.752492305
 30
0.0
 10
15.0478151647
 20
10.7445500757
 30
0.0
 10
15.0548222072
 20
10.7374149433
 30
0.0
 10
15.0572855805
 20
10.7335987941
 30
0.0
  0
SPLINE
  5
298
100
AcDbEntity
  8
0
100
AcDbSpline
 62
7
  6
CONTINUOUS
 70
0
 71
3
 72
11
 73
7
 74
0
 42
0.0000001
 43
0.0000001
 44
0.0000000001
 40
0.0
 40
0.0
 40
0.0
 40
0.0
 40
0.260041467
 40
0.5283846382
 40
0.7814265066
 40
1.0
 40
1.0
 40
1.0
 40
1.0
 10
15.5103245868
 20
10.7591840291
 30
0.0
 10
15.5157284878
 20
10.7591840291
 30
0.0
 10
15.5267296285
 20
10.757796731
 30
0.0
 10
15.5421931438
 20
10.752492305
 30
0.0
 10
15.5554865788
 20
10.7445500757
 30
0.0
 10
15.5624936212
 20
10.7374149433
 30
0.0
 10
15.5649569945
 20
10.7335987941
 30
0.0
  0
SPLINE
  5
299
100
AcDbEntity
  8
0
100
AcDbSpline
 62
7
  6
CONTINUOUS
 70
0
 71
3
 72
11
 73
7
 74
0
 42
0.0000001
 43
0.0000001
 44
0.0000000001
 40
0.0
 40
0.0
 40
0.0
 40
0.0
 40
0.260041467
 40
0.5283846382
 40
0.7814265066
 40
1.0
 40
1.0
 40
1.0
 40
1.0
 10
16.0179960008
 20
10.7591840291
 30
0.0
 10
16.0233999018
 20
10.7591840291
 30
0.0
 10
16.0344010425
 20
10.757796731
 30
0.0
 10
16.0498645578
 20
10.752492305
 30
0.0
 10
16.0631579928
 20
10.7445500757
 30
0.0
 10
16.0701650352
 20
10.7374149433
 30
0.0
 10
16.0726284085
 20
10.7335987941
 30
0.0
  0
SPLINE
  5
29A
100
AcDbEntity
  8
0
100
AcDbSpline
 62
7
  6
CONTINUOUS
 70
0
 71
3
 72
9
 73
5
 74
0
 42
0.0000001
 43
0.0000001
 44
0.0000000001
 40
0.0
 40
0.0
 40
0.0
 40
0.0
 40
0.4826789452
 40
1.0
 40
1.0
 40
1.0
 40
1.0
 10
15.8813333577
 20
10.6422184692
 30
0.0
 10
15.8857301154
 20
10.6564501684
 30
0.0
 10
15.8896331038
 20
10.6877441997
 30
0.0
 10
15.8833861369
 20
10.7184654906
 30
0.0
 10
15.8783021852
 20
10.7335987941
 30
0.0
  0
SPLINE
  5
29B
100
AcDbEntity
  8
0
100
AcDbSpline
 62
7
  6
CONTINUOUS
 70
0
 71
3
 72
9
 73
5
 74
0
 42
0.0000001
 43
0.0000001
 44
0.0000000001
 40
0.0
 40
0.0
 40
0.0
 40
0.0
 40
0.2658502498
 40
1.0
 40
1.0
 40
1.0
 40
1.0
 10
15.3706307712
 20
10.7335987941
 30
0.0
 10
15.3703289157
 20
10.7344973218
 30
0.0
 10
15.3694050792
 20
10.7379396864
 30
0.0
 10
15.3695060307
 20
10.7416928597
 30
0.0
 10
15.3702791949
 20
10.7441936424
 30
0.0
  0
SPLINE
  5
29C
100
AcDbEntity
  8
0
100
AcDbSpline
 62
7
  6
CONTINUOUS
 70
0
 71
3
 72
9
 73
5
 74
0
 42
0.0000001
 43
0.0000001
 44
0.0000000001
 40
0.0
 40
0.0
 40
0.0
 40
0.0
 40
0.2658502498
 40
1.0
 40
1.0
 40
1.0
 40
1.0
 10
13.8476165292
 20
10.7335987941
 30
0.0
 10
13.8473146736
 20
10.7344973218
 30
0.0
 10
13.8463908371
 20
10.7379396864
 30
0.0
 10
13.8464917887
 20
10.7416928597
 30
0.0
 10
13.8472649529
 20
10.7441936424
 30
0.0
  0
SPLINE
  5
29D
100
AcDbEntity
  8
0
100
AcDbSpline
 62
7
  6
CONTINUOUS
 70
0
 71
3
 72
9
 73
5
 74
0
 42
0.0000001
 43
0.0000001
 44
0.0000000001
 40
0.0
 40
0.0
 40
0.0
 40
0.0
 40
0.2658502498
 40
1.0
 40
1.0
 40
1.0
 40
1.0
 10
15.8783021852
 20
10.7335987941
 30
0.0
 10
15.8780003297
 20
10.7344973218
 30
0.0
 10
15.8770764932
 20
10.7379396864
 30
0.0
 10
15.8771774448
 20
10.7416928597
 30
0.0
 10
15.8779506089
 20
10.7441936424
 30
0.0
  0
SPLINE
  5
29E
100
AcDbEntity
  8
0
100
AcDbSpline
 62
7
  6
CONTINUOUS
 70
0
 71
3
 72
9
 73
5
 74
0
 42
0.0000001
 43
0.0000001
 44
0.0000000001
 40
0.0
 40
0.0
 40
0.0
 40
0.0
 40
0.4826789452
 40
1.0
 40
1.0
 40
1.0
 40
1.0
 10
14.3583191156
 20
10.6422184692
 30
0.0
 10
14.3627158733
 20
10.6564501684
 30
0.0
 10
14.3666188618
 20
10.6877441997
 30
0.0
 10
14.3603718949
 20
10.7184654906
 30
0.0
 10
14.3552879432
 20
10.7335987941
 30
0.0
  0
SPLINE
  5
29F
100
AcDbEntity
  8
0
100
AcDbSpline
 62
7
  6
CONTINUOUS
 70
0
 71
3
 72
9
 73
5
 74
0
 42
0.0000001
 43
0.0000001
 44
0.0000000001
 40
0.0
 40
0.0
 40
0.0
 40
0.0
 40
0.2658502498
 40
1.0
 40
1.0
 40
1.0
 40
1.0
 10
16.3859735992
 20
10.7335987941
 30
0.0
 10
16.3856717437
 20
10.7344973218
 30
0.0
 10
16.3847479072
 20
10.7379396864
 30
0.0
 10
16.3848488588
 20
10.7416928597
 30
0.0
 10
16.385622023
 20
10.7441936424
 30
0.0
  0
SPLINE
  5
2A0
100
AcDbEntity
  8
0
100
AcDbSpline
 62
7
  6
CONTINUOUS
 70
0
 71
3
 72
9
 73
5
 74
0
 42
0.0000001
 43
0.0000001
 44
0.0000000001
 40
0.0
 40
0.0
 40
0.0
 40
0.0
 40
0.4826789452
 40
1.0
 40
1.0
 40
1.0
 40
1.0
 10
15.3736619436
 20
10.6422184692
 30
0.0
 10
15.3780587013
 20
10.6564501684
 30
0.0
 10
15.3819616898
 20
10.6877441997
 30
0.0
 10
15.3757147229
 20
10.7184654906
 30
0.0
 10
15.3706307712
 20
10.7335987941
 30
0.0
  0
SPLINE
  5
2A1
100
AcDbEntity
  8
0
100
AcDbSpline
 62
7
  6
CONTINUOUS
 70
0
 71
3
 72
9
 73
5
 74
0
 42
0.0000001
 43
0.0000001
 44
0.0000000001
 40
0.0
 40
0.0
 40
0.0
 40
0.0
 40
0.4826734757
 40
1.0
 40
1.0
 40
1.0
 40
1.0
 10
16.389004876
 20
10.6422184372
 30
0.0
 10
16.3934022161
 20
10.6564497647
 30
0.0
 10
16.3973034491
 20
10.6877441027
 30
0.0
 10
16.3910575998
 20
10.7184653452
 30
0.0
 10
16.3859735992
 20
10.7335987941
 30
0.0
  0
SPLINE
  5
2A2
100
AcDbEntity
  8
0
100
AcDbSpline
 62
7
  6
CONTINUOUS
 70
0
 71
3
 72
9
 73
5
 74
0
 42
0.0000001
 43
0.0000001
 44
0.0000000001
 40
0.0
 40
0.0
 40
0.0
 40
0.0
 40
0.4826789452
 40
1.0
 40
1.0
 40
1.0
 40
1.0
 10
14.8659905296
 20
10.6422184692
 30
0.0
 10
14.8703872873
 20
10.6564501684
 30
0.0
 10
14.8742902758
 20
10.6877441997
 30
0.0
 10
14.8680433089
 20
10.7184654906
 30
0.0
 10
14.8629593572
 20
10.7335987941
 30
0.0
  0
SPLINE
  5
2A3
100
AcDbEntity
  8
0
100
AcDbSpline
 62
7
  6
CONTINUOUS
 70
0
 71
3
 72
9
 73
5
 74
0
 42
0.0000001
 43
0.0000001
 44
0.0000000001
 40
0.0
 40
0.0
 40
0.0
 40
0.0
 40
0.2658502498
 40
1.0
 40
1.0
 40
1.0
 40
1.0
 10
14.3552879432
 20
10.7335987941
 30
0.0
 10
14.3549860876
 20
10.7344973218
 30
0.0
 10
14.3540622511
 20
10.7379396864
 30
0.0
 10
14.3541632027
 20
10.7416928597
 30
0.0
 10
14.3549363669
 20
10.7441936424
 30
0.0
  0
SPLINE
  5
2A4
100
AcDbEntity
  8
0
100
AcDbSpline
 62
7
  6
CONTINUOUS
 70
0
 71
3
 72
9
 73
5
 74
0
 42
0.0000001
 43
0.0000001
 44
0.0000000001
 40
0.0
 40
0.0
 40
0.0
 40
0.0
 40
0.4826789452
 40
1.0
 40
1.0
 40
1.0
 40
1.0
 10
13.8506477016
 20
10.6422184692
 30
0.0
 10
13.8550444593
 20
10.6564501684
 30
0.0
 10
13.8589474478
 20
10.6877441997
 30
0.0
 10
13.8527004809
 20
10.7184654906
 30
0.0
 10
13.8476165292
 20
10.7335987941
 30
0.0
  0
SPLINE
  5
2A5
100
AcDbEntity
  8
0
100
AcDbSpline
 62
7
  6
CONTINUOUS
 70
0
 71
3
 72
9
 73
5
 74
0
 42
0.0000001
 43
0.0000001
 44
0.0000000001
 40
0.0
 40
0.0
 40
0.0
 40
0.0
 40
0.2658502498
 40
1.0
 40
1.0
 40
1.0
 40
1.0
 10
14.8629593572
 20
10.7335987941
 30
0.0
 10
14.8626575017
 20
10.7344973218
 30
0.0
 10
14.8617336652
 20
10.7379396864
 30
0.0
 10
14.8618346167
 20
10.7416928597
 30
0.0
 10
14.8626077809
 20
10.7441936424
 30
0.0
  0
ENDSEC
  0
SECTION
  2
OBJECTS
  0
DICTIONARY
  5
C
100
AcDbDictionary
280
0
281
1
  3
ACAD_GROUP
350
D
  3
ACAD_MLINESTYLE
350
17
  3
ACAD_LAYOUT
350
1A
  3
ACAD_PLOTSETTINGS
350
19
  3
ACAD_PLOTSTYLENAME
350
E
  0
DICTIONARY
  5
D
102
{ACAD_REACTORS
330
C
102
}
100
AcDbDictionary
280
0
281
1
  0
ACDBDICTIONARYWDFLT
  5
E
102
{ACAD_REACTORS
330
C
102
}
100
AcDbDictionary
281
1
  3
Normal
350
F
100
AcDbDictionaryWithDefault
340
F
  0
DICTIONARY
  5
17
102
{ACAD_REACTORS
330
C
102
}
100
AcDbDictionary
280
0
281
1
  3
Standard
350
18
  0
DICTIONARY
  5
19
102
{ACAD_REACTORS
330
C
102
}
100
AcDbDictionary
281
1
  0
DICTIONARY
  5
1A
102
{ACAD_REACTORS
330
C
102
}
100
AcDbDictionary
281
1
  3
Model
350
2A6
  3
Layout1
350
2A7
  0
ACDBPLACEHOLDER
  5
F
102
{ACAD_REACTORS
330
E
102
}
  0
MLINESTYLE
  5
18
102
{ACAD_REACTORS
330
17
102
}
100
AcDbMlineStyle
  2
STANDARD
 70
0
  3

 62
256
 51
90.0
 52
90.0
 71
2
 49
0.5
 62
256
  6
BYLAYER
 49
-0.5
 62
256
  6
BYLAYER
  0
LAYOUT
  5
2A6
102
{ACAD_REACTORS
330
1A
102
}
100
AcDbPlotSettings
  1

  2
none_device
  4
ANSI_C_(22.00_x_17.00_Inches)
  6

 40
0.0
 41
0.0
 42
0.0
 43
0.0
 44
558.8
 45
431.8
 46
0.0
 47
0.0
 48
0.0
 49
0.0
140
0.0
141
0.0
142
1.0
143
1.0
 70
1024
 72
0
 73
0
 74
0
  7

 75
0
147
1.0
148
0.0
149
0.0
100
AcDbLayout
  1
Model
 70
0
 71
0
 10
0.0
 20
0.0
 11
22.0
 21
17.0
 12
0.0
 22
0.0
 32
0.0
 14
0.0
 24
0.0
 34
0.0
 15
0.0
 25
0.0
 35
0.0
146
0.0
 13
0.0
 23
0.0
 33
0.0
 16
1.0
 26
0.0
 36
0.0
 17
0.0
 27
1.0
 37
0.0
 76
0
330
216
345
0
346
0
  0
LAYOUT
  5
2A7
102
{ACAD_REACTORS
330
1A
102
}
100
AcDbPlotSettings
  1

  2
none_device
  4
ANSI_C_(22.00_x_17.00_Inches)
  6

 40
0.0
 41
0.0
 42
0.0
 43
0.0
 44
558.8
 45
431.8
 46
0.0
 47
0.0
 48
0.0
 49
0.0
140
0.0
141
0.0
142
1.0
143
1.0
 70
0
 72
0
 73
0
 74
0
  7

 75
0
147
1.0
148
0.0
149
0.0
100
AcDbLayout
  1
Layout1
 70
0
 71
1
 10
0.0
 20
0.0
 11
22.0
 21
17.0
 12
0.0
 22
0.0
 32
0.0
 14
0.0
 24
0.0
 34
0.0
 15
0.0
 25
0.0
 35
0.0
146
0.0
 13
0.0
 23
0.0
 33
0.0
 16
1.0
 26
0.0
 36
0.0
 17
0.0
 27
1.0
 37
0.0
 76
0
330
217
345
0
346
0
  0
ENDSEC
  0
EOF