999
DXF file: _cgs_temp_output.dxf
999
Pro/ENGINEER 2015110 by Parametric Technology Corporation
  0
SECTION
  2
HEADER
  9
$ACADVER
  1
AC1021
  9
$DWGCODEPAGE
  3
ANSI_1252
  9
$EXTMAX
 10
22.0
 20
17.0
 30
0.0
  9
$EXTMIN
 10
0.0
 20
0.0
 30
0.0
  9
$LIMMIN
 10
0.0
 20
0.0
  9
$LIMMAX
 10
22.0
 20
17.0
  9
$VIEWCTR
 10
11.0
 20
8.5
  9
$VIEWSIZE
 40
17.0
  9
$CLAYER
  8
0
  9
$LTSCALE
 40
1.21
  9
$CELTYPE
  6
BYLAYER
  9
$DIMSCALE
 40
1.0
  9
$DIMASZ
 40
0.1875
  9
$DIMEXO
 40
0.0625
  9
$DIMDLI
 40
0.836
  9
$DIMEXE
 40
0.125
  9
$DIMCEN
 40
0.198
  9
$DIMLFAC
 40
1.0
  9
$DIMBLK
  1
_CLOSED
  9
$DIMALT
 70
0
  9
$DIMALTF
 40
25.4
  9
$DIMTXT
 40
0.15625
  9
$DIMTOL
 70
0
  9
$DIMLIM
 70
0
  9
$DIMTFAC
 40
1.0
  9
$DIMGAP
 40
0.09
  9
$DIMDSEP
 70
46
  9
$AUNITS
 70
0
  9
$PDMODE
 70
3
  9
$PDSIZE
 40
0.3125
  9
$HANDSEED
  5
2A8
  9
$TILEMODE
 70
1
  9
$MEASUREMENT
 70
0
  9
$INSUNITS
 70
1
  0
ENDSEC
  0
SECTION
  2
CLASSES
  0
CLASS
  1
ACDBDICTIONARYWDFLT
  2
AcDbDictionaryWithDefault
  3
AutoCAD 2000
 90
0
 91
1
280
0
281
0
  0
CLASS
  1
ACDBPLACEHOLDER
  2
AcDbPlaceHolder
  3
AutoCAD 2000
 90
0
 91
1
280
0
281
0
  0
CLASS
  1
LAYOUT
  2
AcDbLayout
  3
AutoCAD 2000
 90
0
 91
0
280
0
281
0
  0
ENDSEC
  0
SECTION
  2
TABLES
  0
TABLE
  2
VPORT
  5
8
100
AcDbSymbolTable
 70
2
  0
VPORT
  5
1F4
100
AcDbSymbolTableRecord
100
AcDbViewportTableRecord
  2
*ACTIVE
 70
0
 10
0.0
 20
0.0
 11
1.0
 21
1.0
 12
11.0
 22
8.5
 13
0.0
 23
0.0
 14
1.0
 24
1.0
 15
0.0
 25
0.0
 16
0.0
 26
0.0
 36
1.0
 17
0.0
 27
0.0
 37
0.0
 40
17.0
 41
1.2941176471
 42
50.0
 43
0.0
 44
0.0
 50
0.0
 51
0.0
 71
0
 72
100
 73
1
 74
1
 75
0
 76
0
 77
0
 78
0
  0
ENDTAB
  0
TABLE
  2
LTYPE
  5
5
100
AcDbSymbolTable
 70
6
  0
LTYPE
  5
14
100
AcDbSymbolTableRecord
100
AcDbLinetypeTableRecord
  2
BYBLOCK
 70
0
  3

 72
65
 73
0
 40
0.0
  0
LTYPE
  5
15
100
AcDbSymbolTableRecord
100
AcDbLinetypeTableRecord
  2
BYLAYER
 70
0
  3

 72
65
 73
0
 40
0.0
  0
LTYPE
  5
16
100
AcDbSymbolTableRecord
100
AcDbLinetypeTableRecord
  2
CONTINUOUS
 70
64
  3
Solid line
 72
65
 73
0
 40
0.0
  0
LTYPE
  5
1F5
100
AcDbSymbolTableRecord
100
AcDbLinetypeTableRecord
  2
CENTER
 70
64
  3
____ _ ____ _ ____ _ ____ _ ____ _ ____ _ ____
 72
65
 73
4
 40
0.6
 49
0.375
 74
0
 49
-0.075
 74
0
 49
0.075
 74
0
 49
-0.075
 74
0
  0
LTYPE
  5
1F6
100
AcDbSymbolTableRecord
100
AcDbLinetypeTableRecord
  2
HIDDEN
 70
64
  3
- - - - - - - - - - - - - - - - - - - -
 72
65
 73
2
 40
0.2
 49
0.1
 74
0
 49
-0.1
 74
0
  0
LTYPE
  5
1F7
100
AcDbSymbolTableRecord
100
AcDbLinetypeTableRecord
  2
PHANTOM
 70
64
  3
_____ _ _ _____ _ _ _____ _ _ _____
 72
65
 73
6
 40
0.8
 49
0.45
 74
0
 49
-0.05
 74
0
 49
0.1
 74
0
 49
-0.05
 74
0
 49
0.1
 74
0
 49
-0.05
 74
0
  0
LTYPE
  5
1F8
100
AcDbSymbolTableRecord
100
AcDbLinetypeTableRecord
  2
DOT
 70
64
  3
. . . . . . . . . . . . . . . . . . . .
 72
65
 73
2
 40
0.2
 49
0.1
 74
0
 49
-0.1
 74
0
  0
LTYPE
  5
1F9
100
AcDbSymbolTableRecord
100
AcDbLinetypeTableRecord
  2
DASHED
 70
64
  3
- - - - - - - - - - - - - - - - - - - -
 72
65
 73
2
 40
0.2
 49
0.1
 74
0
 49
-0.1
 74
0
  0
ENDTAB
  0
TABLE
  2
LAYER
  5
2
100
AcDbSymbolTable
 70
36
  0
LAYER
  5
10
100
AcDbSymbolTableRecord
100
AcDbLayerTableRecord
  2
0
 70
0
 62
7
  6
CONTINUOUS
370
-3
390
F
  0
LAYER
  5
1FA
100
AcDbSymbolTableRecord
100
AcDbLayerTableRecord
  2
DEFAULT_1
 70
0
 62
7
  6
CENTER
370
-3
390
F
  0
LAYER
  5
1FB
100
AcDbSymbolTableRecord
100
AcDbLayerTableRecord
  2
DEFAULT_2
 70
0
 62
8
  6
HIDDEN
370
-3
390
F
  0
LAYER
  5
1FC
100
AcDbSymbolTableRecord
100
AcDbLayerTableRecord
  2
DEFAULT_3
 70
0
 62
7
  6
PHANTOM
370
-3
390
F
  0
LAYER
  5
1FD
100
AcDbSymbolTableRecord
100
AcDbLayerTableRecord
  2
01_ALL_DTM_PLN
 70
0
 62
7
  6
CONTINUOUS
370
-3
390
F
  0
LAYER
  5
1FE
100
AcDbSymbolTableRecord
100
AcDbLayerTableRecord
  2
01__ASM_ALL_DTM_PLN
 70
0
 62
7
  6
CONTINUOUS
370
-3
390
F
  0
LAYER
  5
1FF
100
AcDbSymbolTableRecord
100
AcDbLayerTableRecord
  2
01__ASM_DEF_DTM_PLN
 70
0
 62
7
  6
CONTINUOUS
370
-3
390
F
  0
LAYER
  5
200
100
AcDbSymbolTableRecord
100
AcDbLayerTableRecord
  2
01___PRT_ALL_DTM_PLN
 70
0
 62
7
  6
CONTINUOUS
370
-3
390
F
  0
LAYER
  5
201
100
AcDbSymbolTableRecord
100
AcDbLayerTableRecord
  2
01___PRT_DEF_DTM_PLN
 70
0
 62
7
  6
CONTINUOUS
370
-3
390
F
  0
LAYER
  5
202
100
AcDbSymbolTableRecord
100
AcDbLayerTableRecord
  2
02_ALL_AXES
 70
0
 62
7
  6
CONTINUOUS
370
-3
390
F
  0
LAYER
  5
203
100
AcDbSymbolTableRecord
100
AcDbLayerTableRecord
  2
02__ASM_ALL_AXES
 70
0
 62
7
  6
CONTINUOUS
370
-3
390
F
  0
LAYER
  5
204
100
AcDbSymbolTableRecord
100
AcDbLayerTableRecord
  2
02___PRT_ALL_AXES
 70
0
 62
7
  6
CONTINUOUS
370
-3
390
F
  0
LAYER
  5
205
100
AcDbSymbolTableRecord
100
AcDbLayerTableRecord
  2
03_ALL_CURVES
 70
0
 62
7
  6
CONTINUOUS
370
-3
390
F
  0
LAYER
  5
206
100
AcDbSymbolTableRecord
100
AcDbLayerTableRecord
  2
03__ASM_ALL_CURVES
 70
0
 62
7
  6
CONTINUOUS
370
-3
390
F
  0
LAYER
  5
207
100
AcDbSymbolTableRecord
100
AcDbLayerTableRecord
  2
03___PRT_ALL_CURVES
 70
0
 62
7
  6
CONTINUOUS
370
-3
390
F
  0
LAYER
  5
208
100
AcDbSymbolTableRecord
100
AcDbLayerTableRecord
  2
04_ALL_DTM_PNT
 70
0
 62
7
  6
CONTINUOUS
370
-3
390
F
  0
LAYER
  5
209
100
AcDbSymbolTableRecord
100
AcDbLayerTableRecord
  2
04__ASM_ALL_DTM_PNT
 70
0
 62
7
  6
CONTINUOUS
370
-3
390
F
  0
LAYER
  5
20A
100
AcDbSymbolTableRecord
100
AcDbLayerTableRecord
  2
04___PRT_ALL_DTM_PNT
 70
0
 62
7
  6
CONTINUOUS
370
-3
390
F
  0
LAYER
  5
20B
100
AcDbSymbolTableRecord
100
AcDbLayerTableRecord
  2
05_ALL_DTM_CSYS
 70
0
 62
7
  6
CONTINUOUS
370
-3
390
F
  0
LAYER
  5
20C
100
AcDbSymbolTableRecord
100
AcDbLayerTableRecord
  2
05__ASM_ALL_DTM_CSYS
 70
0
 62
7
  6
CONTINUOUS
370
-3
390
F
  0
LAYER
  5
20D
100
AcDbSymbolTableRecord
100
AcDbLayerTableRecord
  2
05__ASM_DEF_DTM_CSYS
 70
0
 62
7
  6
CONTINUOUS
370
-3
390
F
  0
LAYER
  5
20E
100
AcDbSymbolTableRecord
100
AcDbLayerTableRecord
  2
05___PRT_ALL_DTM_CSYS
 70
0
 62
7
  6
CONTINUOUS
370
-3
390
F
  0
LAYER
  5
20F
100
AcDbSymbolTableRecord
100
AcDbLayerTableRecord
  2
05___PRT_DEF_DTM_CSYS
 70
0
 62
7
  6
CONTINUOUS
370
-3
390
F
  0
LAYER
  5
210
100
AcDbSymbolTableRecord
100
AcDbLayerTableRecord
  2
06_ALL_SURFS
 70
0
 62
7
  6
CONTINUOUS
370
-3
390
F
  0
LAYER
  5
211
100
AcDbSymbolTableRecord
100
AcDbLayerTableRecord
  2
06__ASM_ALL_SURFS
 70
0
 62
7
  6
CONTINUOUS
370
-3
390
F
  0
LAYER
  5
212
100
AcDbSymbolTableRecord
100
AcDbLayerTableRecord
  2
06___PRT_ALL_SURFS
 70
0
 62
7
  6
CONTINUOUS
370
-3
390
F
  0
LAYER
  5
213
100
AcDbSymbolTableRecord
100
AcDbLayerTableRecord
  2
07__ASM_ALL_SKELETONS
 70
0
 62
7
  6
CONTINUOUS
370
-3
390
F
  0
ENDTAB
  0
TABLE
  2
STYLE
  5
3
100
AcDbSymbolTable
 70
1
  0
STYLE
  5
11
100
AcDbSymbolTableRecord
100
AcDbTextStyleTableRecord
  2
STANDARD
 70
0
 40
0.0
 41
0.8
 50
0.0
 71
0
 42
0.2
  3
txt
  4

  0
STYLE
  5
214
100
AcDbSymbolTableRecord
100
AcDbTextStyleTableRecord
  2
TEXTSTYLE_1
 70
0
 40
0.0
 41
0.8
 50
0.0
 71
0
 42
0.2
  3
gdt
  4

  0
ENDTAB
  0
TABLE
  2
VIEW
  5
6
100
AcDbSymbolTable
 70
0
  0
ENDTAB
  0
TABLE
  2
UCS
  5
7
100
AcDbSymbolTable
 70
0
  0
ENDTAB
  0
TABLE
  2
APPID
  5
9
100
AcDbSymbolTable
 70
1
  0
APPID
  5
215
100
AcDbSymbolTableRecord
100
AcDbRegAppTableRecord
  2
ACAD
 70
0
  0
ENDTAB
  0
TABLE
  2
BLOCK_RECORD
  5
1
100
AcDbSymbolTable
 70
0
  0
BLOCK_RECORD
  5
216
100
AcDbSymbolTableRecord
100
AcDbBlockTableRecord
  2
*Model_Space
  0
BLOCK_RECORD
  5
217
100
AcDbSymbolTableRecord
100
AcDbBlockTableRecord
  2
*Paper_Space
  0
ENDTAB
  0
TABLE
  2
DIMSTYLE
  5
A
100
AcDbSymbolTable
 70
1
100
AcDbDimStyleTable
 71
0
  0
DIMSTYLE
105
218
100
AcDbSymbolTableRecord
100
AcDbDimStyleTableRecord
  2
STANDARD
 70
0
  3

  4

 40
1.0
 41
0.1875
 42
0.0625
 43
0.38
 44
0.125
 45
0.0
 46
0.0
 47
0.0001
 48
0.0001
140
0.15625
141
0.09
142
0.0
143
25.4
144
1.0
145
0.0
146
1.0
147
0.09
 71
0.0
 72
0.0
 73
1
 74
1
 75
0
 76
0
 77
0
 78
4
170
0
171
2
172
0
173
0
174
0
175
0
176
0
177
0
178
0
270
2
271
4
272
4
273
2
274
2
275
0
280
0
281
0
282
0
283
1
284
4
285
0
286
0
287
3
288
0
340
11
278
46
  0
ENDTAB
  0
ENDSEC
  0
SECTION
  2
BLOCKS
  0
BLOCK
  5
20
100
AcDbEntity
  8
0
100
AcDbBlockBegin
  2
*Model_Space
 70
0
 10
0.0
 20
0.0
 30
0.0
  3
*Model_Space
  1

  0
ENDBLK
  5
21
100
AcDbEntity
  8
0
100
AcDbBlockEnd
  0
BLOCK
  5
1C
100
AcDbEntity
  8
0
100
AcDbBlockBegin
  2
*Paper_Space
 70
0
 10
0.0
 20
0.0
 30
0.0
  3
*Paper_Space
  1

  0
ENDBLK
  5
1D
100
AcDbEntity
  8
0
100
AcDbBlockEnd
  0
ENDSEC
  0
SECTION
  2
ENTITIES
  0
MTEXT
  5
219
100
AcDbEntity
  8
0
100
AcDbMText
 62
7
  6
CONTINUOUS
  7
STANDARD
 71
1
 72
1
 10
15.9560215477
 20
0.9479130325
 30
0.0
 11
1.0
 21
0.0
 31
0.0
 44
0.9
  1
SCALE: 1:1.000
 40
0.3
 41
3.36
  0
LINE
  5
21A
100
AcDbEntity
  8
0
100
AcDbLine
 62
7
  6
CONTINUOUS
 10
0.0
 20
0.0
 11
0.0
 21
17.0
  0
LINE
  5
21B
100
AcDbEntity
  8
0
100
AcDbLine
 62
7
  6
CONTINUOUS
 10
0.0
 20
0.0
 11
22.0
 21
0.0
  0
LINE
  5
21C
100
AcDbEntity
  8
0
100
AcDbLine
 62
7
  6
CONTINUOUS
 10
0.0
 20
17.0
 11
22.0
 21
17.0
  0
LINE
  5
21D
100
AcDbEntity
  8
0
100
AcDbLine
 62
7
  6
CONTINUOUS
 10
22.0
 20
0.0
 11
22.0
 21
17.0
  0
LINE
  5
21E
100
AcDbEntity
  8
0
100
AcDbLine
 62
7
  6
CONTINUOUS
 10
4.4768239691
 20
5.7151986369
 11
4.4768239691
 21
5.5549624164
  0
LINE
  5
21F
100
AcDbEntity
  8
0
100
AcDbLine
 62
7
  6
CONTINUOUS
 10
4.6914231305
 20
5.3250411566
 11
4.8134059101
 21
5.3250411566
  0
LINE
  5
220
100
AcDbEntity
  8
0
100
AcDbLine
 62
7
  6
CONTINUOUS
 10
5.2426042328
 20
5.3250411566
 11
5.3645870124
 21
5.3250411566
  0
LINE
  5
221
100
AcDbEntity
  8
0
100
AcDbLine
 62
7
  6
CONTINUOUS
 10
5.7937853352
 20
5.3250411566
 11
5.9157681148
 21
5.3250411566
  0
LINE
  5
222
100
AcDbEntity
  8
0
100
AcDbLine
 62
7
  6
CONTINUOUS
 10
6.3449664376
 20
5.3250411566
 11
6.4669492171
 21
5.3250411566
  0
LINE
  5
223
100
AcDbEntity
  8
0
100
AcDbLine
 62
7
  6
CONTINUOUS
 10
6.8961475399
 20
5.3250411566
 11
7.0181303195
 21
5.3250411566
  0
LINE
  5
224
100
AcDbEntity
  8
0
100
AcDbLine
 62
7
  6
CONTINUOUS
 10
7.4473286423
 20
5.3250411566
 11
7.5693114219
 21
5.3250411566
  0
LINE
  5
225
100
AcDbEntity
  8
0
100
AcDbLine
 62
7
  6
CONTINUOUS
 10
4.4768239691
 20
5.5549624164
 11
4.5366312066
 21
5.5549624164
  0
LINE
  5
226
100
AcDbEntity
  8
0
100
AcDbLine
 62
7
  6
CONTINUOUS
 10
4.9681978339
 20
5.5549624164
 11
5.087812309
 21
5.5549624164
  0
LINE
  5
227
100
AcDbEntity
  8
0
100
AcDbLine
 62
7
  6
CONTINUOUS
 10
5.5193789362
 20
5.5549624164
 11
5.6389934114
 21
5.5549624164
  0
LINE
  5
228
100
AcDbEntity
  8
0
100
AcDbLine
 62
7
  6
CONTINUOUS
 10
6.0705600386
 20
5.5549624164
 11
6.1901745137
 21
5.5549624164
  0
LINE
  5
229
100
AcDbEntity
  8
0
100
AcDbLine
 62
7
  6
CONTINUOUS
 10
6.621741141
 20
5.5549624164
 11
6.7413556161
 21
5.5549624164
  0
LINE
  5
22A
100
AcDbEntity
  8
0
100
AcDbLine
 62
7
  6
CONTINUOUS
 10
7.1729222433
 20
5.5549624164
 11
7.2925367185
 21
5.5549624164
  0
LINE
  5
22B
100
AcDbEntity
  8
0
100
AcDbLine
 62
7
  6
CONTINUOUS
 10
7.7241033457
 20
5.5549624164
 11
7.7839105833
 21
5.5549624164
  0
LINE
  5
22C
100
AcDbEntity
  8
0
100
AcDbLine
 62
7
  6
CONTINUOUS
 10
7.7839105833
 20
5.7151986369
 11
4.4768239691
 21
5.7151986369
  0
LINE
  5
22D
100
AcDbEntity
  8
0
100
AcDbLine
 62
7
  6
CONTINUOUS
 10
7.7839105833
 20
5.5549624164
 11
7.7839105833
 21
5.7151986369
  0
LINE
  5
22E
100
AcDbEntity
  8
0
100
AcDbLine
 62
7
  6
CONTINUOUS
 10
7.7244153909
 20
9.2535910885
 11
4.4173287768
 21
9.2535910885
  0
LINE
  5
22F
100
AcDbEntity
  8
0
100
AcDbLine
 62
7
  6
CONTINUOUS
 10
4.4173287768
 20
15.9465044743
 11
4.4173287768
 21
9.2535910885
  0
LINE
  5
230
100
AcDbEntity
  8
0
100
AcDbLine
 62
7
  6
CONTINUOUS
 10
7.7244153909
 20
15.9465044743
 11
7.7244153909
 21
9.2535910885
  0
LINE
  5
231
100
AcDbEntity
  8
0
100
AcDbLine
 62
7
  6
CONTINUOUS
 10
4.4173287768
 20
15.9465044743
 11
7.7244153909
 21
15.9465044743
  0
LINE
  5
232
100
AcDbEntity
  8
0
100
AcDbLine
 62
7
  6
CONTINUOUS
 10
12.213898564
 20
5.2655459643
 11
12.213898564
 21
5.6557034446
  0
LINE
  5
233
100
AcDbEntity
  8
0
100
AcDbLine
 62
7
  6
CONTINUOUS
 10
12.213898564
 20
5.2655459643
 11
18.9068119498
 21
5.2655459643
  0
LINE
  5
234
100
AcDbEntity
  8
0
100
AcDbLine
 62
7
  6
CONTINUOUS
 10
18.9068119498
 20
5.4954672241
 11
12.213898564
 21
5.4954672241
  0
LINE
  5
235
100
AcDbEntity
  8
0
100
AcDbLine
 62
7
  6
CONTINUOUS
 10
18.9068119498
 20
5.6557034446
 11
12.213898564
 21
5.6557034446
  0
LINE
  5
236
100
AcDbEntity
  8
0
100
AcDbLine
 62
7
  6
CONTINUOUS
 10
18.9068119498
 20
5.2655459643
 11
18.9068119498
 21
5.6557034446
  0
LINE
  5
237
100
AcDbEntity
  8
0
100
AcDbLine
 62
7
  6
CONTINUOUS
 10
13.1135943804
 20
10.0106983029
 11
13.1624731362
 21
9.911093871
  0
LINE
  5
238
100
AcDbEntity
  8
0
100
AcDbLine
 62
7
  6
CONTINUOUS
 10
13.4302676634
 20
9.768172524
 11
13.5426212436
 21
9.768172524
  0
LINE
  5
239
100
AcDbEntity
  8
0
100
AcDbLine
 62
7
  6
CONTINUOUS
 10
13.9379390774
 20
9.768172524
 11
14.0502926576
 21
9.768172524
  0
LINE
  5
23A
100
AcDbEntity
  8
0
100
AcDbLine
 62
7
  6
CONTINUOUS
 10
14.4456104914
 20
9.768172524
 11
14.5579640717
 21
9.768172524
  0
LINE
  5
23B
100
AcDbEntity
  8
0
100
AcDbLine
 62
7
  6
CONTINUOUS
 10
14.9532819055
 20
9.768172524
 11
15.0656354857
 21
9.768172524
  0
LINE
  5
23C
100
AcDbEntity
  8
0
100
AcDbLine
 62
7
  6
CONTINUOUS
 10
15.4609533195
 20
9.768172524
 11
15.5733068997
 21
9.768172524
  0
LINE
  5
23D
100
AcDbEntity
  8
0
100
AcDbLine
 62
7
  6
CONTINUOUS
 10
15.9686247335
 20
9.768172524
 11
16.0809783137
 21
9.768172524
  0
LINE
  5
23E
100
AcDbEntity
  8
0
100
AcDbLine
 62
7
  6
CONTINUOUS
 10
13.1624731362
 20
9.911093871
 11
13.2175592499
 21
9.911093871
  0
LINE
  5
23F
100
AcDbEntity
  8
0
100
AcDbLine
 62
7
  6
CONTINUOUS
 10
13.6150584366
 20
9.911093871
 11
13.7252306639
 21
9.911093871
  0
LINE
  5
240
100
AcDbEntity
  8
0
100
AcDbLine
 62
7
  6
CONTINUOUS
 10
14.1227298506
 20
9.911093871
 11
14.2329020779
 21
9.911093871
  0
LINE
  5
241
100
AcDbEntity
  8
0
100
AcDbLine
 62
7
  6
CONTINUOUS
 10
14.6304012646
 20
9.911093871
 11
14.740573492
 21
9.911093871
  0
LINE
  5
242
100
AcDbEntity
  8
0
100
AcDbLine
 62
7
  6
CONTINUOUS
 10
15.1380726786
 20
9.911093871
 11
15.248244906
 21
9.911093871
  0
LINE
  5
243
100
AcDbEntity
  8
0
100
AcDbLine
 62
7
  6
CONTINUOUS
 10
15.6457440926
 20
9.911093871
 11
15.75591632
 21
9.911093871
  0
LINE
  5
244
100
AcDbEntity
  8
0
100
AcDbLine
 62
7
  6
CONTINUOUS
 10
16.1534155066
 20
9.911093871
 11
16.2085016203
 21
9.911093871
  0
LINE
  5
245
100
AcDbEntity
  8
0
100
AcDbLine
 62
7
  6
CONTINUOUS
 10
16.1596228645
 20
10.0106983029
 11
13.1135943804
 21
10.0106983029
  0
LINE
  5
246
100
AcDbEntity
  8
0
100
AcDbLine
 62
7
  6
CONTINUOUS
 10
14.7337233166
 20
15.2534374618
 11
13.1135943804
 21
10.0106983029
  0
LINE
  5
247
100
AcDbEntity
  8
0
100
AcDbLine
 62
7
  6
CONTINUOUS
 10
13.6247133166
 20
9.911093871
 11
13.5885682071
 21
9.7941282539
  0
LINE
  5
248
100
AcDbEntity
  8
0
100
AcDbLine
 62
7
  6
CONTINUOUS
 10
13.5871913687
 20
9.7899275848
 11
13.5885653617
 21
9.7941291328
  0
LINE
  5
249
100
AcDbEntity
  8
0
100
AcDbLine
 62
7
  6
CONTINUOUS
 10
14.1323847306
 20
9.911093871
 11
14.0962396211
 21
9.7941282539
  0
LINE
  5
24A
100
AcDbEntity
  8
0
100
AcDbLine
 62
7
  6
CONTINUOUS
 10
14.0948627827
 20
9.7899275848
 11
14.0962367757
 21
9.7941291328
  0
LINE
  5
24B
100
AcDbEntity
  8
0
100
AcDbLine
 62
7
  6
CONTINUOUS
 10
16.2085016203
 20
9.911093871
 11
16.1596228645
 21
10.0106983029
  0
LINE
  5
24C
100
AcDbEntity
  8
0
100
AcDbLine
 62
7
  6
CONTINUOUS
 10
14.6400561446
 20
9.911093871
 11
14.6039110351
 21
9.7941282539
  0
LINE
  5
24D
100
AcDbEntity
  8
0
100
AcDbLine
 62
7
  6
CONTINUOUS
 10
14.6025341967
 20
9.7899275848
 11
14.6039081897
 21
9.7941291328
  0
LINE
  5
24E
100
AcDbEntity
  8
0
100
AcDbLine
 62
7
  6
CONTINUOUS
 10
15.1477275586
 20
9.911093871
 11
15.1115824491
 21
9.7941282539
  0
LINE
  5
24F
100
AcDbEntity
  8
0
100
AcDbLine
 62
7
  6
CONTINUOUS
 10
15.1102056108
 20
9.7899275848
 11
15.1115796037
 21
9.7941291328
  0
LINE
  5
250
100
AcDbEntity
  8
0
100
AcDbLine
 62
7
  6
CONTINUOUS
 10
15.6553989726
 20
9.911093871
 11
15.6192538632
 21
9.7941282539
  0
LINE
  5
251
100
AcDbEntity
  8
0
100
AcDbLine
 62
7
  6
CONTINUOUS
 10
15.6178770248
 20
9.7899275848
 11
15.6192510177
 21
9.7941291328
  0
LINE
  5
252
100
AcDbEntity
  8
0
100
AcDbLine
 62
7
  6
CONTINUOUS
 10
17.7797518007
 20
15.2534374618
 11
16.1596228645
 21
10.0106983029
  0
LINE
  5
253
100
AcDbEntity
  8
0
100
AcDbLine
 62
7
  6
CONTINUOUS
 10
16.1630703867
 20
9.911093871
 11
16.1269252772
 21
9.7941282539
  0
LINE
  5
254
100
AcDbEntity
  8
0
100
AcDbLine
 62
7
  6
CONTINUOUS
 10
17.8286305565
 20
15.1538330299
 11
16.2085016203
 21
9.911093871
  0
LINE
  5
255
100
AcDbEntity
  8
0
100
AcDbLine
 62
7
  6
CONTINUOUS
 10
16.1255484388
 20
9.7899275848
 11
16.1269240983
 21
9.7941286181
  0
LINE
  5
256
100
AcDbEntity
  8
0
100
AcDbLine
 62
7
  6
CONTINUOUS
 10
14.7337233166
 20
15.2534374618
 11
17.7797518007
 21
15.2534374618
  0
LINE
  5
257
100
AcDbEntity
  8
0
100
AcDbLine
 62
7
  6
CONTINUOUS
 10
17.8286305565
 20
15.1538330299
 11
17.7797518007
 21
15.2534374618
  0
ARC
  5
258
100
AcDbEntity
  8
0
100
AcDbCircle
 62
7
  6
CONTINUOUS
 10
4.5284971974
 20
5.5549624164
 40
0.3961614173
100
AcDbArc
 50
330.5258999203
 51
354.0364298817
  0
ARC
  5
259
100
AcDbEntity
  8
0
100
AcDbCircle
 62
7
  6
CONTINUOUS
 10
5.5275129455
 20
5.5549624164
 40
0.3961614173
100
AcDbArc
 50
185.9635701183
 51
209.4741000797
  0
ARC
  5
25A
100
AcDbEntity
  8
0
100
AcDbCircle
 62
7
  6
CONTINUOUS
 10
5.0796782998
 20
5.5549624164
 40
0.3961614173
100
AcDbArc
 50
330.5258999203
 51
354.0364298817
  0
ARC
  5
25B
100
AcDbEntity
  8
0
100
AcDbCircle
 62
7
  6
CONTINUOUS
 10
6.0786940478
 20
5.5549624164
 40
0.3961614173
100
AcDbArc
 50
185.9635701183
 51
209.4741000797
  0
ARC
  5
25C
100
AcDbEntity
  8
0
100
AcDbCircle
 62
7
  6
CONTINUOUS
 10
5.6308594022
 20
5.5549624164
 40
0.3961614173
100
AcDbArc
 50
330.5258999203
 51
354.0364298817
  0
ARC
  5
25D
100
AcDbEntity
  8
0
100
AcDbCircle
 62
7
  6
CONTINUOUS
 10
6.6298751502
 20
5.5549624164
 40
0.3961614173
100
AcDbArc
 50
185.9635701183
 51
209.4741000797
  0
ARC
  5
25E
100
AcDbEntity
  8
0
100
AcDbCircle
 62
7
  6
CONTINUOUS
 10
4.9763318431
 20
5.5549624164
 40
0.3961614173
100
AcDbArc
 50
185.9635701183
 51
209.4741000797
  0
ARC
  5
25F
100
AcDbEntity
  8
0
100
AcDbCircle
 62
7
  6
CONTINUOUS
 10
7.2844027092
 20
5.5549624164
 40
0.3961614173
100
AcDbArc
 50
330.5258999203
 51
354.0364298817
  0
ARC
  5
260
100
AcDbEntity
  8
0
100
AcDbCircle
 62
7
  6
CONTINUOUS
 10
7.7322373549
 20
5.5549624164
 40
0.3961614173
100
AcDbArc
 50
185.9635701183
 51
209.4741000797
  0
ARC
  5
261
100
AcDbEntity
  8
0
100
AcDbCircle
 62
7
  6
CONTINUOUS
 10
6.7332216069
 20
5.5549624164
 40
0.3961614173
100
AcDbArc
 50
330.5258999203
 51
354.0364298817
  0
ARC
  5
262
100
AcDbEntity
  8
0
100
AcDbCircle
 62
7
  6
CONTINUOUS
 10
7.1810562525
 20
5.5549624164
 40
0.3961614173
100
AcDbArc
 50
185.9635701183
 51
209.4741000797
  0
ARC
  5
263
100
AcDbEntity
  8
0
100
AcDbCircle
 62
7
  6
CONTINUOUS
 10
6.1820405045
 20
5.5549624164
 40
0.3961614173
100
AcDbArc
 50
330.5258999203
 51
354.0364298817
  0
ARC
  5
264
100
AcDbEntity
  8
0
100
AcDbCircle
 62
7
  6
CONTINUOUS
 10
4.6914231305
 20
5.3939387944
 40
0.0688976378
100
AcDbArc
 50
209.4741000797
 51
270.0
  0
ARC
  5
265
100
AcDbEntity
  8
0
100
AcDbCircle
 62
7
  6
CONTINUOUS
 10
4.8134059101
 20
5.3939387944
 40
0.0688976378
100
AcDbArc
 50
270.0
 51
330.5258999203
  0
ARC
  5
266
100
AcDbEntity
  8
0
100
AcDbCircle
 62
7
  6
CONTINUOUS
 10
5.2426042328
 20
5.3939387944
 40
0.0688976378
100
AcDbArc
 50
209.4741000797
 51
270.0
  0
ARC
  5
267
100
AcDbEntity
  8
0
100
AcDbCircle
 62
7
  6
CONTINUOUS
 10
5.3645870124
 20
5.3939387944
 40
0.0688976378
100
AcDbArc
 50
270.0
 51
330.5258999203
  0
ARC
  5
268
100
AcDbEntity
  8
0
100
AcDbCircle
 62
7
  6
CONTINUOUS
 10
5.7937853352
 20
5.3939387944
 40
0.0688976378
100
AcDbArc
 50
209.4741000797
 51
270.0
  0
ARC
  5
269
100
AcDbEntity
  8
0
100
AcDbCircle
 62
7
  6
CONTINUOUS
 10
5.9157681148
 20
5.3939387944
 40
0.0688976378
100
AcDbArc
 50
270.0
 51
330.5258999203
  0
ARC
  5
26A
100
AcDbEntity
  8
0
100
AcDbCircle
 62
7
  6
CONTINUOUS
 10
6.3449664376
 20
5.3939387944
 40
0.0688976378
100
AcDbArc
 50
209.4741000797
 51
270.0
  0
ARC
  5
26B
100
AcDbEntity
  8
0
100
AcDbCircle
 62
7
  6
CONTINUOUS
 10
7.5693114219
 20
5.3939387944
 40
0.0688976378
100
AcDbArc
 50
270.0
 51
330.5258999203
  0
ARC
  5
26C
100
AcDbEntity
  8
0
100
AcDbCircle
 62
7
  6
CONTINUOUS
 10
7.4473286423
 20
5.3939387944
 40
0.0688976378
100
AcDbArc
 50
209.4741000797
 51
270.0
  0
ARC
  5
26D
100
AcDbEntity
  8
0
100
AcDbCircle
 62
7
  6
CONTINUOUS
 10
7.0181303195
 20
5.3939387944
 40
0.0688976378
100
AcDbArc
 50
270.0
 51
330.5258999203
  0
ARC
  5
26E
100
AcDbEntity
  8
0
100
AcDbCircle
 62
7
  6
CONTINUOUS
 10
6.8961475399
 20
5.3939387944
 40
0.0688976378
100
AcDbArc
 50
209.4741000797
 51
270.0
  0
ARC
  5
26F
100
AcDbEntity
  8
0
100
AcDbCircle
 62
7
  6
CONTINUOUS
 10
6.4669492171
 20
5.3939387944
 40
0.0688976378
100
AcDbArc
 50
270.0
 51
330.5258999203
  0
ARC
  5
270
100
AcDbEntity
  8
0
100
AcDbCircle
 62
7
  6
CONTINUOUS
 10
4.5366312066
 20
5.5090306579
 40
0.0459317585
100
AcDbArc
 50
5.9635701183
 51
90.0
  0
ARC
  5
271
100
AcDbEntity
  8
0
100
AcDbCircle
 62
7
  6
CONTINUOUS
 10
4.9681978339
 20
5.5090306579
 40
0.0459317585
100
AcDbArc
 50
90.0
 51
174.0364298817
  0
ARC
  5
272
100
AcDbEntity
  8
0
100
AcDbCircle
 62
7
  6
CONTINUOUS
 10
5.087812309
 20
5.5090306579
 40
0.0459317585
100
AcDbArc
 50
5.9635701183
 51
90.0
  0
ARC
  5
273
100
AcDbEntity
  8
0
100
AcDbCircle
 62
7
  6
CONTINUOUS
 10
5.5193789362
 20
5.5090306579
 40
0.0459317585
100
AcDbArc
 50
90.0
 51
174.0364298817
  0
ARC
  5
274
100
AcDbEntity
  8
0
100
AcDbCircle
 62
7
  6
CONTINUOUS
 10
5.6389934114
 20
5.5090306579
 40
0.0459317585
100
AcDbArc
 50
5.9635701183
 51
90.0
  0
ARC
  5
275
100
AcDbEntity
  8
0
100
AcDbCircle
 62
7
  6
CONTINUOUS
 10
6.0705600386
 20
5.5090306579
 40
0.0459317585
100
AcDbArc
 50
90.0
 51
174.0364298817
  0
ARC
  5
276
100
AcDbEntity
  8
0
100
AcDbCircle
 62
7
  6
CONTINUOUS
 10
6.1901745137
 20
5.5090306579
 40
0.0459317585
100
AcDbArc
 50
5.9635701183
 51
90.0
  0
ARC
  5
277
100
AcDbEntity
  8
0
100
AcDbCircle
 62
7
  6
CONTINUOUS
 10
6.621741141
 20
5.5090306579
 40
0.0459317585
100
AcDbArc
 50
90.0
 51
174.0364298817
  0
ARC
  5
278
100
AcDbEntity
  8
0
100
AcDbCircle
 62
7
  6
CONTINUOUS
 10
6.7413556161
 20
5.5090306579
 40
0.0459317585
100
AcDbArc
 50
5.9635701183
 51
90.0
  0
ARC
  5
279
100
AcDbEntity
  8
0
100
AcDbCircle
 62
7
  6
CONTINUOUS
 10
7.1729222433
 20
5.5090306579
 40
0.0459317585
100
AcDbArc
 50
90.0
 51
174.0364298817
  0
ARC
  5
27A
100
AcDbEntity
  8
0
100
AcDbCircle
 62
7
  6
CONTINUOUS
 10
7.2925367185
 20
5.5090306579
 40
0.0459317585
100
AcDbArc
 50
5.9635701183
 51
90.0
  0
ARC
  5
27B
100
AcDbEntity
  8
0
100
AcDbCircle
 62
7
  6
CONTINUOUS
 10
7.7241033457
 20
5.5090306579
 40
0.0459317585
100
AcDbArc
 50
90.0
 51
174.0364298817
  0
SPLINE
  5
27C
100
AcDbEntity
  8
0
100
AcDbSpline
 62
7
  6
CONTINUOUS
 70
0
 71
3
 72
11
 73
7
 74
0
 42
0.0000001
 43
0.0000001
 44
0.0000000001
 40
0.0
 40
0.0
 40
0.0
 40
0.0
 40
0.2022103399
 40
0.430030807
 40
0.6962134154
 40
1.0
 40
1.0
 40
1.0
 40
1.0
 10
13.5851852359
 20
9.8961034999
 30
0.0
 10
13.5858921374
 20
9.8983900274
 30
0.0
 10
13.5886548325
 20
9.9029115096
 30
0.0
 10
13.5955906126
 20
9.9076634605
 30
0.0
 10
13.6046906613
 20
9.9105230801
 30
0.0
 10
13.6114629007
 20
9.911093871
 30
0.0
 10
13.6150584366
 20
9.911093871
 30
0.0
  0
SPLINE
  5
27D
100
AcDbEntity
  8
0
100
AcDbSpline
 62
7
  6
CONTINUOUS
 70
0
 71
3
 72
11
 73
7
 74
0
 42
0.0000001
 43
0.0000001
 44
0.0000000001
 40
0.0
 40
0.0
 40
0.0
 40
0.0
 40
0.2022103399
 40
0.430030807
 40
0.6962134154
 40
1.0
 40
1.0
 40
1.0
 40
1.0
 10
14.0928566499
 20
9.8961034999
 30
0.0
 10
14.0935635514
 20
9.8983900274
 30
0.0
 10
14.0963262465
 20
9.9029115096
 30
0.0
 10
14.1032620266
 20
9.9076634605
 30
0.0
 10
14.1123620753
 20
9.9105230801
 30
0.0
 10
14.1191343147
 20
9.911093871
 30
0.0
 10
14.1227298506
 20
9.911093871
 30
0.0
  0
SPLINE
  5
27E
100
AcDbEntity
  8
0
100
AcDbSpline
 62
7
  6
CONTINUOUS
 70
0
 71
3
 72
11
 73
7
 74
0
 42
0.0000001
 43
0.0000001
 44
0.0000000001
 40
0.0
 40
0.0
 40
0.0
 40
0.0
 40
0.2022103399
 40
0.430030807
 40
0.6962134154
 40
1.0
 40
1.0
 40
1.0
 40
1.0
 10
14.600528064
 20
9.8961034999
 30
0.0
 10
14.6012349655
 20
9.8983900274
 30
0.0
 10
14.6039976605
 20
9.9029115096
 30
0.0
 10
14.6109334406
 20
9.9076634605
 30
0.0
 10
14.6200334893
 20
9.9105230801
 30
0.0
 10
14.6268057287
 20
9.911093871
 30
0.0
 10
14.6304012646
 20
9.911093871
 30
0.0
  0
SPLINE
  5
27F
100
AcDbEntity
  8
0
100
AcDbSpline
 62
7
  6
CONTINUOUS
 70
0
 71
3
 72
11
 73
7
 74
0
 42
0.0000001
 43
0.0000001
 44
0.0000000001
 40
0.0
 40
0.0
 40
0.0
 40
0.0
 40
0.2022103399
 40
0.430030807
 40
0.6962134154
 40
1.0
 40
1.0
 40
1.0
 40
1.0
 10
15.108199478
 20
9.8961034999
 30
0.0
 10
15.1089063795
 20
9.8983900274
 30
0.0
 10
15.1116690745
 20
9.9029115096
 30
0.0
 10
15.1186048547
 20
9.9076634605
 30
0.0
 10
15.1277049034
 20
9.9105230801
 30
0.0
 10
15.1344771427
 20
9.911093871
 30
0.0
 10
15.1380726786
 20
9.911093871
 30
0.0
  0
SPLINE
  5
280
100
AcDbEntity
  8
0
100
AcDbSpline
 62
7
  6
CONTINUOUS
 70
0
 71
3
 72
11
 73
7
 74
0
 42
0.0000001
 43
0.0000001
 44
0.0000000001
 40
0.0
 40
0.0
 40
0.0
 40
0.0
 40
0.2022103399
 40
0.430030807
 40
0.6962134154
 40
1.0
 40
1.0
 40
1.0
 40
1.0
 10
15.615870892
 20
9.8961034999
 30
0.0
 10
15.6165777935
 20
9.8983900274
 30
0.0
 10
15.6193404886
 20
9.9029115096
 30
0.0
 10
15.6262762687
 20
9.9076634605
 30
0.0
 10
15.6353763174
 20
9.9105230801
 30
0.0
 10
15.6421485567
 20
9.911093871
 30
0.0
 10
15.6457440926
 20
9.911093871
 30
0.0
  0
SPLINE
  5
281
100
AcDbEntity
  8
0
100
AcDbSpline
 62
7
  6
CONTINUOUS
 70
0
 71
3
 72
11
 73
7
 74
0
 42
0.0000001
 43
0.0000001
 44
0.0000000001
 40
0.0
 40
0.0
 40
0.0
 40
0.0
 40
0.2022103399
 40
0.430030807
 40
0.6962134154
 40
1.0
 40
1.0
 40
1.0
 40
1.0
 10
16.123542306
 20
9.8961034999
 30
0.0
 10
16.1242492075
 20
9.8983900274
 30
0.0
 10
16.1270119026
 20
9.9029115096
 30
0.0
 10
16.1339476827
 20
9.9076634605
 30
0.0
 10
16.1430477314
 20
9.9105230801
 30
0.0
 10
16.1498199708
 20
9.911093871
 30
0.0
 10
16.1534155066
 20
9.911093871
 30
0.0
  0
SPLINE
  5
282
100
AcDbEntity
  8
0
100
AcDbSpline
 62
7
  6
CONTINUOUS
 70
0
 71
3
 72
10
 73
6
 74
0
 42
0.0000001
 43
0.0000001
 44
0.0000000001
 40
0.0
 40
0.0
 40
0.0
 40
0.0
 40
0.5269557642
 40
0.7807614861
 40
1.0
 40
1.0
 40
1.0
 40
1.0
 10
13.2175592499
 20
9.911093871
 30
0.0
 10
13.2284767973
 20
9.911093871
 30
0.0
 10
13.2448610191
 20
9.9071248756
 30
0.0
 10
13.2627127829
 20
9.8964659634
 30
0.0
 10
13.269728253
 20
9.8893248336
 30
0.0
 10
13.2721916575
 20
9.8855086361
 30
0.0
  0
SPLINE
  5
283
100
AcDbEntity
  8
0
100
AcDbSpline
 62
7
  6
CONTINUOUS
 70
0
 71
3
 72
10
 73
6
 74
0
 42
0.0000001
 43
0.0000001
 44
0.0000000001
 40
0.0
 40
0.0
 40
0.0
 40
0.0
 40
0.5269557642
 40
0.7807614861
 40
1.0
 40
1.0
 40
1.0
 40
1.0
 10
13.7252306639
 20
9.911093871
 30
0.0
 10
13.7361482114
 20
9.911093871
 30
0.0
 10
13.7525324332
 20
9.9071248756
 30
0.0
 10
13.7703841969
 20
9.8964659634
 30
0.0
 10
13.777399667
 20
9.8893248336
 30
0.0
 10
13.7798630716
 20
9.8855086361
 30
0.0
  0
SPLINE
  5
284
100
AcDbEntity
  8
0
100
AcDbSpline
 62
7
  6
CONTINUOUS
 70
0
 71
3
 72
9
 73
5
 74
0
 42
0.0000001
 43
0.0000001
 44
0.0000000001
 40
0.0
 40
0.0
 40
0.0
 40
0.0
 40
0.4746386337
 40
1.0
 40
1.0
 40
1.0
 40
1.0
 10
13.2721916575
 20
9.8855086361
 30
0.0
 10
13.2836272683
 20
9.8677930927
 30
0.0
 10
13.3119777372
 20
9.8331682801
 30
0.0
 10
13.3457006184
 20
9.8039658898
 30
0.0
 10
13.3643458718
 20
9.7899275848
 30
0.0
  0
SPLINE
  5
285
100
AcDbEntity
  8
0
100
AcDbSpline
 62
7
  6
CONTINUOUS
 70
0
 71
3
 72
11
 73
7
 74
0
 42
0.0000001
 43
0.0000001
 44
0.0000000001
 40
0.0
 40
0.0
 40
0.0
 40
0.0
 40
0.3029215967
 40
0.5690900224
 40
0.7976051726
 40
1.0
 40
1.0
 40
1.0
 40
1.0
 10
16.0809783137
 20
9.768172524
 30
0.0
 10
16.0862801936
 20
9.768172524
 30
0.0
 10
16.0962780214
 20
9.7690003048
 30
0.0
 10
16.1097502129
 20
9.7731461571
 30
0.0
 10
16.1201097666
 20
9.7800166092
 30
0.0
 10
16.1243880092
 20
9.7865806332
 30
0.0
 10
16.1255484388
 20
9.7899275848
 30
0.0
  0
SPLINE
  5
286
100
AcDbEntity
  8
0
100
AcDbSpline
 62
7
  6
CONTINUOUS
 70
0
 71
3
 72
9
 73
5
 74
0
 42
0.0000001
 43
0.0000001
 44
0.0000000001
 40
0.0
 40
0.0
 40
0.0
 40
0.0
 40
0.4970489408
 40
1.0
 40
1.0
 40
1.0
 40
1.0
 10
15.9027029419
 20
9.7899275848
 30
0.0
 10
15.9120009064
 20
9.7829270009
 30
0.0
 10
15.9333989242
 20
9.7723809817
 30
0.0
 10
15.9568477892
 20
9.768172524
 30
0.0
 10
15.9686247335
 20
9.768172524
 30
0.0
  0
SPLINE
  5
287
100
AcDbEntity
  8
0
100
AcDbSpline
 62
7
  6
CONTINUOUS
 70
0
 71
3
 72
9
 73
5
 74
0
 42
0.0000001
 43
0.0000001
 44
0.0000000001
 40
0.0
 40
0.0
 40
0.0
 40
0.0
 40
0.474639384
 40
1.0
 40
1.0
 40
1.0
 40
1.0
 10
15.8105487276
 20
9.8855086361
 30
0.0
 10
15.8219843528
 20
9.8677930704
 30
0.0
 10
15.8503351885
 20
9.8331685934
 30
0.0
 10
15.8840577211
 20
9.8039658653
 30
0.0
 10
15.9027029419
 20
9.7899275848
 30
0.0
  0
SPLINE
  5
288
100
AcDbEntity
  8
0
100
AcDbSpline
 62
7
  6
CONTINUOUS
 70
0
 71
3
 72
11
 73
7
 74
0
 42
0.0000001
 43
0.0000001
 44
0.0000000001
 40
0.0
 40
0.0
 40
0.0
 40
0.0
 40
0.3029215967
 40
0.5690900224
 40
0.7976051726
 40
1.0
 40
1.0
 40
1.0
 40
1.0
 10
15.5733068997
 20
9.768172524
 30
0.0
 10
15.5786087795
 20
9.768172524
 30
0.0
 10
15.5886066074
 20
9.7690003048
 30
0.0
 10
15.6020787989
 20
9.7731461571
 30
0.0
 10
15.6124383525
 20
9.7800166092
 30
0.0
 10
15.6167165952
 20
9.7865806332
 30
0.0
 10
15.6178770248
 20
9.7899275848
 30
0.0
  0
SPLINE
  5
289
100
AcDbEntity
  8
0
100
AcDbSpline
 62
7
  6
CONTINUOUS
 70
0
 71
3
 72
9
 73
5
 74
0
 42
0.0000001
 43
0.0000001
 44
0.0000000001
 40
0.0
 40
0.0
 40
0.0
 40
0.0
 40
0.4970489408
 40
1.0
 40
1.0
 40
1.0
 40
1.0
 10
15.3950315279
 20
9.7899275848
 30
0.0
 10
15.4043294924
 20
9.7829270009
 30
0.0
 10
15.4257275102
 20
9.7723809817
 30
0.0
 10
15.4491763751
 20
9.768172524
 30
0.0
 10
15.4609533195
 20
9.768172524
 30
0.0
  0
SPLINE
  5
28A
100
AcDbEntity
  8
0
100
AcDbSpline
 62
7
  6
CONTINUOUS
 70
0
 71
3
 72
9
 73
5
 74
0
 42
0.0000001
 43
0.0000001
 44
0.0000000001
 40
0.0
 40
0.0
 40
0.0
 40
0.0
 40
0.4746386337
 40
1.0
 40
1.0
 40
1.0
 40
1.0
 10
15.3028773136
 20
9.8855086361
 30
0.0
 10
15.3143129244
 20
9.8677930927
 30
0.0
 10
15.3426633933
 20
9.8331682801
 30
0.0
 10
15.3763862745
 20
9.8039658898
 30
0.0
 10
15.3950315279
 20
9.7899275848
 30
0.0
  0
SPLINE
  5
28B
100
AcDbEntity
  8
0
100
AcDbSpline
 62
7
  6
CONTINUOUS
 70
0
 71
3
 72
11
 73
7
 74
0
 42
0.0000001
 43
0.0000001
 44
0.0000000001
 40
0.0
 40
0.0
 40
0.0
 40
0.0
 40
0.3029215967
 40
0.5690900224
 40
0.7976051726
 40
1.0
 40
1.0
 40
1.0
 40
1.0
 10
15.0656354857
 20
9.768172524
 30
0.0
 10
15.0709373655
 20
9.768172524
 30
0.0
 10
15.0809351933
 20
9.7690003048
 30
0.0
 10
15.0944073849
 20
9.7731461571
 30
0.0
 10
15.1047669385
 20
9.7800166092
 30
0.0
 10
15.1090451812
 20
9.7865806332
 30
0.0
 10
15.1102056108
 20
9.7899275848
 30
0.0
  0
SPLINE
  5
28C
100
AcDbEntity
  8
0
100
AcDbSpline
 62
7
  6
CONTINUOUS
 70
0
 71
3
 72
9
 73
5
 74
0
 42
0.0000001
 43
0.0000001
 44
0.0000000001
 40
0.0
 40
0.0
 40
0.0
 40
0.0
 40
0.4970489408
 40
1.0
 40
1.0
 40
1.0
 40
1.0
 10
14.8873601139
 20
9.7899275848
 30
0.0
 10
14.8966580784
 20
9.7829270009
 30
0.0
 10
14.9180560962
 20
9.7723809817
 30
0.0
 10
14.9415049611
 20
9.768172524
 30
0.0
 10
14.9532819055
 20
9.768172524
 30
0.0
  0
SPLINE
  5
28D
100
AcDbEntity
  8
0
100
AcDbSpline
 62
7
  6
CONTINUOUS
 70
0
 71
3
 72
9
 73
5
 74
0
 42
0.0000001
 43
0.0000001
 44
0.0000000001
 40
0.0
 40
0.0
 40
0.0
 40
0.0
 40
0.4746386337
 40
1.0
 40
1.0
 40
1.0
 40
1.0
 10
14.7952058996
 20
9.8855086361
 30
0.0
 10
14.8066415104
 20
9.8677930927
 30
0.0
 10
14.8349919793
 20
9.8331682801
 30
0.0
 10
14.8687148605
 20
9.8039658898
 30
0.0
 10
14.8873601139
 20
9.7899275848
 30
0.0
  0
SPLINE
  5
28E
100
AcDbEntity
  8
0
100
AcDbSpline
 62
7
  6
CONTINUOUS
 70
0
 71
3
 72
11
 73
7
 74
0
 42
0.0000001
 43
0.0000001
 44
0.0000000001
 40
0.0
 40
0.0
 40
0.0
 40
0.0
 40
0.3029215967
 40
0.5690900224
 40
0.7976051726
 40
1.0
 40
1.0
 40
1.0
 40
1.0
 10
14.5579640717
 20
9.768172524
 30
0.0
 10
14.5632659515
 20
9.768172524
 30
0.0
 10
14.5732637793
 20
9.7690003048
 30
0.0
 10
14.5867359709
 20
9.7731461571
 30
0.0
 10
14.5970955245
 20
9.7800166092
 30
0.0
 10
14.6013737671
 20
9.7865806332
 30
0.0
 10
14.6025341967
 20
9.7899275848
 30
0.0
  0
SPLINE
  5
28F
100
AcDbEntity
  8
0
100
AcDbSpline
 62
7
  6
CONTINUOUS
 70
0
 71
3
 72
9
 73
5
 74
0
 42
0.0000001
 43
0.0000001
 44
0.0000000001
 40
0.0
 40
0.0
 40
0.0
 40
0.0
 40
0.4970489408
 40
1.0
 40
1.0
 40
1.0
 40
1.0
 10
14.3796886999
 20
9.7899275848
 30
0.0
 10
14.3889866644
 20
9.7829270009
 30
0.0
 10
14.4103846821
 20
9.7723809817
 30
0.0
 10
14.4338335471
 20
9.768172524
 30
0.0
 10
14.4456104914
 20
9.768172524
 30
0.0
  0
SPLINE
  5
290
100
AcDbEntity
  8
0
100
AcDbSpline
 62
7
  6
CONTINUOUS
 70
0
 71
3
 72
9
 73
5
 74
0
 42
0.0000001
 43
0.0000001
 44
0.0000000001
 40
0.0
 40
0.0
 40
0.0
 40
0.0
 40
0.4746386337
 40
1.0
 40
1.0
 40
1.0
 40
1.0
 10
14.2875344856
 20
9.8855086361
 30
0.0
 10
14.2989700964
 20
9.8677930927
 30
0.0
 10
14.3273205653
 20
9.8331682801
 30
0.0
 10
14.3610434465
 20
9.8039658898
 30
0.0
 10
14.3796886999
 20
9.7899275848
 30
0.0
  0
SPLINE
  5
291
100
AcDbEntity
  8
0
100
AcDbSpline
 62
7
  6
CONTINUOUS
 70
0
 71
3
 72
11
 73
7
 74
0
 42
0.0000001
 43
0.0000001
 44
0.0000000001
 40
0.0
 40
0.0
 40
0.0
 40
0.0
 40
0.3029215967
 40
0.5690900224
 40
0.7976051726
 40
1.0
 40
1.0
 40
1.0
 40
1.0
 10
14.0502926576
 20
9.768172524
 30
0.0
 10
14.0555945375
 20
9.768172524
 30
0.0
 10
14.0655923653
 20
9.7690003048
 30
0.0
 10
14.0790645568
 20
9.7731461571
 30
0.0
 10
14.0894241105
 20
9.7800166092
 30
0.0
 10
14.0937023531
 20
9.7865806332
 30
0.0
 10
14.0948627827
 20
9.7899275848
 30
0.0
  0
SPLINE
  5
292
100
AcDbEntity
  8
0
100
AcDbSpline
 62
7
  6
CONTINUOUS
 70
0
 71
3
 72
9
 73
5
 74
0
 42
0.0000001
 43
0.0000001
 44
0.0000000001
 40
0.0
 40
0.0
 40
0.0
 40
0.0
 40
0.4970489408
 40
1.0
 40
1.0
 40
1.0
 40
1.0
 10
13.8720172858
 20
9.7899275848
 30
0.0
 10
13.8813152503
 20
9.7829270009
 30
0.0
 10
13.9027132681
 20
9.7723809817
 30
0.0
 10
13.9261621331
 20
9.768172524
 30
0.0
 10
13.9379390774
 20
9.768172524
 30
0.0
  0
SPLINE
  5
293
100
AcDbEntity
  8
0
100
AcDbSpline
 62
7
  6
CONTINUOUS
 70
0
 71
3
 72
9
 73
5
 74
0
 42
0.0000001
 43
0.0000001
 44
0.0000000001
 40
0.0
 40
0.0
 40
0.0
 40
0.0
 40
0.4746386337
 40
1.0
 40
1.0
 40
1.0
 40
1.0
 10
13.7798630716
 20
9.8855086361
 30
0.0
 10
13.7912986823
 20
9.8677930927
 30
0.0
 10
13.8196491513
 20
9.8331682801
 30
0.0
 10
13.8533720324
 20
9.8039658898
 30
0.0
 10
13.8720172858
 20
9.7899275848
 30
0.0
  0
SPLINE
  5
294
100
AcDbEntity
  8
0
100
AcDbSpline
 62
7
  6
CONTINUOUS
 70
0
 71
3
 72
11
 73
7
 74
0
 42
0.0000001
 43
0.0000001
 44
0.0000000001
 40
0.0
 40
0.0
 40
0.0
 40
0.0
 40
0.3029215967
 40
0.5690900224
 40
0.7976051726
 40
1.0
 40
1.0
 40
1.0
 40
1.0
 10
13.5426212436
 20
9.768172524
 30
0.0
 10
13.5479231235
 20
9.768172524
 30
0.0
 10
13.5579209513
 20
9.7690003048
 30
0.0
 10
13.5713931428
 20
9.7731461571
 30
0.0
 10
13.5817526965
 20
9.7800166092
 30
0.0
 10
13.5860309391
 20
9.7865806332
 30
0.0
 10
13.5871913687
 20
9.7899275848
 30
0.0
  0
SPLINE
  5
295
100
AcDbEntity
  8
0
100
AcDbSpline
 62
7
  6
CONTINUOUS
 70
0
 71
3
 72
9
 73
5
 74
0
 42
0.0000001
 43
0.0000001
 44
0.0000000001
 40
0.0
 40
0.0
 40
0.0
 40
0.0
 40
0.4970489408
 40
1.0
 40
1.0
 40
1.0
 40
1.0
 10
13.3643458718
 20
9.7899275848
 30
0.0
 10
13.3736438363
 20
9.7829270009
 30
0.0
 10
13.3950418541
 20
9.7723809817
 30
0.0
 10
13.4184907191
 20
9.768172524
 30
0.0
 10
13.4302676634
 20
9.768172524
 30
0.0
  0
SPLINE
  5
296
100
AcDbEntity
  8
0
100
AcDbSpline
 62
7
  6
CONTINUOUS
 70
0
 71
3
 72
10
 73
6
 74
0
 42
0.0000001
 43
0.0000001
 44
0.0000000001
 40
0.0
 40
0.0
 40
0.0
 40
0.0
 40
0.5269557642
 40
0.7807614861
 40
1.0
 40
1.0
 40
1.0
 40
1.0
 10
14.2329020779
 20
9.911093871
 30
0.0
 10
14.2438196254
 20
9.911093871
 30
0.0
 10
14.2602038472
 20
9.9071248756
 30
0.0
 10
14.2780556109
 20
9.8964659634
 30
0.0
 10
14.285071081
 20
9.8893248336
 30
0.0
 10
14.2875344856
 20
9.8855086361
 30
0.0
  0
SPLINE
  5
297
100
AcDbEntity
  8
0
100
AcDbSpline
 62
7
  6
CONTINUOUS
 70
0
 71
3
 72
10
 73
6
 74
0
 42
0.0000001
 43
0.0000001
 44
0.0000000001
 40
0.0
 40
0.0
 40
0.0
 40
0.0
 40
0.5269557642
 40
0.7807614861
 40
1.0
 40
1.0
 40
1.0
 40
1.0
 10
14.740573492
 20
9.911093871
 30
0.0
 10
14.7514910394
 20
9.911093871
 30
0.0
 10
14.7678752612
 20
9.9071248756
 30
0.0
 10
14.785727025
 20
9.8964659634
 30
0.0
 10
14.7927424951
 20
9.8893248336
 30
0.0
 10
14.7952058996
 20
9.8855086361
 30
0.0
  0
SPLINE
  5
298
100
AcDbEntity
  8
0
100
AcDbSpline
 62
7
  6
CONTINUOUS
 70
0
 71
3
 72
10
 73
6
 74
0
 42
0.0000001
 43
0.0000001
 44
0.0000000001
 40
0.0
 40
0.0
 40
0.0
 40
0.0
 40
0.5269557642
 40
0.7807614861
 40
1.0
 40
1.0
 40
1.0
 40
1.0
 10
15.248244906
 20
9.911093871
 30
0.0
 10
15.2591624534
 20
9.911093871
 30
0.0
 10
15.2755466752
 20
9.9071248756
 30
0.0
 10
15.293398439
 20
9.8964659634
 30
0.0
 10
15.3004139091
 20
9.8893248336
 30
0.0
 10
15.3028773136
 20
9.8855086361
 30
0.0
  0
SPLINE
  5
299
100
AcDbEntity
  8
0
100
AcDbSpline
 62
7
  6
CONTINUOUS
 70
0
 71
3
 72
10
 73
6
 74
0
 42
0.0000001
 43
0.0000001
 44
0.0000000001
 40
0.0
 40
0.0
 40
0.0
 40
0.0
 40
0.5269557642
 40
0.7807614861
 40
1.0
 40
1.0
 40
1.0
 40
1.0
 10
15.75591632
 20
9.911093871
 30
0.0
 10
15.7668338674
 20
9.911093871
 30
0.0
 10
15.7832180892
 20
9.9071248756
 30
0.0
 10
15.801069853
 20
9.8964659634
 30
0.0
 10
15.8080853231
 20
9.8893248336
 30
0.0
 10
15.8105487276
 20
9.8855086361
 30
0.0
  0
SPLINE
  5
29A
100
AcDbEntity
  8
0
100
AcDbSpline
 62
7
  6
CONTINUOUS
 70
0
 71
3
 72
9
 73
5
 74
0
 42
0.0000001
 43
0.0000001
 44
0.0000000001
 40
0.0
 40
0.0
 40
0.0
 40
0.0
 40
0.4826789452
 40
1.0
 40
1.0
 40
1.0
 40
1.0
 10
15.6192536768
 20
9.7941283111
 30
0.0
 10
15.6236504345
 20
9.8083600103
 30
0.0
 10
15.627553423
 20
9.8396540416
 30
0.0
 10
15.6213064561
 20
9.8703753325
 30
0.0
 10
15.6162225044
 20
9.8855086361
 30
0.0
  0
SPLINE
  5
29B
100
AcDbEntity
  8
0
100
AcDbSpline
 62
7
  6
CONTINUOUS
 70
0
 71
3
 72
9
 73
5
 74
0
 42
0.0000001
 43
0.0000001
 44
0.0000000001
 40
0.0
 40
0.0
 40
0.0
 40
0.0
 40
0.265849087
 40
1.0
 40
1.0
 40
1.0
 40
1.0
 10
15.1085510904
 20
9.8855086361
 30
0.0
 10
15.1082492359
 20
9.8864071605
 30
0.0
 10
15.1073254521
 20
9.8898495404
 30
0.0
 10
15.1074263337
 20
9.8936027048
 30
0.0
 10
15.108199478
 20
9.8961034999
 30
0.0
  0
SPLINE
  5
29C
100
AcDbEntity
  8
0
100
AcDbSpline
 62
7
  6
CONTINUOUS
 70
0
 71
3
 72
9
 73
5
 74
0
 42
0.0000001
 43
0.0000001
 44
0.0000000001
 40
0.0
 40
0.0
 40
0.0
 40
0.0
 40
0.265849087
 40
1.0
 40
1.0
 40
1.0
 40
1.0
 10
13.5855368483
 20
9.8855086361
 30
0.0
 10
13.5852349939
 20
9.8864071605
 30
0.0
 10
13.5843112101
 20
9.8898495404
 30
0.0
 10
13.5844120916
 20
9.8936027048
 30
0.0
 10
13.5851852359
 20
9.8961034999
 30
0.0
  0
SPLINE
  5
29D
100
AcDbEntity
  8
0
100
AcDbSpline
 62
7
  6
CONTINUOUS
 70
0
 71
3
 72
9
 73
5
 74
0
 42
0.0000001
 43
0.0000001
 44
0.0000000001
 40
0.0
 40
0.0
 40
0.0
 40
0.0
 40
0.265849087
 40
1.0
 40
1.0
 40
1.0
 40
1.0
 10
15.6162225044
 20
9.8855086361
 30
0.0
 10
15.61592065
 20
9.8864071605
 30
0.0
 10
15.6149968661
 20
9.8898495404
 30
0.0
 10
15.6150977477
 20
9.8936027048
 30
0.0
 10
15.615870892
 20
9.8961034999
 30
0.0
  0
SPLINE
  5
29E
100
AcDbEntity
  8
0
100
AcDbSpline
 62
7
  6
CONTINUOUS
 70
0
 71
3
 72
9
 73
5
 74
0
 42
0.0000001
 43
0.0000001
 44
0.0000000001
 40
0.0
 40
0.0
 40
0.0
 40
0.0
 40
0.4826789452
 40
1.0
 40
1.0
 40
1.0
 40
1.0
 10
14.0962394347
 20
9.7941283111
 30
0.0
 10
14.1006361924
 20
9.8083600103
 30
0.0
 10
14.1045391809
 20
9.8396540416
 30
0.0
 10
14.098292214
 20
9.8703753325
 30
0.0
 10
14.0932082623
 20
9.8855086361
 30
0.0
  0
SPLINE
  5
29F
100
AcDbEntity
  8
0
100
AcDbSpline
 62
7
  6
CONTINUOUS
 70
0
 71
3
 72
9
 73
5
 74
0
 42
0.0000001
 43
0.0000001
 44
0.0000000001
 40
0.0
 40
0.0
 40
0.0
 40
0.0
 40
0.265849087
 40
1.0
 40
1.0
 40
1.0
 40
1.0
 10
16.1238939184
 20
9.8855086361
 30
0.0
 10
16.123592064
 20
9.8864071605
 30
0.0
 10
16.1226682801
 20
9.8898495404
 30
0.0
 10
16.1227691617
 20
9.8936027048
 30
0.0
 10
16.123542306
 20
9.8961034999
 30
0.0
  0
SPLINE
  5
2A0
100
AcDbEntity
  8
0
100
AcDbSpline
 62
7
  6
CONTINUOUS
 70
0
 71
3
 72
9
 73
5
 74
0
 42
0.0000001
 43
0.0000001
 44
0.0000000001
 40
0.0
 40
0.0
 40
0.0
 40
0.0
 40
0.4826789452
 40
1.0
 40
1.0
 40
1.0
 40
1.0
 10
15.1115822628
 20
9.7941283111
 30
0.0
 10
15.1159790205
 20
9.8083600103
 30
0.0
 10
15.119882009
 20
9.8396540416
 30
0.0
 10
15.113635042
 20
9.8703753325
 30
0.0
 10
15.1085510904
 20
9.8855086361
 30
0.0
  0
SPLINE
  5
2A1
100
AcDbEntity
  8
0
100
AcDbSpline
 62
7
  6
CONTINUOUS
 70
0
 71
3
 72
9
 73
5
 74
0
 42
0.0000001
 43
0.0000001
 44
0.0000000001
 40
0.0
 40
0.0
 40
0.0
 40
0.0
 40
0.4826734757
 40
1.0
 40
1.0
 40
1.0
 40
1.0
 10
16.1269251952
 20
9.7941282792
 30
0.0
 10
16.1313225352
 20
9.8083596067
 30
0.0
 10
16.1352237682
 20
9.8396539447
 30
0.0
 10
16.1289779189
 20
9.8703751871
 30
0.0
 10
16.1238939184
 20
9.8855086361
 30
0.0
  0
SPLINE
  5
2A2
100
AcDbEntity
  8
0
100
AcDbSpline
 62
7
  6
CONTINUOUS
 70
0
 71
3
 72
9
 73
5
 74
0
 42
0.0000001
 43
0.0000001
 44
0.0000000001
 40
0.0
 40
0.0
 40
0.0
 40
0.0
 40
0.4826789452
 40
1.0
 40
1.0
 40
1.0
 40
1.0
 10
14.6039108488
 20
9.7941283111
 30
0.0
 10
14.6083076065
 20
9.8083600103
 30
0.0
 10
14.6122105949
 20
9.8396540416
 30
0.0
 10
14.605963628
 20
9.8703753325
 30
0.0
 10
14.6008796763
 20
9.8855086361
 30
0.0
  0
SPLINE
  5
2A3
100
AcDbEntity
  8
0
100
AcDbSpline
 62
7
  6
CONTINUOUS
 70
0
 71
3
 72
9
 73
5
 74
0
 42
0.0000001
 43
0.0000001
 44
0.0000000001
 40
0.0
 40
0.0
 40
0.0
 40
0.0
 40
0.265849087
 40
1.0
 40
1.0
 40
1.0
 40
1.0
 10
14.0932082623
 20
9.8855086361
 30
0.0
 10
14.0929064079
 20
9.8864071605
 30
0.0
 10
14.0919826241
 20
9.8898495404
 30
0.0
 10
14.0920835056
 20
9.8936027048
 30
0.0
 10
14.0928566499
 20
9.8961034999
 30
0.0
  0
SPLINE
  5
2A4
100
AcDbEntity
  8
0
100
AcDbSpline
 62
7
  6
CONTINUOUS
 70
0
 71
3
 72
9
 73
5
 74
0
 42
0.0000001
 43
0.0000001
 44
0.0000000001
 40
0.0
 40
0.0
 40
0.0
 40
0.0
 40
0.4826789452
 40
1.0
 40
1.0
 40
1.0
 40
1.0
 10
13.5885680207
 20
9.7941283111
 30
0.0
 10
13.5929647784
 20
9.8083600103
 30
0.0
 10
13.5968677669
 20
9.8396540416
 30
0.0
 10
13.5906208
 20
9.8703753325
 30
0.0
 10
13.5855368483
 20
9.8855086361
 30
0.0
  0
SPLINE
  5
2A5
100
AcDbEntity
  8
0
100
AcDbSpline
 62
7
  6
CONTINUOUS
 70
0
 71
3
 72
9
 73
5
 74
0
 42
0.0000001
 43
0.0000001
 44
0.0000000001
 40
0.0
 40
0.0
 40
0.0
 40
0.0
 40
0.265849087
 40
1.0
 40
1.0
 40
1.0
 40
1.0
 10
14.6008796763
 20
9.8855086361
 30
0.0
 10
14.6005778219
 20
9.8864071605
 30
0.0
 10
14.5996540381
 20
9.8898495404
 30
0.0
 10
14.5997549196
 20
9.8936027048
 30
0.0
 10
14.600528064
 20
9.8961034999
 30
0.0
  0
ENDSEC
  0
SECTION
  2
OBJECTS
  0
DICTIONARY
  5
C
100
AcDbDictionary
280
0
281
1
  3
ACAD_GROUP
350
D
  3
ACAD_MLINESTYLE
350
17
  3
ACAD_LAYOUT
350
1A
  3
ACAD_PLOTSETTINGS
350
19
  3
ACAD_PLOTSTYLENAME
350
E
  0
DICTIONARY
  5
D
102
{ACAD_REACTORS
330
C
102
}
100
AcDbDictionary
280
0
281
1
  0
ACDBDICTIONARYWDFLT
  5
E
102
{ACAD_REACTORS
330
C
102
}
100
AcDbDictionary
281
1
  3
Normal
350
F
100
AcDbDictionaryWithDefault
340
F
  0
DICTIONARY
  5
17
102
{ACAD_REACTORS
330
C
102
}
100
AcDbDictionary
280
0
281
1
  3
Standard
350
18
  0
DICTIONARY
  5
19
102
{ACAD_REACTORS
330
C
102
}
100
AcDbDictionary
281
1
  0
DICTIONARY
  5
1A
102
{ACAD_REACTORS
330
C
102
}
100
AcDbDictionary
281
1
  3
Model
350
2A6
  3
Layout1
350
2A7
  0
ACDBPLACEHOLDER
  5
F
102
{ACAD_REACTORS
330
E
102
}
  0
MLINESTYLE
  5
18
102
{ACAD_REACTORS
330
17
102
}
100
AcDbMlineStyle
  2
STANDARD
 70
0
  3

 62
256
 51
90.0
 52
90.0
 71
2
 49
0.5
 62
256
  6
BYLAYER
 49
-0.5
 62
256
  6
BYLAYER
  0
LAYOUT
  5
2A6
102
{ACAD_REACTORS
330
1A
102
}
100
AcDbPlotSettings
  1

  2
none_device
  4
ANSI_C_(22.00_x_17.00_Inches)
  6

 40
0.0
 41
0.0
 42
0.0
 43
0.0
 44
558.8
 45
431.8
 46
0.0
 47
0.0
 48
0.0
 49
0.0
140
0.0
141
0.0
142
1.0
143
1.0
 70
1024
 72
0
 73
0
 74
0
  7

 75
0
147
1.0
148
0.0
149
0.0
100
AcDbLayout
  1
Model
 70
0
 71
0
 10
0.0
 20
0.0
 11
22.0
 21
17.0
 12
0.0
 22
0.0
 32
0.0
 14
0.0
 24
0.0
 34
0.0
 15
0.0
 25
0.0
 35
0.0
146
0.0
 13
0.0
 23
0.0
 33
0.0
 16
1.0
 26
0.0
 36
0.0
 17
0.0
 27
1.0
 37
0.0
 76
0
330
216
345
0
346
0
  0
LAYOUT
  5
2A7
102
{ACAD_REACTORS
330
1A
102
}
100
AcDbPlotSettings
  1

  2
none_device
  4
ANSI_C_(22.00_x_17.00_Inches)
  6

 40
0.0
 41
0.0
 42
0.0
 43
0.0
 44
558.8
 45
431.8
 46
0.0
 47
0.0
 48
0.0
 49
0.0
140
0.0
141
0.0
142
1.0
143
1.0
 70
0
 72
0
 73
0
 74
0
  7

 75
0
147
1.0
148
0.0
149
0.0
100
AcDbLayout
  1
Layout1
 70
0
 71
1
 10
0.0
 20
0.0
 11
22.0
 21
17.0
 12
0.0
 22
0.0
 32
0.0
 14
0.0
 24
0.0
 34
0.0
 15
0.0
 25
0.0
 35
0.0
146
0.0
 13
0.0
 23
0.0
 33
0.0
 16
1.0
 26
0.0
 36
0.0
 17
0.0
 27
1.0
 37
0.0
 76
0
330
217
345
0
346
0
  0
ENDSEC
  0
EOF