999
DXF file: _cgs_temp_output.dxf
999
Pro/ENGINEER 2016360 by Parametric Technology Corporation
  0
SECTION
  2
HEADER
  9
$ACADVER
  1
AC1021
  9
$DWGCODEPAGE
  3
ANSI_1252
  9
$EXTMAX
 10
22.0
 20
17.0
 30
0.0
  9
$EXTMIN
 10
0.0
 20
0.0
 30
0.0
  9
$LIMMIN
 10
0.0
 20
0.0
  9
$LIMMAX
 10
22.0
 20
17.0
  9
$VIEWCTR
 10
11.0
 20
8.5
  9
$VIEWSIZE
 40
17.0
  9
$CLAYER
  8
0
  9
$LTSCALE
 40
1.21
  9
$CELTYPE
  6
BYLAYER
  9
$DIMSCALE
 40
1.0
  9
$DIMASZ
 40
0.1875
  9
$DIMEXO
 40
0.0625
  9
$DIMDLI
 40
0.836
  9
$DIMEXE
 40
0.125
  9
$DIMCEN
 40
0.198
  9
$DIMLFAC
 40
1.0
  9
$DIMBLK
  1
_CLOSED
  9
$DIMALT
 70
0
  9
$DIMALTF
 40
25.4
  9
$DIMTXT
 40
0.15625
  9
$DIMTOL
 70
0
  9
$DIMLIM
 70
0
  9
$DIMTFAC
 40
1.0
  9
$DIMGAP
 40
0.09
  9
$DIMDSEP
 70
46
  9
$AUNITS
 70
0
  9
$PDMODE
 70
3
  9
$PDSIZE
 40
0.3125
  9
$HANDSEED
  5
301
  9
$TILEMODE
 70
1
  9
$MEASUREMENT
 70
0
  9
$INSUNITS
 70
1
  0
ENDSEC
  0
SECTION
  2
CLASSES
  0
CLASS
  1
ACDBDICTIONARYWDFLT
  2
AcDbDictionaryWithDefault
  3
AutoCAD 2000
 90
0
 91
1
280
0
281
0
  0
CLASS
  1
ACDBPLACEHOLDER
  2
AcDbPlaceHolder
  3
AutoCAD 2000
 90
0
 91
1
280
0
281
0
  0
CLASS
  1
LAYOUT
  2
AcDbLayout
  3
AutoCAD 2000
 90
0
 91
0
280
0
281
0
  0
ENDSEC
  0
SECTION
  2
TABLES
  0
TABLE
  2
VPORT
  5
8
100
AcDbSymbolTable
 70
2
  0
VPORT
  5
1F4
100
AcDbSymbolTableRecord
100
AcDbViewportTableRecord
  2
*ACTIVE
 70
0
 10
0.0
 20
0.0
 11
1.0
 21
1.0
 12
11.0
 22
8.5
 13
0.0
 23
0.0
 14
1.0
 24
1.0
 15
0.0
 25
0.0
 16
0.0
 26
0.0
 36
1.0
 17
0.0
 27
0.0
 37
0.0
 40
17.0
 41
1.2941176471
 42
50.0
 43
0.0
 44
0.0
 50
0.0
 51
0.0
 71
0
 72
100
 73
1
 74
1
 75
0
 76
0
 77
0
 78
0
  0
ENDTAB
  0
TABLE
  2
LTYPE
  5
5
100
AcDbSymbolTable
 70
6
  0
LTYPE
  5
14
100
AcDbSymbolTableRecord
100
AcDbLinetypeTableRecord
  2
BYBLOCK
 70
0
  3

 72
65
 73
0
 40
0.0
  0
LTYPE
  5
15
100
AcDbSymbolTableRecord
100
AcDbLinetypeTableRecord
  2
BYLAYER
 70
0
  3

 72
65
 73
0
 40
0.0
  0
LTYPE
  5
16
100
AcDbSymbolTableRecord
100
AcDbLinetypeTableRecord
  2
CONTINUOUS
 70
64
  3
Solid line
 72
65
 73
0
 40
0.0
  0
LTYPE
  5
1F5
100
AcDbSymbolTableRecord
100
AcDbLinetypeTableRecord
  2
CENTER
 70
64
  3
____ _ ____ _ ____ _ ____ _ ____ _ ____ _ ____
 72
65
 73
4
 40
0.6
 49
0.375
 74
0
 49
-0.075
 74
0
 49
0.075
 74
0
 49
-0.075
 74
0
  0
LTYPE
  5
1F6
100
AcDbSymbolTableRecord
100
AcDbLinetypeTableRecord
  2
HIDDEN
 70
64
  3
- - - - - - - - - - - - - - - - - - - -
 72
65
 73
2
 40
0.2
 49
0.1
 74
0
 49
-0.1
 74
0
  0
LTYPE
  5
1F7
100
AcDbSymbolTableRecord
100
AcDbLinetypeTableRecord
  2
PHANTOM
 70
64
  3
_____ _ _ _____ _ _ _____ _ _ _____
 72
65
 73
6
 40
0.8
 49
0.45
 74
0
 49
-0.05
 74
0
 49
0.1
 74
0
 49
-0.05
 74
0
 49
0.1
 74
0
 49
-0.05
 74
0
  0
LTYPE
  5
1F8
100
AcDbSymbolTableRecord
100
AcDbLinetypeTableRecord
  2
DOT
 70
64
  3
. . . . . . . . . . . . . . . . . . . .
 72
65
 73
2
 40
0.2
 49
0.1
 74
0
 49
-0.1
 74
0
  0
LTYPE
  5
1F9
100
AcDbSymbolTableRecord
100
AcDbLinetypeTableRecord
  2
DASHED
 70
64
  3
- - - - - - - - - - - - - - - - - - - -
 72
65
 73
2
 40
0.2
 49
0.1
 74
0
 49
-0.1
 74
0
  0
ENDTAB
  0
TABLE
  2
LAYER
  5
2
100
AcDbSymbolTable
 70
36
  0
LAYER
  5
10
100
AcDbSymbolTableRecord
100
AcDbLayerTableRecord
  2
0
 70
0
 62
7
  6
CONTINUOUS
370
-3
390
F
  0
LAYER
  5
1FA
100
AcDbSymbolTableRecord
100
AcDbLayerTableRecord
  2
DEFAULT_1
 70
0
 62
7
  6
CENTER
370
-3
390
F
  0
LAYER
  5
1FB
100
AcDbSymbolTableRecord
100
AcDbLayerTableRecord
  2
DEFAULT_2
 70
0
 62
8
  6
HIDDEN
370
-3
390
F
  0
LAYER
  5
1FC
100
AcDbSymbolTableRecord
100
AcDbLayerTableRecord
  2
DEFAULT_3
 70
0
 62
7
  6
PHANTOM
370
-3
390
F
  0
LAYER
  5
1FD
100
AcDbSymbolTableRecord
100
AcDbLayerTableRecord
  2
01_ALL_DTM_PLN
 70
0
 62
7
  6
CONTINUOUS
370
-3
390
F
  0
LAYER
  5
1FE
100
AcDbSymbolTableRecord
100
AcDbLayerTableRecord
  2
01__ASM_ALL_DTM_PLN
 70
0
 62
7
  6
CONTINUOUS
370
-3
390
F
  0
LAYER
  5
1FF
100
AcDbSymbolTableRecord
100
AcDbLayerTableRecord
  2
01__ASM_DEF_DTM_PLN
 70
0
 62
7
  6
CONTINUOUS
370
-3
390
F
  0
LAYER
  5
200
100
AcDbSymbolTableRecord
100
AcDbLayerTableRecord
  2
01___PRT_ALL_DTM_PLN
 70
0
 62
7
  6
CONTINUOUS
370
-3
390
F
  0
LAYER
  5
201
100
AcDbSymbolTableRecord
100
AcDbLayerTableRecord
  2
01___PRT_DEF_DTM_PLN
 70
0
 62
7
  6
CONTINUOUS
370
-3
390
F
  0
LAYER
  5
202
100
AcDbSymbolTableRecord
100
AcDbLayerTableRecord
  2
02_ALL_AXES
 70
0
 62
7
  6
CONTINUOUS
370
-3
390
F
  0
LAYER
  5
203
100
AcDbSymbolTableRecord
100
AcDbLayerTableRecord
  2
02__ASM_ALL_AXES
 70
0
 62
7
  6
CONTINUOUS
370
-3
390
F
  0
LAYER
  5
204
100
AcDbSymbolTableRecord
100
AcDbLayerTableRecord
  2
02___PRT_ALL_AXES
 70
0
 62
7
  6
CONTINUOUS
370
-3
390
F
  0
LAYER
  5
205
100
AcDbSymbolTableRecord
100
AcDbLayerTableRecord
  2
03_ALL_CURVES
 70
0
 62
7
  6
CONTINUOUS
370
-3
390
F
  0
LAYER
  5
206
100
AcDbSymbolTableRecord
100
AcDbLayerTableRecord
  2
03__ASM_ALL_CURVES
 70
0
 62
7
  6
CONTINUOUS
370
-3
390
F
  0
LAYER
  5
207
100
AcDbSymbolTableRecord
100
AcDbLayerTableRecord
  2
03___PRT_ALL_CURVES
 70
0
 62
7
  6
CONTINUOUS
370
-3
390
F
  0
LAYER
  5
208
100
AcDbSymbolTableRecord
100
AcDbLayerTableRecord
  2
04_ALL_DTM_PNT
 70
0
 62
7
  6
CONTINUOUS
370
-3
390
F
  0
LAYER
  5
209
100
AcDbSymbolTableRecord
100
AcDbLayerTableRecord
  2
04__ASM_ALL_DTM_PNT
 70
0
 62
7
  6
CONTINUOUS
370
-3
390
F
  0
LAYER
  5
20A
100
AcDbSymbolTableRecord
100
AcDbLayerTableRecord
  2
04___PRT_ALL_DTM_PNT
 70
0
 62
7
  6
CONTINUOUS
370
-3
390
F
  0
LAYER
  5
20B
100
AcDbSymbolTableRecord
100
AcDbLayerTableRecord
  2
05_ALL_DTM_CSYS
 70
0
 62
7
  6
CONTINUOUS
370
-3
390
F
  0
LAYER
  5
20C
100
AcDbSymbolTableRecord
100
AcDbLayerTableRecord
  2
05__ASM_ALL_DTM_CSYS
 70
0
 62
7
  6
CONTINUOUS
370
-3
390
F
  0
LAYER
  5
20D
100
AcDbSymbolTableRecord
100
AcDbLayerTableRecord
  2
05__ASM_DEF_DTM_CSYS
 70
0
 62
7
  6
CONTINUOUS
370
-3
390
F
  0
LAYER
  5
20E
100
AcDbSymbolTableRecord
100
AcDbLayerTableRecord
  2
05___PRT_ALL_DTM_CSYS
 70
0
 62
7
  6
CONTINUOUS
370
-3
390
F
  0
LAYER
  5
20F
100
AcDbSymbolTableRecord
100
AcDbLayerTableRecord
  2
05___PRT_DEF_DTM_CSYS
 70
0
 62
7
  6
CONTINUOUS
370
-3
390
F
  0
LAYER
  5
210
100
AcDbSymbolTableRecord
100
AcDbLayerTableRecord
  2
06_ALL_SURFS
 70
0
 62
7
  6
CONTINUOUS
370
-3
390
F
  0
LAYER
  5
211
100
AcDbSymbolTableRecord
100
AcDbLayerTableRecord
  2
06__ASM_ALL_SURFS
 70
0
 62
7
  6
CONTINUOUS
370
-3
390
F
  0
LAYER
  5
212
100
AcDbSymbolTableRecord
100
AcDbLayerTableRecord
  2
06___PRT_ALL_SURFS
 70
0
 62
7
  6
CONTINUOUS
370
-3
390
F
  0
LAYER
  5
213
100
AcDbSymbolTableRecord
100
AcDbLayerTableRecord
  2
07__ASM_ALL_SKELETONS
 70
0
 62
7
  6
CONTINUOUS
370
-3
390
F
  0
ENDTAB
  0
TABLE
  2
STYLE
  5
3
100
AcDbSymbolTable
 70
1
  0
STYLE
  5
11
100
AcDbSymbolTableRecord
100
AcDbTextStyleTableRecord
  2
STANDARD
 70
0
 40
0.0
 41
0.8
 50
0.0
 71
0
 42
0.2
  3
txt
  4

  0
STYLE
  5
214
100
AcDbSymbolTableRecord
100
AcDbTextStyleTableRecord
  2
TEXTSTYLE_1
 70
0
 40
0.0
 41
0.8
 50
0.0
 71
0
 42
0.2
  3
gdt
  4

  0
ENDTAB
  0
TABLE
  2
VIEW
  5
6
100
AcDbSymbolTable
 70
0
  0
ENDTAB
  0
TABLE
  2
UCS
  5
7
100
AcDbSymbolTable
 70
0
  0
ENDTAB
  0
TABLE
  2
APPID
  5
9
100
AcDbSymbolTable
 70
1
  0
APPID
  5
215
100
AcDbSymbolTableRecord
100
AcDbRegAppTableRecord
  2
ACAD
 70
0
  0
ENDTAB
  0
TABLE
  2
BLOCK_RECORD
  5
1
100
AcDbSymbolTable
 70
0
  0
BLOCK_RECORD
  5
216
100
AcDbSymbolTableRecord
100
AcDbBlockTableRecord
  2
*Model_Space
  0
BLOCK_RECORD
  5
217
100
AcDbSymbolTableRecord
100
AcDbBlockTableRecord
  2
*Paper_Space
  0
ENDTAB
  0
TABLE
  2
DIMSTYLE
  5
A
100
AcDbSymbolTable
 70
1
100
AcDbDimStyleTable
 71
0
  0
DIMSTYLE
105
218
100
AcDbSymbolTableRecord
100
AcDbDimStyleTableRecord
  2
STANDARD
 70
0
  3

  4

 40
1.0
 41
0.1875
 42
0.0625
 43
0.38
 44
0.125
 45
0.0
 46
0.0
 47
0.0001
 48
0.0001
140
0.15625
141
0.09
142
0.0
143
25.4
144
1.0
145
0.0
146
1.0
147
0.09
 71
0.0
 72
0.0
 73
1
 74
1
 75
0
 76
0
 77
0
 78
4
 79
1
170
0
171
3
172
0
173
0
174
0
175
0
176
0
177
0
178
0
270
2
179
4
271
4
272
4
273
2
274
2
275
0
280
0
281
0
282
0
283
1
284
4
285
0
286
0
287
3
288
0
340
11
278
46
  0
ENDTAB
  0
ENDSEC
  0
SECTION
  2
BLOCKS
  0
BLOCK
  5
20
100
AcDbEntity
  8
0
100
AcDbBlockBegin
  2
*Model_Space
 70
0
 10
0.0
 20
0.0
 30
0.0
  3
*Model_Space
  1

  0
ENDBLK
  5
21
100
AcDbEntity
  8
0
100
AcDbBlockEnd
  0
BLOCK
  5
1C
100
AcDbEntity
  8
0
100
AcDbBlockBegin
  2
*Paper_Space
 70
0
 10
0.0
 20
0.0
 30
0.0
  3
*Paper_Space
  1

  0
ENDBLK
  5
1D
100
AcDbEntity
  8
0
100
AcDbBlockEnd
  0
ENDSEC
  0
SECTION
  2
ENTITIES
  0
MTEXT
  5
219
100
AcDbEntity
  8
0
100
AcDbMText
 62
7
  6
CONTINUOUS
  7
STANDARD
 71
1
 72
1
 10
15.9560215477
 20
0.9479130325
 30
0.0
 11
1.0
 21
0.0
 31
0.0
 44
0.9
  1
SCALE: 1:1.000
 40
0.3
 41
3.36
  0
LINE
  5
21A
100
AcDbEntity
  8
0
100
AcDbLine
 62
7
  6
CONTINUOUS
 10
0.0
 20
0.0
 11
0.0
 21
17.0
  0
LINE
  5
21B
100
AcDbEntity
  8
0
100
AcDbLine
 62
7
  6
CONTINUOUS
 10
0.0
 20
0.0
 11
22.0
 21
0.0
  0
LINE
  5
21C
100
AcDbEntity
  8
0
100
AcDbLine
 62
7
  6
CONTINUOUS
 10
0.0
 20
17.0
 11
22.0
 21
17.0
  0
LINE
  5
21D
100
AcDbEntity
  8
0
100
AcDbLine
 62
7
  6
CONTINUOUS
 10
22.0
 20
0.0
 11
22.0
 21
17.0
  0
LINE
  5
21E
100
AcDbEntity
  8
0
100
AcDbLine
 62
7
  6
CONTINUOUS
 10
5.3491172762
 20
5.8131198968
 11
5.3491172762
 21
5.6922851465
  0
LINE
  5
21F
100
AcDbEntity
  8
0
100
AcDbLine
 62
7
  6
CONTINUOUS
 10
5.47196407
 20
5.2206494206
 11
5.3525246935
 21
5.666403242
  0
LINE
  5
220
100
AcDbEntity
  8
0
100
AcDbLine
 62
7
  6
CONTINUOUS
 10
5.4961122157
 20
5.2021198968
 11
6.7646223367
 21
5.2021198968
  0
LINE
  5
221
100
AcDbEntity
  8
0
100
AcDbLine
 62
7
  6
CONTINUOUS
 10
5.4393069869
 20
5.4141198968
 11
6.8214275655
 21
5.4141198968
  0
LINE
  5
222
100
AcDbEntity
  8
0
100
AcDbLine
 62
7
  6
CONTINUOUS
 10
6.8866172762
 20
5.8381198968
 11
5.3741172762
 21
5.8381198968
  0
LINE
  5
223
100
AcDbEntity
  8
0
100
AcDbLine
 62
7
  6
CONTINUOUS
 10
6.7887704823
 20
5.2206494206
 11
6.9082098588
 21
5.666403242
  0
LINE
  5
224
100
AcDbEntity
  8
0
100
AcDbLine
 62
7
  6
CONTINUOUS
 10
6.9116172762
 20
5.6922851465
 11
6.9116172762
 21
5.8131198968
  0
LINE
  5
225
100
AcDbEntity
  8
0
100
AcDbLine
 62
7
  6
CONTINUOUS
 10
6.8521220839
 20
10.6000477814
 11
5.2896220839
 21
10.6000477814
  0
LINE
  5
226
100
AcDbEntity
  8
0
100
AcDbLine
 62
7
  6
CONTINUOUS
 10
5.2896220839
 20
10.6000477814
 11
5.2896220839
 21
14.6000477814
  0
LINE
  5
227
100
AcDbEntity
  8
0
100
AcDbLine
 62
7
  6
CONTINUOUS
 10
6.8521220839
 20
10.6000477814
 11
6.8521220839
 21
14.6000477814
  0
LINE
  5
228
100
AcDbEntity
  8
0
100
AcDbLine
 62
7
  6
CONTINUOUS
 10
5.2896220839
 20
14.6000477814
 11
6.8521220839
 21
14.6000477814
  0
LINE
  5
229
100
AcDbEntity
  8
0
100
AcDbLine
 62
7
  6
CONTINUOUS
 10
13.5603552569
 20
5.3546247044
 11
13.5603552569
 21
5.7786247044
  0
LINE
  5
22A
100
AcDbEntity
  8
0
100
AcDbLine
 62
7
  6
CONTINUOUS
 10
13.6703667385
 20
5.3135471103
 11
13.7003437753
 21
5.1837022986
  0
LINE
  5
22B
100
AcDbEntity
  8
0
100
AcDbLine
 62
7
  6
CONTINUOUS
 10
13.9203667385
 20
5.1837022986
 11
13.9503437753
 21
5.3135471103
  0
LINE
  5
22C
100
AcDbEntity
  8
0
100
AcDbLine
 62
7
  6
CONTINUOUS
 10
14.1703667385
 20
5.3135471103
 11
14.2003437753
 21
5.1837022986
  0
LINE
  5
22D
100
AcDbEntity
  8
0
100
AcDbLine
 62
7
  6
CONTINUOUS
 10
14.4203667385
 20
5.1837022986
 11
14.4503437753
 21
5.3135471103
  0
LINE
  5
22E
100
AcDbEntity
  8
0
100
AcDbLine
 62
7
  6
CONTINUOUS
 10
14.6703667385
 20
5.3135471103
 11
14.7003437753
 21
5.1837022986
  0
LINE
  5
22F
100
AcDbEntity
  8
0
100
AcDbLine
 62
7
  6
CONTINUOUS
 10
14.9203667385
 20
5.1837022986
 11
14.9503437753
 21
5.3135471103
  0
LINE
  5
230
100
AcDbEntity
  8
0
100
AcDbLine
 62
7
  6
CONTINUOUS
 10
15.1703667385
 20
5.3135471103
 11
15.2003437753
 21
5.1837022986
  0
LINE
  5
231
100
AcDbEntity
  8
0
100
AcDbLine
 62
7
  6
CONTINUOUS
 10
13.7519853888
 20
5.1426247044
 11
13.8687251251
 21
5.1426247044
  0
LINE
  5
232
100
AcDbEntity
  8
0
100
AcDbLine
 62
7
  6
CONTINUOUS
 10
14.2519853888
 20
5.1426247044
 11
14.3687251251
 21
5.1426247044
  0
LINE
  5
233
100
AcDbEntity
  8
0
100
AcDbLine
 62
7
  6
CONTINUOUS
 10
14.7519853888
 20
5.1426247044
 11
14.8687251251
 21
5.1426247044
  0
LINE
  5
234
100
AcDbEntity
  8
0
100
AcDbLine
 62
7
  6
CONTINUOUS
 10
15.2519853888
 20
5.1426247044
 11
15.3687251251
 21
5.1426247044
  0
LINE
  5
235
100
AcDbEntity
  8
0
100
AcDbLine
 62
7
  6
CONTINUOUS
 10
15.7519853888
 20
5.1426247044
 11
15.8687251251
 21
5.1426247044
  0
LINE
  5
236
100
AcDbEntity
  8
0
100
AcDbLine
 62
7
  6
CONTINUOUS
 10
16.2519853888
 20
5.1426247044
 11
16.3687251251
 21
5.1426247044
  0
LINE
  5
237
100
AcDbEntity
  8
0
100
AcDbLine
 62
7
  6
CONTINUOUS
 10
16.7519853888
 20
5.1426247044
 11
16.8687251251
 21
5.1426247044
  0
LINE
  5
238
100
AcDbEntity
  8
0
100
AcDbLine
 62
7
  6
CONTINUOUS
 10
17.2519853888
 20
5.1426247044
 11
17.3687251251
 21
5.1426247044
  0
LINE
  5
239
100
AcDbEntity
  8
0
100
AcDbLine
 62
7
  6
CONTINUOUS
 10
15.4203667385
 20
5.1837022986
 11
15.4503437753
 21
5.3135471103
  0
LINE
  5
23A
100
AcDbEntity
  8
0
100
AcDbLine
 62
7
  6
CONTINUOUS
 10
13.5603552569
 20
5.3546247044
 11
13.6187251251
 21
5.3546247044
  0
LINE
  5
23B
100
AcDbEntity
  8
0
100
AcDbLine
 62
7
  6
CONTINUOUS
 10
14.0019853888
 20
5.3546247044
 11
14.1187251251
 21
5.3546247044
  0
LINE
  5
23C
100
AcDbEntity
  8
0
100
AcDbLine
 62
7
  6
CONTINUOUS
 10
14.5019853888
 20
5.3546247044
 11
14.6187251251
 21
5.3546247044
  0
LINE
  5
23D
100
AcDbEntity
  8
0
100
AcDbLine
 62
7
  6
CONTINUOUS
 10
15.0019853888
 20
5.3546247044
 11
15.1187251251
 21
5.3546247044
  0
LINE
  5
23E
100
AcDbEntity
  8
0
100
AcDbLine
 62
7
  6
CONTINUOUS
 10
15.5019853888
 20
5.3546247044
 11
15.6187251251
 21
5.3546247044
  0
LINE
  5
23F
100
AcDbEntity
  8
0
100
AcDbLine
 62
7
  6
CONTINUOUS
 10
16.0019853888
 20
5.3546247044
 11
16.1187251251
 21
5.3546247044
  0
LINE
  5
240
100
AcDbEntity
  8
0
100
AcDbLine
 62
7
  6
CONTINUOUS
 10
16.5019853888
 20
5.3546247044
 11
16.6187251251
 21
5.3546247044
  0
LINE
  5
241
100
AcDbEntity
  8
0
100
AcDbLine
 62
7
  6
CONTINUOUS
 10
17.0019853888
 20
5.3546247044
 11
17.1187251251
 21
5.3546247044
  0
LINE
  5
242
100
AcDbEntity
  8
0
100
AcDbLine
 62
7
  6
CONTINUOUS
 10
17.5019853888
 20
5.3546247044
 11
17.5603552569
 21
5.3546247044
  0
LINE
  5
243
100
AcDbEntity
  8
0
100
AcDbLine
 62
7
  6
CONTINUOUS
 10
15.6703667385
 20
5.3135471103
 11
15.7003437753
 21
5.1837022986
  0
LINE
  5
244
100
AcDbEntity
  8
0
100
AcDbLine
 62
7
  6
CONTINUOUS
 10
15.9203667385
 20
5.1837022986
 11
15.9503437753
 21
5.3135471103
  0
LINE
  5
245
100
AcDbEntity
  8
0
100
AcDbLine
 62
7
  6
CONTINUOUS
 10
13.5603552569
 20
5.7786247044
 11
17.5603552569
 21
5.7786247044
  0
LINE
  5
246
100
AcDbEntity
  8
0
100
AcDbLine
 62
7
  6
CONTINUOUS
 10
16.1703667385
 20
5.3135471103
 11
16.2003437753
 21
5.1837022986
  0
LINE
  5
247
100
AcDbEntity
  8
0
100
AcDbLine
 62
7
  6
CONTINUOUS
 10
16.4203667385
 20
5.1837022986
 11
16.4503437753
 21
5.3135471103
  0
LINE
  5
248
100
AcDbEntity
  8
0
100
AcDbLine
 62
7
  6
CONTINUOUS
 10
16.6703667385
 20
5.3135471103
 11
16.7003437753
 21
5.1837022986
  0
LINE
  5
249
100
AcDbEntity
  8
0
100
AcDbLine
 62
7
  6
CONTINUOUS
 10
16.9203667385
 20
5.1837022986
 11
16.9503437753
 21
5.3135471103
  0
LINE
  5
24A
100
AcDbEntity
  8
0
100
AcDbLine
 62
7
  6
CONTINUOUS
 10
17.1703667385
 20
5.3135471103
 11
17.2003437753
 21
5.1837022986
  0
LINE
  5
24B
100
AcDbEntity
  8
0
100
AcDbLine
 62
7
  6
CONTINUOUS
 10
17.5603552569
 20
5.3546247044
 11
17.5603552569
 21
5.7786247044
  0
LINE
  5
24C
100
AcDbEntity
  8
0
100
AcDbLine
 62
7
  6
CONTINUOUS
 10
17.4203667385
 20
5.1837022986
 11
17.4503437753
 21
5.3135471103
  0
LINE
  5
24D
100
AcDbEntity
  8
0
100
AcDbLine
 62
7
  6
CONTINUOUS
 10
14.5810345137
 20
10.8132082599
 11
14.5871840692
 21
10.8115785442
  0
LINE
  5
24E
100
AcDbEntity
  8
0
100
AcDbLine
 62
7
  6
CONTINUOUS
 10
14.2882933013
 20
10.9700301021
 11
14.4172878736
 21
10.8247263966
  0
LWPOLYLINE
  5
24F
100
AcDbEntity
  8
0
100
AcDbPolyline
 62
7
  6
CONTINUOUS
 90
5
 70
0
 10
15.7633820929
 20
10.8114813688
 10
15.7722945306
 20
10.8130454459
 10
15.7799539767
 20
10.8173339123
 10
15.7855534283
 20
10.8232083868
 10
15.7892853511
 20
10.8295043231
  0
LINE
  5
250
100
AcDbEntity
  8
0
100
AcDbLine
 62
7
  6
CONTINUOUS
 10
14.5897767721
 20
10.8114813139
 11
15.7633820939
 21
10.8114813139
  0
LINE
  5
251
100
AcDbEntity
  8
0
100
AcDbLine
 62
7
  6
CONTINUOUS
 10
14.4451820692
 20
10.8132082599
 11
15.7181994231
 21
10.8132082599
  0
LINE
  5
252
100
AcDbEntity
  8
0
100
AcDbLine
 62
7
  6
CONTINUOUS
 10
14.5871840692
 20
10.8115785442
 11
14.5898179253
 21
10.8114814291
  0
LINE
  5
253
100
AcDbEntity
  8
0
100
AcDbLine
 62
7
  6
CONTINUOUS
 10
14.2404001398
 20
11.0612306372
 11
14.2772597976
 21
10.986118552
  0
LINE
  5
254
100
AcDbEntity
  8
0
100
AcDbLine
 62
7
  6
CONTINUOUS
 10
15.6489053714
 20
11.0767708865
 11
14.255800618
 21
11.0767708865
  0
LWPOLYLINE
  5
255
100
AcDbEntity
  8
0
100
AcDbPolyline
 62
7
  6
CONTINUOUS
 90
5
 70
0
 10
15.8844152546
 20
11.2031448236
 10
15.8933276923
 20
11.2047089007
 10
15.9009871384
 20
11.2089973671
 10
15.90658659
 20
11.2148718416
 10
15.9103185128
 20
11.221167778
  0
LINE
  5
256
100
AcDbEntity
  8
0
100
AcDbLine
 62
7
  6
CONTINUOUS
 10
15.8524370508
 20
11.2031447687
 11
15.8844152556
 21
11.2031447687
  0
LWPOLYLINE
  5
257
100
AcDbEntity
  8
0
100
AcDbPolyline
 62
7
  6
CONTINUOUS
 90
5
 70
0
 10
16.0054484163
 20
11.5948082784
 10
16.014360854
 20
11.5963723555
 10
16.0220203001
 20
11.6006608219
 10
16.0276197517
 20
11.6065352964
 10
16.0313516746
 20
11.6128312328
  0
LINE
  5
258
100
AcDbEntity
  8
0
100
AcDbLine
 62
7
  6
CONTINUOUS
 10
15.9734702126
 20
11.5948082235
 11
16.0054484173
 21
11.5948082235
  0
LINE
  5
259
100
AcDbEntity
  8
0
100
AcDbLine
 62
7
  6
CONTINUOUS
 10
14.2395411435
 20
11.0686118215
 11
15.2078064372
 21
14.20191946
  0
LWPOLYLINE
  5
25A
100
AcDbEntity
  8
0
100
AcDbPolyline
 62
7
  6
CONTINUOUS
 90
5
 70
0
 10
16.126481578
 20
11.9864717333
 10
16.1353940157
 20
11.9880358103
 10
16.1430534618
 20
11.9923242767
 10
16.1486529134
 20
11.9981987512
 10
16.1523848363
 20
12.0044946876
  0
LINE
  5
25B
100
AcDbEntity
  8
0
100
AcDbLine
 62
7
  6
CONTINUOUS
 10
16.0945033743
 20
11.9864716784
 11
16.126481579
 21
11.9864716784
  0
LINE
  5
25C
100
AcDbEntity
  8
0
100
AcDbLine
 62
7
  6
CONTINUOUS
 10
15.7164176007
 20
10.986118552
 11
15.6795579429
 21
11.0612306372
  0
LWPOLYLINE
  5
25D
100
AcDbEntity
  8
0
100
AcDbPolyline
 62
7
  6
CONTINUOUS
 90
5
 70
0
 10
16.2475147397
 20
12.3781351881
 10
16.2564271774
 20
12.3796992651
 10
16.2640866235
 20
12.3839877315
 10
16.2696860751
 20
12.389862206
 10
16.273417998
 20
12.3961581424
  0
LINE
  5
25E
100
AcDbEntity
  8
0
100
AcDbLine
 62
7
  6
CONTINUOUS
 10
16.215536536
 20
12.3781351332
 11
16.2475147407
 21
12.3781351332
  0
LINE
  5
25F
100
AcDbEntity
  8
0
100
AcDbLine
 62
7
  6
CONTINUOUS
 10
15.7347890576
 20
10.8247263966
 11
15.7211742259
 21
10.9700301021
  0
LWPOLYLINE
  5
260
100
AcDbEntity
  8
0
100
AcDbPolyline
 62
7
  6
CONTINUOUS
 90
5
 70
0
 10
16.3685479014
 20
12.7697986429
 10
16.3774603391
 20
12.7713627199
 10
16.3851197852
 20
12.7756511863
 10
16.3907192369
 20
12.7815256609
 10
16.3944511597
 20
12.7878215972
  0
LINE
  5
261
100
AcDbEntity
  8
0
100
AcDbLine
 62
7
  6
CONTINUOUS
 10
16.3365696977
 20
12.769798588
 11
16.3685479024
 21
12.769798588
  0
LINE
  5
262
100
AcDbEntity
  8
0
100
AcDbLine
 62
7
  6
CONTINUOUS
 10
15.8279071834
 20
10.9734558979
 11
15.8276008921
 21
11.0776505464
  0
LWPOLYLINE
  5
263
100
AcDbEntity
  8
0
100
AcDbPolyline
 62
7
  6
CONTINUOUS
 90
7
 70
0
 10
15.8276003465
 20
11.07767409
 10
15.8277674344
 20
11.0861140374
 10
15.8290105392
 20
11.1033874582
 10
15.8314576194
 20
11.1225559868
 10
15.8348922644
 20
11.1416546102
 10
15.8389156992
 20
11.1587725079
 10
15.8413576867
 20
11.1672956962
  0
LINE
  5
264
100
AcDbEntity
  8
0
100
AcDbLine
 62
7
  6
CONTINUOUS
 10
15.8276077955
 20
10.9651207996
 11
15.8279068703
 21
10.9735119047
  0
LINE
  5
265
100
AcDbEntity
  8
0
100
AcDbLine
 62
7
  6
CONTINUOUS
 10
15.7344559423
 20
10.821368234
 11
15.7347890576
 21
10.8247263966
  0
LINE
  5
266
100
AcDbEntity
  8
0
100
AcDbLine
 62
7
  6
CONTINUOUS
 10
15.9489403451
 20
11.3651193527
 11
15.9486340538
 21
11.4693140012
  0
LWPOLYLINE
  5
267
100
AcDbEntity
  8
0
100
AcDbPolyline
 62
7
  6
CONTINUOUS
 90
7
 70
0
 10
15.9486335082
 20
11.4693375448
 10
15.9488005961
 20
11.4777774922
 10
15.9500437009
 20
11.495050913
 10
15.9524907811
 20
11.5142194416
 10
15.9559254261
 20
11.533318065
 10
15.9599488609
 20
11.5504359627
 10
15.9623908484
 20
11.558959151
  0
LINE
  5
268
100
AcDbEntity
  8
0
100
AcDbLine
 62
7
  6
CONTINUOUS
 10
15.9486409572
 20
11.3567842545
 11
15.948940032
 21
11.3651753595
  0
LWPOLYLINE
  5
269
100
AcDbEntity
  8
0
100
AcDbPolyline
 62
7
  6
CONTINUOUS
 90
5
 70
0
 10
16.4895810631
 20
13.1614620977
 10
16.4984935008
 20
13.1630261747
 10
16.5061529469
 20
13.1673146412
 10
16.5117523986
 20
13.1731891157
 10
16.5154843214
 20
13.179485052
  0
LINE
  5
26A
100
AcDbEntity
  8
0
100
AcDbLine
 62
7
  6
CONTINUOUS
 10
16.1910066685
 20
12.1484462624
 11
16.1910063572
 21
12.1485022691
  0
LINE
  5
26B
100
AcDbEntity
  8
0
100
AcDbLine
 62
7
  6
CONTINUOUS
 10
16.0699735068
 20
11.7567828075
 11
16.0696672155
 21
11.860977456
  0
LWPOLYLINE
  5
26C
100
AcDbEntity
  8
0
100
AcDbPolyline
 62
7
  6
CONTINUOUS
 90
7
 70
0
 10
16.0696666699
 20
11.8610009996
 10
16.0698337578
 20
11.869440947
 10
16.0710768626
 20
11.8867143678
 10
16.0735239428
 20
11.9058828964
 10
16.0769585878
 20
11.9249815198
 10
16.0809820226
 20
11.9420994175
 10
16.0834240101
 20
11.9506226058
  0
LINE
  5
26D
100
AcDbEntity
  8
0
100
AcDbLine
 62
7
  6
CONTINUOUS
 10
16.0696741189
 20
11.7484477093
 11
16.0699731937
 21
11.7568388143
  0
LWPOLYLINE
  5
26E
100
AcDbEntity
  8
0
100
AcDbPolyline
 62
7
  6
CONTINUOUS
 90
3
 70
0
 10
15.8233985113
 20
10.9382240452
 10
15.8260402754
 20
10.9515073953
 10
15.8276077955
 20
10.9651207996
  0
LWPOLYLINE
  5
26F
100
AcDbEntity
  8
0
100
AcDbPolyline
 62
7
  6
CONTINUOUS
 90
3
 70
0
 10
15.944431673
 20
11.3298875
 10
15.9470734371
 20
11.3431708501
 10
15.9486409572
 20
11.3567842545
  0
LINE
  5
270
100
AcDbEntity
  8
0
100
AcDbLine
 62
7
  6
CONTINUOUS
 10
16.5964971298
 20
13.6108802263
 11
16.5989687784
 21
13.6179459638
  0
LINE
  5
271
100
AcDbEntity
  8
0
100
AcDbLine
 62
7
  6
CONTINUOUS
 10
16.4754639681
 20
13.2192167715
 11
16.4779356167
 21
13.226282509
  0
LINE
  5
272
100
AcDbEntity
  8
0
100
AcDbLine
 62
7
  6
CONTINUOUS
 10
16.6365174831
 20
13.5711485068
 11
16.6393002246
 21
13.577922359
  0
LINE
  5
273
100
AcDbEntity
  8
0
100
AcDbLine
 62
7
  6
CONTINUOUS
 10
16.5154843214
 20
13.179485052
 11
16.5182670628
 21
13.1862589041
  0
LWPOLYLINE
  5
274
100
AcDbEntity
  8
0
100
AcDbPolyline
 62
7
  6
CONTINUOUS
 90
4
 70
0
 10
16.5989687784
 20
13.6179459638
 10
16.6011561052
 20
13.6231649924
 10
16.6026988395
 20
13.6261470831
 10
16.6030393364
 20
13.6266863208
  0
LWPOLYLINE
  5
275
100
AcDbEntity
  8
0
100
AcDbPolyline
 62
7
  6
CONTINUOUS
 90
4
 70
0
 10
16.4779356167
 20
13.226282509
 10
16.4801229435
 20
13.2315015376
 10
16.4816656778
 20
13.2344836283
 10
16.4820061747
 20
13.235022866
  0
LWPOLYLINE
  5
276
100
AcDbEntity
  8
0
100
AcDbPolyline
 62
7
  6
CONTINUOUS
 90
4
 70
0
 10
16.356902455
 20
12.8346190542
 10
16.3590897818
 20
12.8398380828
 10
16.3606325161
 20
12.8428201735
 10
16.360973013
 20
12.8433594112
  0
LINE
  5
277
100
AcDbEntity
  8
0
100
AcDbLine
 62
7
  6
CONTINUOUS
 10
16.4576028594
 20
13.1614620428
 11
16.4895810641
 21
13.1614620428
  0
LINE
  5
278
100
AcDbEntity
  8
0
100
AcDbLine
 62
7
  6
CONTINUOUS
 10
16.1910066685
 20
12.1484462624
 11
16.1907003772
 21
12.2526409108
  0
LINE
  5
279
100
AcDbEntity
  8
0
100
AcDbLine
 62
7
  6
CONTINUOUS
 10
16.3120398302
 20
12.5401097172
 11
16.3117335389
 21
12.6443043657
  0
LWPOLYLINE
  5
27A
100
AcDbEntity
  8
0
100
AcDbPolyline
 62
7
  6
CONTINUOUS
 90
7
 70
0
 10
16.1906998316
 20
12.2526644545
 10
16.1908669195
 20
12.2611044018
 10
16.1921100243
 20
12.2783778227
 10
16.1945571045
 20
12.2975463512
 10
16.1979917495
 20
12.3166449746
 10
16.2020151843
 20
12.3337628723
 10
16.2044571718
 20
12.3422860607
  0
LWPOLYLINE
  5
27B
100
AcDbEntity
  8
0
100
AcDbPolyline
 62
7
  6
CONTINUOUS
 90
7
 70
0
 10
16.3117329933
 20
12.6443279093
 10
16.3119000812
 20
12.6527678566
 10
16.313143186
 20
12.6700412775
 10
16.3155902662
 20
12.689209806
 10
16.3190249112
 20
12.7083084294
 10
16.323048346
 20
12.7254263271
 10
16.3254903335
 20
12.7339495155
  0
LINE
  5
27C
100
AcDbEntity
  8
0
100
AcDbLine
 62
7
  6
CONTINUOUS
 10
16.1907072806
 20
12.1401111641
 11
16.1910063554
 21
12.1485022691
  0
LINE
  5
27D
100
AcDbEntity
  8
0
100
AcDbLine
 62
7
  6
CONTINUOUS
 10
16.3117404423
 20
12.5317746189
 11
16.3120395171
 21
12.5401657239
  0
LWPOLYLINE
  5
27E
100
AcDbEntity
  8
0
100
AcDbPolyline
 62
7
  6
CONTINUOUS
 90
3
 70
0
 10
16.0654648347
 20
11.7215509548
 10
16.0681065988
 20
11.7348343049
 10
16.0696741189
 20
11.7484477093
  0
LWPOLYLINE
  5
27F
100
AcDbEntity
  8
0
100
AcDbPolyline
 62
7
  6
CONTINUOUS
 90
3
 70
0
 10
16.1864979964
 20
12.1132144096
 10
16.1891397605
 20
12.1264977598
 10
16.1907072806
 20
12.1401111641
  0
LWPOLYLINE
  5
280
100
AcDbEntity
  8
0
100
AcDbPolyline
 62
7
  6
CONTINUOUS
 90
3
 70
0
 10
16.3075311581
 20
12.5048778645
 10
16.3101729222
 20
12.5181612146
 10
16.3117404423
 20
12.5317746189
  0
LINE
  5
281
100
AcDbEntity
  8
0
100
AcDbLine
 62
7
  6
CONTINUOUS
 10
15.8214430837
 20
10.9311096767
 11
15.8233985113
 21
10.9382240452
  0
LINE
  5
282
100
AcDbEntity
  8
0
100
AcDbLine
 62
7
  6
CONTINUOUS
 10
15.9424762454
 20
11.3227731315
 11
15.944431673
 21
11.3298875
  0
LINE
  5
283
100
AcDbEntity
  8
0
100
AcDbLine
 62
7
  6
CONTINUOUS
 10
16.0635094071
 20
11.7144365864
 11
16.0654648347
 21
11.7215509548
  0
LINE
  5
284
100
AcDbEntity
  8
0
100
AcDbLine
 62
7
  6
CONTINUOUS
 10
16.1845425688
 20
12.1061000412
 11
16.1864979964
 21
12.1132144096
  0
LINE
  5
285
100
AcDbEntity
  8
0
100
AcDbLine
 62
7
  6
CONTINUOUS
 10
16.3055757305
 20
12.497763496
 11
16.3075311581
 21
12.5048778645
  0
LINE
  5
286
100
AcDbEntity
  8
0
100
AcDbLine
 62
7
  6
CONTINUOUS
 10
16.4266088922
 20
12.8894269508
 11
16.4285643198
 21
12.8965413193
  0
LINE
  5
287
100
AcDbEntity
  8
0
100
AcDbLine
 62
7
  6
CONTINUOUS
 10
16.5476420539
 20
13.2810904056
 11
16.5495974815
 21
13.2882047741
  0
LINE
  5
288
100
AcDbEntity
  8
0
100
AcDbLine
 62
7
  6
CONTINUOUS
 10
16.6686752156
 20
13.6727538604
 11
16.6706306432
 21
13.6798682289
  0
LINE
  5
289
100
AcDbEntity
  8
0
100
AcDbLine
 62
7
  6
CONTINUOUS
 10
15.7354352234
 20
10.8245267163
 11
15.7485882779
 21
10.8670900162
  0
LINE
  5
28A
100
AcDbEntity
  8
0
100
AcDbLine
 62
7
  6
CONTINUOUS
 10
15.8413626799
 20
11.1673080912
 11
15.8696214396
 21
11.258753471
  0
LINE
  5
28B
100
AcDbEntity
  8
0
100
AcDbLine
 62
7
  6
CONTINUOUS
 10
15.9623958416
 20
11.558971546
 11
15.9906546013
 21
11.6504169258
  0
LINE
  5
28C
100
AcDbEntity
  8
0
100
AcDbLine
 62
7
  6
CONTINUOUS
 10
16.0834290033
 20
11.9506350008
 11
16.111687763
 21
12.0420803806
  0
LINE
  5
28D
100
AcDbEntity
  8
0
100
AcDbLine
 62
7
  6
CONTINUOUS
 10
16.204462165
 20
12.3422984556
 11
16.2327209247
 21
12.4337438354
  0
LINE
  5
28E
100
AcDbEntity
  8
0
100
AcDbLine
 62
7
  6
CONTINUOUS
 10
16.3254953267
 20
12.7339619105
 11
16.3537540864
 21
12.8254072903
  0
LINE
  5
28F
100
AcDbEntity
  8
0
100
AcDbLine
 62
7
  6
CONTINUOUS
 10
16.4465284884
 20
13.1256253653
 11
16.4747872481
 21
13.2170707451
  0
LINE
  5
290
100
AcDbEntity
  8
0
100
AcDbLine
 62
7
  6
CONTINUOUS
 10
16.5675616501
 20
13.5172888201
 11
16.5958204098
 21
13.6087341999
  0
LINE
  5
291
100
AcDbEntity
  8
0
100
AcDbLine
 62
7
  6
CONTINUOUS
 10
16.6885948118
 20
13.9089522749
 11
16.7027241912
 21
13.9546749633
  0
LINE
  5
292
100
AcDbEntity
  8
0
100
AcDbLine
 62
7
  6
CONTINUOUS
 10
15.7931938943
 20
10.8396950505
 11
15.8214526531
 21
10.9311404275
  0
LINE
  5
293
100
AcDbEntity
  8
0
100
AcDbLine
 62
7
  6
CONTINUOUS
 10
15.914227056
 20
11.2313585053
 11
15.9424858148
 21
11.3228038823
  0
LINE
  5
294
100
AcDbEntity
  8
0
100
AcDbLine
 62
7
  6
CONTINUOUS
 10
16.0352602177
 20
11.6230219601
 11
16.0635189765
 21
11.7144673371
  0
LINE
  5
295
100
AcDbEntity
  8
0
100
AcDbLine
 62
7
  6
CONTINUOUS
 10
16.1562933794
 20
12.014685415
 11
16.1845521382
 21
12.1061307919
  0
LINE
  5
296
100
AcDbEntity
  8
0
100
AcDbLine
 62
7
  6
CONTINUOUS
 10
16.2773265411
 20
12.4063488698
 11
16.3055852999
 21
12.4977942467
  0
LINE
  5
297
100
AcDbEntity
  8
0
100
AcDbLine
 62
7
  6
CONTINUOUS
 10
16.3983597028
 20
12.7980123246
 11
16.4266184616
 21
12.8894577015
  0
LINE
  5
298
100
AcDbEntity
  8
0
100
AcDbLine
 62
7
  6
CONTINUOUS
 10
16.5193928645
 20
13.1896757794
 11
16.5476516233
 21
13.2811211563
  0
LINE
  5
299
100
AcDbEntity
  8
0
100
AcDbLine
 62
7
  6
CONTINUOUS
 10
16.6404260262
 20
13.5813392342
 11
16.668684785
 21
13.6727846112
  0
LINE
  5
29A
100
AcDbEntity
  8
0
100
AcDbLine
 62
7
  6
CONTINUOUS
 10
16.5958193672
 20
13.6087341293
 11
16.5964971298
 21
13.6108802263
  0
LINE
  5
29B
100
AcDbEntity
  8
0
100
AcDbLine
 62
7
  6
CONTINUOUS
 10
16.4747862055
 20
13.2170706745
 11
16.4754639681
 21
13.2192167715
  0
LINE
  5
29C
100
AcDbEntity
  8
0
100
AcDbLine
 62
7
  6
CONTINUOUS
 10
16.3537530438
 20
12.8254072197
 11
16.3544308064
 21
12.8275533166
  0
LINE
  5
29D
100
AcDbEntity
  8
0
100
AcDbLine
 62
7
  6
CONTINUOUS
 10
16.2327198821
 20
12.4337437649
 11
16.2333976447
 21
12.4358898618
  0
LINE
  5
29E
100
AcDbEntity
  8
0
100
AcDbLine
 62
7
  6
CONTINUOUS
 10
16.1116867203
 20
12.0420803101
 11
16.112364483
 21
12.044226407
  0
LINE
  5
29F
100
AcDbEntity
  8
0
100
AcDbLine
 62
7
  6
CONTINUOUS
 10
15.9906535586
 20
11.6504168553
 11
15.9913313213
 21
11.6525629522
  0
LINE
  5
2A0
100
AcDbEntity
  8
0
100
AcDbLine
 62
7
  6
CONTINUOUS
 10
15.8696203969
 20
11.2587534004
 11
15.8702981596
 21
11.2608994974
  0
LINE
  5
2A1
100
AcDbEntity
  8
0
100
AcDbLine
 62
7
  6
CONTINUOUS
 10
15.7485872352
 20
10.8670899456
 11
15.7492649979
 21
10.8692360426
  0
LINE
  5
2A2
100
AcDbEntity
  8
0
100
AcDbLine
 62
7
  6
CONTINUOUS
 10
16.6393002246
 20
13.577922359
 11
16.6404325095
 21
13.5813603232
  0
LINE
  5
2A3
100
AcDbEntity
  8
0
100
AcDbLine
 62
7
  6
CONTINUOUS
 10
16.5182670628
 20
13.1862589041
 11
16.5193993478
 21
13.1896968684
  0
LINE
  5
2A4
100
AcDbEntity
  8
0
100
AcDbLine
 62
7
  6
CONTINUOUS
 10
16.3972339011
 20
12.7945954493
 11
16.3983661861
 21
12.7980334136
  0
LINE
  5
2A5
100
AcDbEntity
  8
0
100
AcDbLine
 62
7
  6
CONTINUOUS
 10
16.2762007394
 20
12.4029319945
 11
16.2773330244
 21
12.4063699588
  0
LINE
  5
2A6
100
AcDbEntity
  8
0
100
AcDbLine
 62
7
  6
CONTINUOUS
 10
16.1551675777
 20
12.0112685397
 11
16.1562998627
 21
12.014706504
  0
LINE
  5
2A7
100
AcDbEntity
  8
0
100
AcDbLine
 62
7
  6
CONTINUOUS
 10
16.034134416
 20
11.6196050849
 11
16.035266701
 21
11.6230430492
  0
LINE
  5
2A8
100
AcDbEntity
  8
0
100
AcDbLine
 62
7
  6
CONTINUOUS
 10
15.9131012543
 20
11.2279416301
 11
15.9142335393
 21
11.2313795944
  0
LINE
  5
2A9
100
AcDbEntity
  8
0
100
AcDbLine
 62
7
  6
CONTINUOUS
 10
15.7920680926
 20
10.8362781753
 11
15.7932003776
 21
10.8397161396
  0
LINE
  5
2AA
100
AcDbEntity
  8
0
100
AcDbLine
 62
7
  6
CONTINUOUS
 10
16.3544308064
 20
12.8275533166
 11
16.356902455
 21
12.8346190542
  0
LINE
  5
2AB
100
AcDbEntity
  8
0
100
AcDbLine
 62
7
  6
CONTINUOUS
 10
16.2333976447
 20
12.4358898618
 11
16.2358692933
 21
12.4429555994
  0
LINE
  5
2AC
100
AcDbEntity
  8
0
100
AcDbLine
 62
7
  6
CONTINUOUS
 10
16.112364483
 20
12.044226407
 11
16.1148361316
 21
12.0512921446
  0
LINE
  5
2AD
100
AcDbEntity
  8
0
100
AcDbLine
 62
7
  6
CONTINUOUS
 10
15.9913313213
 20
11.6525629522
 11
15.9938029699
 21
11.6596286898
  0
LINE
  5
2AE
100
AcDbEntity
  8
0
100
AcDbLine
 62
7
  6
CONTINUOUS
 10
15.8702981596
 20
11.2608994974
 11
15.8727698082
 21
11.267965235
  0
LINE
  5
2AF
100
AcDbEntity
  8
0
100
AcDbLine
 62
7
  6
CONTINUOUS
 10
15.7492649979
 20
10.8692360426
 11
15.7517366465
 21
10.8763017801
  0
LINE
  5
2B0
100
AcDbEntity
  8
0
100
AcDbLine
 62
7
  6
CONTINUOUS
 10
16.3944511597
 20
12.7878215972
 11
16.3972339011
 21
12.7945954493
  0
LINE
  5
2B1
100
AcDbEntity
  8
0
100
AcDbLine
 62
7
  6
CONTINUOUS
 10
16.273417998
 20
12.3961581424
 11
16.2762007394
 21
12.4029319945
  0
LINE
  5
2B2
100
AcDbEntity
  8
0
100
AcDbLine
 62
7
  6
CONTINUOUS
 10
16.1523848363
 20
12.0044946876
 11
16.1551675777
 21
12.0112685397
  0
LWPOLYLINE
  5
2B3
100
AcDbEntity
  8
0
100
AcDbPolyline
 62
7
  6
CONTINUOUS
 90
4
 70
0
 10
16.2358692933
 20
12.4429555994
 10
16.2380566201
 20
12.448174628
 10
16.2395993544
 20
12.4511567187
 10
16.2399398513
 20
12.4516959564
  0
LWPOLYLINE
  5
2B4
100
AcDbEntity
  8
0
100
AcDbPolyline
 62
7
  6
CONTINUOUS
 90
4
 70
0
 10
16.1148361316
 20
12.0512921446
 10
16.1170234584
 20
12.0565111731
 10
16.1185661927
 20
12.0594932638
 10
16.1189066896
 20
12.0600325016
  0
LWPOLYLINE
  5
2B5
100
AcDbEntity
  8
0
100
AcDbPolyline
 62
7
  6
CONTINUOUS
 90
4
 70
0
 10
15.9938029699
 20
11.6596286898
 10
15.9959902967
 20
11.6648477183
 10
15.997533031
 20
11.667829809
 10
15.9978735279
 20
11.6683690468
  0
LWPOLYLINE
  5
2B6
100
AcDbEntity
  8
0
100
AcDbPolyline
 62
7
  6
CONTINUOUS
 90
4
 70
0
 10
15.8727698082
 20
11.267965235
 10
15.8749571349
 20
11.2731842635
 10
15.8764998693
 20
11.2761663542
 10
15.8768403662
 20
11.2767055919
  0
LWPOLYLINE
  5
2B7
100
AcDbEntity
  8
0
100
AcDbPolyline
 62
7
  6
CONTINUOUS
 90
5
 70
0
 10
16.6106142248
 20
13.5531255525
 10
16.6195266625
 20
13.5546896296
 10
16.6271861086
 20
13.558978096
 10
16.6327855603
 20
13.5648525705
 10
16.6365174831
 20
13.5711485068
  0
LINE
  5
2B8
100
AcDbEntity
  8
0
100
AcDbLine
 62
7
  6
CONTINUOUS
 10
16.4330729919
 20
12.931773172
 11
16.4327667006
 21
13.0359678205
  0
LWPOLYLINE
  5
2B9
100
AcDbEntity
  8
0
100
AcDbPolyline
 62
7
  6
CONTINUOUS
 90
7
 70
0
 10
16.432766155
 20
13.0359913641
 10
16.4329332429
 20
13.0444313115
 10
16.4341763477
 20
13.0617047323
 10
16.4366234279
 20
13.0808732608
 10
16.4400580729
 20
13.0999718843
 10
16.4440815077
 20
13.117089782
 10
16.4465234952
 20
13.1256129703
  0
LINE
  5
2BA
100
AcDbEntity
  8
0
100
AcDbLine
 62
7
  6
CONTINUOUS
 10
16.432773604
 20
12.9234380737
 11
16.4330726788
 21
12.9318291787
  0
LWPOLYLINE
  5
2BB
100
AcDbEntity
  8
0
100
AcDbPolyline
 62
7
  6
CONTINUOUS
 90
3
 70
0
 10
16.4285643198
 20
12.8965413193
 10
16.4312060839
 20
12.9098246694
 10
16.432773604
 20
12.9234380737
  0
LWPOLYLINE
  5
2BC
100
AcDbEntity
  8
0
100
AcDbPolyline
 62
7
  6
CONTINUOUS
 90
3
 70
0
 10
16.5495974815
 20
13.2882047741
 10
16.5522392456
 20
13.3014881242
 10
16.5538067657
 20
13.3151015285
  0
LWPOLYLINE
  5
2BD
100
AcDbEntity
  8
0
100
AcDbPolyline
 62
7
  6
CONTINUOUS
 90
3
 70
0
 10
16.6706306432
 20
13.6798682289
 10
16.6732724073
 20
13.693151579
 10
16.6748399274
 20
13.7067649833
  0
LINE
  5
2BE
100
AcDbEntity
  8
0
100
AcDbLine
 62
7
  6
CONTINUOUS
 10
16.0313516746
 20
11.6128312328
 11
16.034134416
 21
11.6196050849
  0
LINE
  5
2BF
100
AcDbEntity
  8
0
100
AcDbLine
 62
7
  6
CONTINUOUS
 10
15.9103185128
 20
11.221167778
 11
15.9131012543
 21
11.2279416301
  0
LINE
  5
2C0
100
AcDbEntity
  8
0
100
AcDbLine
 62
7
  6
CONTINUOUS
 10
15.7892853511
 20
10.8295043231
 11
15.7920680926
 21
10.8362781753
  0
LWPOLYLINE
  5
2C1
100
AcDbEntity
  8
0
100
AcDbPolyline
 62
7
  6
CONTINUOUS
 90
4
 70
0
 10
15.7517366465
 20
10.8763017801
 10
15.7539239732
 20
10.8815208087
 10
15.7554667076
 20
10.8845028994
 10
15.7558072045
 20
10.8850421371
  0
LINE
  5
2C2
100
AcDbEntity
  8
0
100
AcDbLine
 62
7
  6
CONTINUOUS
 10
16.5541061536
 20
13.3234366268
 11
16.5537998623
 21
13.4276312753
  0
LWPOLYLINE
  5
2C3
100
AcDbEntity
  8
0
100
AcDbPolyline
 62
7
  6
CONTINUOUS
 90
7
 70
0
 10
16.5537993167
 20
13.4276548189
 10
16.5539664046
 20
13.4360947663
 10
16.5552095094
 20
13.4533681871
 10
16.5576565896
 20
13.4725367157
 10
16.5610912346
 20
13.4916353391
 10
16.5651146694
 20
13.5087532368
 10
16.5675566569
 20
13.5172764251
  0
LINE
  5
2C4
100
AcDbEntity
  8
0
100
AcDbLine
 62
7
  6
CONTINUOUS
 10
16.5538067657
 20
13.3151015285
 11
16.5541058405
 21
13.3234926335
  0
LINE
  5
2C5
100
AcDbEntity
  8
0
100
AcDbLine
 62
7
  6
CONTINUOUS
 10
16.7030543513
 20
13.9580340352
 11
16.7027212359
 21
13.9546758725
  0
LINE
  5
2C6
100
AcDbEntity
  8
0
100
AcDbLine
 62
7
  6
CONTINUOUS
 10
16.5786360211
 20
13.5531254976
 11
16.6106142258
 21
13.5531254976
  0
LINE
  5
2C7
100
AcDbEntity
  8
0
100
AcDbLine
 62
7
  6
CONTINUOUS
 10
16.6751393154
 20
13.7151000816
 11
16.6748330241
 21
13.8192947301
  0
LWPOLYLINE
  5
2C8
100
AcDbEntity
  8
0
100
AcDbPolyline
 62
7
  6
CONTINUOUS
 90
7
 70
0
 10
16.6748324784
 20
13.8193182737
 10
16.6749995663
 20
13.8277582211
 10
16.6762426711
 20
13.8450316419
 10
16.6786897513
 20
13.8642001705
 10
16.6821243963
 20
13.8832987939
 10
16.6861478311
 20
13.9004166916
 10
16.6885898186
 20
13.9089398799
  0
LINE
  5
2C9
100
AcDbEntity
  8
0
100
AcDbLine
 62
7
  6
CONTINUOUS
 10
16.6748399274
 20
13.7067649833
 11
16.6751390022
 21
13.7151560883
  0
LINE
  5
2CA
100
AcDbEntity
  8
0
100
AcDbLine
 62
7
  6
CONTINUOUS
 10
16.7030543513
 20
13.9580340352
 11
16.6894395196
 21
14.1033377406
  0
LINE
  5
2CB
100
AcDbEntity
  8
0
100
AcDbLine
 62
7
  6
CONTINUOUS
 10
16.617170665
 20
14.210078525
 11
15.2240659116
 21
14.210078525
  0
LINE
  5
2CC
100
AcDbEntity
  8
0
100
AcDbLine
 62
7
  6
CONTINUOUS
 10
16.6846828943
 20
14.1194261905
 11
16.6478232366
 21
14.1945382758
  0
ARC
  5
2CD
100
AcDbEntity
  8
0
100
AcDbCircle
 62
7
  6
CONTINUOUS
 10
5.4393069869
 20
5.4391198968
 40
0.025
100
AcDbArc
 50
195.0
 51
270.0
  0
ARC
  5
2CE
100
AcDbEntity
  8
0
100
AcDbCircle
 62
7
  6
CONTINUOUS
 10
5.496112213
 20
5.2271199065
 40
0.025
100
AcDbArc
 50
195.0000231686
 51
270.0000059964
  0
ARC
  5
2CF
100
AcDbEntity
  8
0
100
AcDbCircle
 62
7
  6
CONTINUOUS
 10
5.4491172762
 20
5.6922851465
 40
0.1
100
AcDbArc
 50
180.0
 51
195.0
  0
ARC
  5
2D0
100
AcDbEntity
  8
0
100
AcDbCircle
 62
7
  6
CONTINUOUS
 10
5.3741172762
 20
5.8131198968
 40
0.025
100
AcDbArc
 50
90.0
 51
180.0
  0
ARC
  5
2D1
100
AcDbEntity
  8
0
100
AcDbCircle
 62
7
  6
CONTINUOUS
 10
6.7646223367
 20
5.2271198968
 40
0.025
100
AcDbArc
 50
270.0
 51
345.0
  0
ARC
  5
2D2
100
AcDbEntity
  8
0
100
AcDbCircle
 62
7
  6
CONTINUOUS
 10
6.8214275655
 20
5.4391198968
 40
0.025
100
AcDbArc
 50
270.0
 51
345.0
  0
ARC
  5
2D3
100
AcDbEntity
  8
0
100
AcDbCircle
 62
7
  6
CONTINUOUS
 10
6.8116172762
 20
5.6922851465
 40
0.1
100
AcDbArc
 50
345.0
 51
360.0
  0
ARC
  5
2D4
100
AcDbEntity
  8
0
100
AcDbCircle
 62
7
  6
CONTINUOUS
 10
6.8866172762
 20
5.8131198968
 40
0.025
100
AcDbArc
 50
0.0
 51
90.0
  0
ARC
  5
2D5
100
AcDbEntity
  8
0
100
AcDbCircle
 62
7
  6
CONTINUOUS
 10
13.7519853888
 20
5.1956247044
 40
0.053
100
AcDbArc
 50
193.0
 51
270.0
  0
ARC
  5
2D6
100
AcDbEntity
  8
0
100
AcDbCircle
 62
7
  6
CONTINUOUS
 10
13.8687251251
 20
5.1956247044
 40
0.053
100
AcDbArc
 50
270.0
 51
347.0
  0
ARC
  5
2D7
100
AcDbEntity
  8
0
100
AcDbCircle
 62
7
  6
CONTINUOUS
 10
14.2519853888
 20
5.1956247044
 40
0.053
100
AcDbArc
 50
193.0
 51
270.0
  0
ARC
  5
2D8
100
AcDbEntity
  8
0
100
AcDbCircle
 62
7
  6
CONTINUOUS
 10
14.3687251251
 20
5.1956247044
 40
0.053
100
AcDbArc
 50
270.0
 51
347.0
  0
ARC
  5
2D9
100
AcDbEntity
  8
0
100
AcDbCircle
 62
7
  6
CONTINUOUS
 10
14.7519853888
 20
5.1956247044
 40
0.053
100
AcDbArc
 50
193.0
 51
270.0
  0
ARC
  5
2DA
100
AcDbEntity
  8
0
100
AcDbCircle
 62
7
  6
CONTINUOUS
 10
14.8687251251
 20
5.1956247044
 40
0.053
100
AcDbArc
 50
270.0
 51
347.0
  0
ARC
  5
2DB
100
AcDbEntity
  8
0
100
AcDbCircle
 62
7
  6
CONTINUOUS
 10
15.2519853888
 20
5.1956247044
 40
0.053
100
AcDbArc
 50
193.0
 51
270.0
  0
ARC
  5
2DC
100
AcDbEntity
  8
0
100
AcDbCircle
 62
7
  6
CONTINUOUS
 10
15.3687251251
 20
5.1956247044
 40
0.053
100
AcDbArc
 50
270.0
 51
347.0
  0
ARC
  5
2DD
100
AcDbEntity
  8
0
100
AcDbCircle
 62
7
  6
CONTINUOUS
 10
13.6187251251
 20
5.3016247044
 40
0.053
100
AcDbArc
 50
13.0
 51
90.0
  0
ARC
  5
2DE
100
AcDbEntity
  8
0
100
AcDbCircle
 62
7
  6
CONTINUOUS
 10
14.0019853888
 20
5.3016247044
 40
0.053
100
AcDbArc
 50
90.0
 51
167.0
  0
ARC
  5
2DF
100
AcDbEntity
  8
0
100
AcDbCircle
 62
7
  6
CONTINUOUS
 10
14.1187251251
 20
5.3016247044
 40
0.053
100
AcDbArc
 50
13.0
 51
90.0
  0
ARC
  5
2E0
100
AcDbEntity
  8
0
100
AcDbCircle
 62
7
  6
CONTINUOUS
 10
14.5019853888
 20
5.3016247044
 40
0.053
100
AcDbArc
 50
90.0
 51
167.0
  0
ARC
  5
2E1
100
AcDbEntity
  8
0
100
AcDbCircle
 62
7
  6
CONTINUOUS
 10
14.6187251251
 20
5.3016247044
 40
0.053
100
AcDbArc
 50
13.0
 51
90.0
  0
ARC
  5
2E2
100
AcDbEntity
  8
0
100
AcDbCircle
 62
7
  6
CONTINUOUS
 10
15.0019853888
 20
5.3016247044
 40
0.053
100
AcDbArc
 50
90.0
 51
167.0
  0
ARC
  5
2E3
100
AcDbEntity
  8
0
100
AcDbCircle
 62
7
  6
CONTINUOUS
 10
15.1187251251
 20
5.3016247044
 40
0.053
100
AcDbArc
 50
13.0
 51
90.0
  0
ARC
  5
2E4
100
AcDbEntity
  8
0
100
AcDbCircle
 62
7
  6
CONTINUOUS
 10
15.5019853888
 20
5.3016247044
 40
0.053
100
AcDbArc
 50
90.0
 51
167.0
  0
ARC
  5
2E5
100
AcDbEntity
  8
0
100
AcDbCircle
 62
7
  6
CONTINUOUS
 10
17.3687251251
 20
5.1956247044
 40
0.053
100
AcDbArc
 50
270.0
 51
347.0
  0
ARC
  5
2E6
100
AcDbEntity
  8
0
100
AcDbCircle
 62
7
  6
CONTINUOUS
 10
17.2519853888
 20
5.1956247044
 40
0.053
100
AcDbArc
 50
193.0
 51
270.0
  0
ARC
  5
2E7
100
AcDbEntity
  8
0
100
AcDbCircle
 62
7
  6
CONTINUOUS
 10
16.8687251251
 20
5.1956247044
 40
0.053
100
AcDbArc
 50
270.0
 51
347.0
  0
ARC
  5
2E8
100
AcDbEntity
  8
0
100
AcDbCircle
 62
7
  6
CONTINUOUS
 10
16.7519853888
 20
5.1956247044
 40
0.053
100
AcDbArc
 50
193.0
 51
270.0
  0
ARC
  5
2E9
100
AcDbEntity
  8
0
100
AcDbCircle
 62
7
  6
CONTINUOUS
 10
16.3687251251
 20
5.1956247044
 40
0.053
100
AcDbArc
 50
270.0
 51
347.0
  0
ARC
  5
2EA
100
AcDbEntity
  8
0
100
AcDbCircle
 62
7
  6
CONTINUOUS
 10
16.2519853888
 20
5.1956247044
 40
0.053
100
AcDbArc
 50
193.0
 51
270.0
  0
ARC
  5
2EB
100
AcDbEntity
  8
0
100
AcDbCircle
 62
7
  6
CONTINUOUS
 10
15.8687251251
 20
5.1956247044
 40
0.053
100
AcDbArc
 50
270.0
 51
347.0
  0
ARC
  5
2EC
100
AcDbEntity
  8
0
100
AcDbCircle
 62
7
  6
CONTINUOUS
 10
15.7519853888
 20
5.1956247044
 40
0.053
100
AcDbArc
 50
193.0
 51
270.0
  0
ARC
  5
2ED
100
AcDbEntity
  8
0
100
AcDbCircle
 62
7
  6
CONTINUOUS
 10
17.5019853888
 20
5.3016247044
 40
0.053
100
AcDbArc
 50
90.0
 51
167.0
  0
ARC
  5
2EE
100
AcDbEntity
  8
0
100
AcDbCircle
 62
7
  6
CONTINUOUS
 10
17.1187251251
 20
5.3016247044
 40
0.053
100
AcDbArc
 50
13.0
 51
90.0
  0
ARC
  5
2EF
100
AcDbEntity
  8
0
100
AcDbCircle
 62
7
  6
CONTINUOUS
 10
17.0019853888
 20
5.3016247044
 40
0.053
100
AcDbArc
 50
90.0
 51
167.0
  0
ARC
  5
2F0
100
AcDbEntity
  8
0
100
AcDbCircle
 62
7
  6
CONTINUOUS
 10
16.6187251251
 20
5.3016247044
 40
0.053
100
AcDbArc
 50
13.0
 51
90.0
  0
ARC
  5
2F1
100
AcDbEntity
  8
0
100
AcDbCircle
 62
7
  6
CONTINUOUS
 10
16.5019853888
 20
5.3016247044
 40
0.053
100
AcDbArc
 50
90.0
 51
167.0
  0
ARC
  5
2F2
100
AcDbEntity
  8
0
100
AcDbCircle
 62
7
  6
CONTINUOUS
 10
16.1187251251
 20
5.3016247044
 40
0.053
100
AcDbArc
 50
13.0
 51
90.0
  0
ARC
  5
2F3
100
AcDbEntity
  8
0
100
AcDbCircle
 62
7
  6
CONTINUOUS
 10
16.0019853888
 20
5.3016247044
 40
0.053
100
AcDbArc
 50
90.0
 51
167.0
  0
ARC
  5
2F4
100
AcDbEntity
  8
0
100
AcDbCircle
 62
7
  6
CONTINUOUS
 10
15.6187251251
 20
5.3016247044
 40
0.053
100
AcDbArc
 50
13.0
 51
90.0
  0
SPLINE
  5
2F5
100
AcDbEntity
  8
0
100
AcDbSpline
 62
7
  6
CONTINUOUS
 70
0
 71
3
 72
15
 73
11
 74
0
 42
0.0000001
 43
0.0000001
 44
0.0000000001
 40
0.0
 40
0.0
 40
0.0
 40
0.0
 40
0.1295686587
 40
0.2645758866
 40
0.4012660356
 40
0.5362716778
 40
0.66621569
 40
0.7881008779
 40
0.899814221
 40
1.0
 40
1.0
 40
1.0
 40
1.0
 10
16.617170665
 20
14.210078525
 30
0.0
 10
16.6187189252
 20
14.210078525
 30
0.0
 10
16.6218828793
 20
14.2098632938
 30
0.0
 10
16.6266053958
 20
14.2089794058
 30
0.0
 10
16.6312617011
 20
14.2075519525
 30
0.0
 10
16.6356735642
 20
14.2056366323
 30
0.0
 10
16.6396797516
 20
14.2033079509
 30
0.0
 10
16.6431318349
 20
14.2006466207
 30
0.0
 10
16.6458976839
 20
14.197750571
 30
0.0
 10
16.647295839
 20
14.1956129989
 30
0.0
 10
16.6478232366
 20
14.1945382758
 30
0.0
  0
SPLINE
  5
2F6
100
AcDbEntity
  8
0
100
AcDbSpline
 62
7
  6
CONTINUOUS
 70
0
 71
3
 72
15
 73
11
 74
0
 42
0.0000001
 43
0.0000001
 44
0.0000000001
 40
0.0
 40
0.0
 40
0.0
 40
0.0
 40
0.0996459439
 40
0.2028719195
 40
0.3125942196
 40
0.4308569925
 40
0.5588149077
 40
0.6968310392
 40
0.8443982919
 40
1.0
 40
1.0
 40
1.0
 40
1.0
 10
15.2078064197
 20
14.2019194688
 30
0.0
 10
15.2079965349
 20
14.2025347093
 30
0.0
 10
15.2085351756
 20
14.2037456512
 30
0.0
 10
15.2097661648
 20
14.2053665948
 30
0.0
 10
15.2113895507
 20
14.2067817622
 30
0.0
 10
15.2133737122
 20
14.2079658224
 30
0.0
 10
15.2156812529
 20
14.2089044541
 30
0.0
 10
15.2182728687
 20
14.2095831774
 30
0.0
 10
15.2210997469
 20
14.2099908409
 30
0.0
 10
15.2230603626
 20
14.210078525
 30
0.0
 10
15.2240659116
 20
14.210078525
 30
0.0
  0
SPLINE
  5
2F7
100
AcDbEntity
  8
0
100
AcDbSpline
 62
7
  6
CONTINUOUS
 70
0
 71
3
 72
11
 73
7
 74
0
 42
0.0000001
 43
0.0000001
 44
0.0000000001
 40
0.0
 40
0.0
 40
0.0
 40
0.0
 40
0.2336941426
 40
0.4747277805
 40
0.7289543946
 40
1.0
 40
1.0
 40
1.0
 40
1.0
 10
14.2395411261
 20
11.0686118303
 30
0.0
 10
14.2393662715
 20
11.0680459753
 30
0.0
 10
14.2391359603
 20
11.0668538281
 30
0.0
 10
14.2391782547
 20
11.0649945501
 30
0.0
 10
14.2395960608
 20
11.0630873742
 30
0.0
 10
14.2400975242
 20
11.061847303
 30
0.0
 10
14.2404001398
 20
11.0612306372
 30
0.0
  0
SPLINE
  5
2F8
100
AcDbEntity
  8
0
100
AcDbSpline
 62
7
  6
CONTINUOUS
 70
0
 71
3
 72
9
 73
5
 74
0
 42
0.0000001
 43
0.0000001
 44
0.0000000001
 40
0.0
 40
0.0
 40
0.0
 40
0.0
 40
0.517600521
 40
1.0
 40
1.0
 40
1.0
 40
1.0
 10
16.6846828943
 20
14.1194261905
 30
0.0
 10
16.6859633371
 20
14.1168169225
 30
0.0
 10
16.688065083
 20
14.1115789877
 30
0.0
 10
16.68918681
 20
14.1060347729
 30
0.0
 10
16.6894395196
 20
14.1033377406
 30
0.0
  0
SPLINE
  5
2F9
100
AcDbEntity
  8
0
100
AcDbSpline
 62
7
  6
CONTINUOUS
 70
0
 71
3
 72
14
 73
10
 74
0
 42
0.0000001
 43
0.0000001
 44
0.0000000001
 40
0.0
 40
0.0
 40
0.0
 40
0.0
 40
0.1556294887
 40
0.303264859
 40
0.5688236197
 40
0.6871315219
 40
0.7968672913
 40
0.9001625824
 40
1.0
 40
1.0
 40
1.0
 40
1.0
 10
15.7181994231
 20
10.8132082599
 30
0.0
 10
15.7192045748
 20
10.8132082599
 30
0.0
 10
15.7211655626
 20
10.8132960749
 30
0.0
 10
15.7248034128
 20
10.8138207617
 30
0.0
 10
15.7281240111
 20
10.8148648473
 30
0.0
 10
15.7308742465
 20
10.8165034784
 30
0.0
 10
15.7324980912
 20
10.8179178295
 30
0.0
 10
15.7337295227
 20
10.8195392516
 30
0.0
 10
15.7342678331
 20
10.8207514665
 30
0.0
 10
15.7344577011
 20
10.8213676909
 30
0.0
  0
SPLINE
  5
2FA
100
AcDbEntity
  8
0
100
AcDbSpline
 62
7
  6
CONTINUOUS
 70
0
 71
3
 72
15
 73
11
 74
0
 42
0.0000001
 43
0.0000001
 44
0.0000000001
 40
0.0
 40
0.0
 40
0.0
 40
0.0
 40
0.1102071128
 40
0.2287224006
 40
0.3536318292
 40
0.4829519664
 40
0.6145657677
 40
0.7462247204
 40
0.8755867933
 40
1.0
 40
1.0
 40
1.0
 40
1.0
 10
14.4172878736
 20
10.8247263966
 30
0.0
 10
14.4180432074
 20
10.823875564
 30
0.0
 10
14.4197458307
 20
10.8222274426
 30
0.0
 10
14.4226631967
 20
10.8200204915
 30
0.0
 10
14.4259742709
 20
10.81804571
 30
0.0
 10
14.4295860358
 20
10.8163513999
 30
0.0
 10
14.4334074727
 20
10.8149835971
 30
0.0
 10
14.4373395602
 20
10.8139745546
 30
0.0
 10
14.4412763373
 20
10.8133572727
 30
0.0
 10
14.4438976738
 20
10.8132082599
 30
0.0
 10
14.4451820692
 20
10.8132082599
 30
0.0
  0
SPLINE
  5
2FB
100
AcDbEntity
  8
0
100
AcDbSpline
 62
7
  6
CONTINUOUS
 70
0
 71
3
 72
9
 73
5
 74
0
 42
0.0000001
 43
0.0000001
 44
0.0000000001
 40
0.0
 40
0.0
 40
0.0
 40
0.0
 40
0.4813568161
 40
1.0
 40
1.0
 40
1.0
 40
1.0
 10
14.2772597976
 20
10.986118552
 30
0.0
 10
14.2786418818
 20
10.9833021605
 30
0.0
 10
14.2819889071
 20
10.9776788138
 30
0.0
 10
14.2860491864
 20
10.9725579465
 30
0.0
 10
14.2882933013
 20
10.9700301021
 30
0.0
  0
SPLINE
  5
2FC
100
AcDbEntity
  8
0
100
AcDbSpline
 62
7
  6
CONTINUOUS
 70
0
 71
3
 72
15
 73
11
 74
0
 42
0.0000001
 43
0.0000001
 44
0.0000000001
 40
0.0
 40
0.0
 40
0.0
 40
0.0
 40
0.100185779
 40
0.2118991221
 40
0.33378431
 40
0.4637283222
 40
0.5987339644
 40
0.7354241134
 40
0.8704313413
 40
1.0
 40
1.0
 40
1.0
 40
1.0
 10
15.6795579429
 20
11.0612306372
 30
0.0
 10
15.6790305454
 20
11.0623053604
 30
0.0
 10
15.6776323903
 20
11.0644429325
 30
0.0
 10
15.6748665413
 20
11.0673389822
 30
0.0
 10
15.6714144579
 20
11.0700003124
 30
0.0
 10
15.6674082706
 20
11.0723289938
 30
0.0
 10
15.6629964075
 20
11.074244314
 30
0.0
 10
15.6583401022
 20
11.0756717673
 30
0.0
 10
15.6536175857
 20
11.0765556553
 30
0.0
 10
15.6504536316
 20
11.0767708865
 30
0.0
 10
15.6489053714
 20
11.0767708865
 30
0.0
  0
SPLINE
  5
2FD
100
AcDbEntity
  8
0
100
AcDbSpline
 62
7
  6
CONTINUOUS
 70
0
 71
3
 72
15
 73
11
 74
0
 42
0.0000001
 43
0.0000001
 44
0.0000000001
 40
0.0
 40
0.0
 40
0.0
 40
0.0
 40
0.1556017081
 40
0.3031689608
 40
0.4411850923
 40
0.5691430075
 40
0.6874057804
 40
0.7971280805
 40
0.9003540561
 40
1.0
 40
1.0
 40
1.0
 40
1.0
 10
14.255800618
 20
11.0767708865
 30
0.0
 10
14.254795069
 20
11.0767708865
 30
0.0
 10
14.2528344533
 20
11.0766832024
 30
0.0
 10
14.250007575
 20
11.0762755389
 30
0.0
 10
14.2474159593
 20
11.0755968156
 30
0.0
 10
14.2451084186
 20
11.0746581839
 30
0.0
 10
14.243124257
 20
11.0734741237
 30
0.0
 10
14.2415008711
 20
11.0720589563
 30
0.0
 10
14.240269882
 20
11.0704380127
 30
0.0
 10
14.2397312413
 20
11.0692270708
 30
0.0
 10
14.2395411261
 20
11.0686118303
 30
0.0
  0
SPLINE
  5
2FE
100
AcDbEntity
  8
0
100
AcDbSpline
 62
7
  6
CONTINUOUS
 70
0
 71
3
 72
9
 73
5
 74
0
 42
0.0000001
 43
0.0000001
 44
0.0000000001
 40
0.0
 40
0.0
 40
0.0
 40
0.0
 40
0.482399479
 40
1.0
 40
1.0
 40
1.0
 40
1.0
 10
15.7211742259
 20
10.9700301021
 30
0.0
 10
15.7209215163
 20
10.9727271344
 30
0.0
 10
15.7197997894
 20
10.9782713492
 30
0.0
 10
15.7176980434
 20
10.983509284
 30
0.0
 10
15.7164176007
 20
10.986118552
 30
0.0
  0
ENDSEC
  0
SECTION
  2
OBJECTS
  0
DICTIONARY
  5
C
100
AcDbDictionary
280
0
281
1
  3
ACAD_GROUP
350
D
  3
ACAD_MLINESTYLE
350
17
  3
ACAD_LAYOUT
350
1A
  3
ACAD_PLOTSETTINGS
350
19
  3
ACAD_PLOTSTYLENAME
350
E
  0
DICTIONARY
  5
D
102
{ACAD_REACTORS
330
C
102
}
100
AcDbDictionary
280
0
281
1
  0
ACDBDICTIONARYWDFLT
  5
E
102
{ACAD_REACTORS
330
C
102
}
100
AcDbDictionary
281
1
  3
Normal
350
F
100
AcDbDictionaryWithDefault
340
F
  0
DICTIONARY
  5
17
102
{ACAD_REACTORS
330
C
102
}
100
AcDbDictionary
280
0
281
1
  3
Standard
350
18
  0
DICTIONARY
  5
19
102
{ACAD_REACTORS
330
C
102
}
100
AcDbDictionary
281
1
  0
DICTIONARY
  5
1A
102
{ACAD_REACTORS
330
C
102
}
100
AcDbDictionary
281
1
  3
Model
350
2FF
  3
Layout1
350
300
  0
ACDBPLACEHOLDER
  5
F
102
{ACAD_REACTORS
330
E
102
}
  0
MLINESTYLE
  5
18
102
{ACAD_REACTORS
330
17
102
}
100
AcDbMlineStyle
  2
STANDARD
 70
0
  3

 62
256
 51
90.0
 52
90.0
 71
2
 49
0.5
 62
256
  6
BYLAYER
 49
-0.5
 62
256
  6
BYLAYER
  0
LAYOUT
  5
2FF
102
{ACAD_REACTORS
330
1A
102
}
100
AcDbPlotSettings
  1

  2
none_device
  4
ANSI_C_(22.00_x_17.00_Inches)
  6

 40
0.0
 41
0.0
 42
0.0
 43
0.0
 44
558.8
 45
431.8
 46
0.0
 47
0.0
 48
0.0
 49
0.0
140
0.0
141
0.0
142
1.0
143
1.0
 70
1024
 72
0
 73
0
 74
0
  7

 75
0
147
1.0
148
0.0
149
0.0
100
AcDbLayout
  1
Model
 70
0
 71
0
 10
0.0
 20
0.0
 11
22.0
 21
17.0
 12
0.0
 22
0.0
 32
0.0
 14
0.0
 24
0.0
 34
0.0
 15
0.0
 25
0.0
 35
0.0
146
0.0
 13
0.0
 23
0.0
 33
0.0
 16
1.0
 26
0.0
 36
0.0
 17
0.0
 27
1.0
 37
0.0
 76
0
330
216
345
0
346
0
  0
LAYOUT
  5
300
102
{ACAD_REACTORS
330
1A
102
}
100
AcDbPlotSettings
  1

  2
none_device
  4
ANSI_C_(22.00_x_17.00_Inches)
  6

 40
0.0
 41
0.0
 42
0.0
 43
0.0
 44
558.8
 45
431.8
 46
0.0
 47
0.0
 48
0.0
 49
0.0
140
0.0
141
0.0
142
1.0
143
1.0
 70
0
 72
0
 73
0
 74
0
  7

 75
0
147
1.0
148
0.0
149
0.0
100
AcDbLayout
  1
Layout1
 70
0
 71
1
 10
0.0
 20
0.0
 11
22.0
 21
17.0
 12
0.0
 22
0.0
 32
0.0
 14
0.0
 24
0.0
 34
0.0
 15
0.0
 25
0.0
 35
0.0
146
0.0
 13
0.0
 23
0.0
 33
0.0
 16
1.0
 26
0.0
 36
0.0
 17
0.0
 27
1.0
 37
0.0
 76
0
330
217
345
0
346
0
  0
ENDSEC
  0
EOF