999
DXF file: _cgs_temp_output.dxf
999
Pro/ENGINEER 2016360 by Parametric Technology Corporation
  0
SECTION
  2
HEADER
  9
$ACADVER
  1
AC1021
  9
$DWGCODEPAGE
  3
ANSI_1252
  9
$EXTMAX
 10
22.0
 20
17.0
 30
0.0
  9
$EXTMIN
 10
0.0
 20
0.0
 30
0.0
  9
$LIMMIN
 10
0.0
 20
0.0
  9
$LIMMAX
 10
22.0
 20
17.0
  9
$VIEWCTR
 10
11.0
 20
8.5
  9
$VIEWSIZE
 40
17.0
  9
$CLAYER
  8
0
  9
$LTSCALE
 40
1.21
  9
$CELTYPE
  6
BYLAYER
  9
$DIMSCALE
 40
1.0
  9
$DIMASZ
 40
0.1875
  9
$DIMEXO
 40
0.0625
  9
$DIMDLI
 40
0.836
  9
$DIMEXE
 40
0.125
  9
$DIMCEN
 40
0.198
  9
$DIMLFAC
 40
1.0
  9
$DIMBLK
  1
_CLOSED
  9
$DIMALT
 70
0
  9
$DIMALTF
 40
25.4
  9
$DIMTXT
 40
0.15625
  9
$DIMTOL
 70
0
  9
$DIMLIM
 70
0
  9
$DIMTFAC
 40
1.0
  9
$DIMGAP
 40
0.09
  9
$DIMDSEP
 70
46
  9
$AUNITS
 70
0
  9
$PDMODE
 70
3
  9
$PDSIZE
 40
0.3125
  9
$HANDSEED
  5
301
  9
$TILEMODE
 70
1
  9
$MEASUREMENT
 70
0
  9
$INSUNITS
 70
1
  0
ENDSEC
  0
SECTION
  2
CLASSES
  0
CLASS
  1
ACDBDICTIONARYWDFLT
  2
AcDbDictionaryWithDefault
  3
AutoCAD 2000
 90
0
 91
1
280
0
281
0
  0
CLASS
  1
ACDBPLACEHOLDER
  2
AcDbPlaceHolder
  3
AutoCAD 2000
 90
0
 91
1
280
0
281
0
  0
CLASS
  1
LAYOUT
  2
AcDbLayout
  3
AutoCAD 2000
 90
0
 91
0
280
0
281
0
  0
ENDSEC
  0
SECTION
  2
TABLES
  0
TABLE
  2
VPORT
  5
8
100
AcDbSymbolTable
 70
2
  0
VPORT
  5
1F4
100
AcDbSymbolTableRecord
100
AcDbViewportTableRecord
  2
*ACTIVE
 70
0
 10
0.0
 20
0.0
 11
1.0
 21
1.0
 12
11.0
 22
8.5
 13
0.0
 23
0.0
 14
1.0
 24
1.0
 15
0.0
 25
0.0
 16
0.0
 26
0.0
 36
1.0
 17
0.0
 27
0.0
 37
0.0
 40
17.0
 41
1.2941176471
 42
50.0
 43
0.0
 44
0.0
 50
0.0
 51
0.0
 71
0
 72
100
 73
1
 74
1
 75
0
 76
0
 77
0
 78
0
  0
ENDTAB
  0
TABLE
  2
LTYPE
  5
5
100
AcDbSymbolTable
 70
6
  0
LTYPE
  5
14
100
AcDbSymbolTableRecord
100
AcDbLinetypeTableRecord
  2
BYBLOCK
 70
0
  3

 72
65
 73
0
 40
0.0
  0
LTYPE
  5
15
100
AcDbSymbolTableRecord
100
AcDbLinetypeTableRecord
  2
BYLAYER
 70
0
  3

 72
65
 73
0
 40
0.0
  0
LTYPE
  5
16
100
AcDbSymbolTableRecord
100
AcDbLinetypeTableRecord
  2
CONTINUOUS
 70
64
  3
Solid line
 72
65
 73
0
 40
0.0
  0
LTYPE
  5
1F5
100
AcDbSymbolTableRecord
100
AcDbLinetypeTableRecord
  2
CENTER
 70
64
  3
____ _ ____ _ ____ _ ____ _ ____ _ ____ _ ____
 72
65
 73
4
 40
0.6
 49
0.375
 74
0
 49
-0.075
 74
0
 49
0.075
 74
0
 49
-0.075
 74
0
  0
LTYPE
  5
1F6
100
AcDbSymbolTableRecord
100
AcDbLinetypeTableRecord
  2
HIDDEN
 70
64
  3
- - - - - - - - - - - - - - - - - - - -
 72
65
 73
2
 40
0.2
 49
0.1
 74
0
 49
-0.1
 74
0
  0
LTYPE
  5
1F7
100
AcDbSymbolTableRecord
100
AcDbLinetypeTableRecord
  2
PHANTOM
 70
64
  3
_____ _ _ _____ _ _ _____ _ _ _____
 72
65
 73
6
 40
0.8
 49
0.45
 74
0
 49
-0.05
 74
0
 49
0.1
 74
0
 49
-0.05
 74
0
 49
0.1
 74
0
 49
-0.05
 74
0
  0
LTYPE
  5
1F8
100
AcDbSymbolTableRecord
100
AcDbLinetypeTableRecord
  2
DOT
 70
64
  3
. . . . . . . . . . . . . . . . . . . .
 72
65
 73
2
 40
0.2
 49
0.1
 74
0
 49
-0.1
 74
0
  0
LTYPE
  5
1F9
100
AcDbSymbolTableRecord
100
AcDbLinetypeTableRecord
  2
DASHED
 70
64
  3
- - - - - - - - - - - - - - - - - - - -
 72
65
 73
2
 40
0.2
 49
0.1
 74
0
 49
-0.1
 74
0
  0
ENDTAB
  0
TABLE
  2
LAYER
  5
2
100
AcDbSymbolTable
 70
36
  0
LAYER
  5
10
100
AcDbSymbolTableRecord
100
AcDbLayerTableRecord
  2
0
 70
0
 62
7
  6
CONTINUOUS
370
-3
390
F
  0
LAYER
  5
1FA
100
AcDbSymbolTableRecord
100
AcDbLayerTableRecord
  2
DEFAULT_1
 70
0
 62
7
  6
CENTER
370
-3
390
F
  0
LAYER
  5
1FB
100
AcDbSymbolTableRecord
100
AcDbLayerTableRecord
  2
DEFAULT_2
 70
0
 62
8
  6
HIDDEN
370
-3
390
F
  0
LAYER
  5
1FC
100
AcDbSymbolTableRecord
100
AcDbLayerTableRecord
  2
DEFAULT_3
 70
0
 62
7
  6
PHANTOM
370
-3
390
F
  0
LAYER
  5
1FD
100
AcDbSymbolTableRecord
100
AcDbLayerTableRecord
  2
01_ALL_DTM_PLN
 70
0
 62
7
  6
CONTINUOUS
370
-3
390
F
  0
LAYER
  5
1FE
100
AcDbSymbolTableRecord
100
AcDbLayerTableRecord
  2
01__ASM_ALL_DTM_PLN
 70
0
 62
7
  6
CONTINUOUS
370
-3
390
F
  0
LAYER
  5
1FF
100
AcDbSymbolTableRecord
100
AcDbLayerTableRecord
  2
01__ASM_DEF_DTM_PLN
 70
0
 62
7
  6
CONTINUOUS
370
-3
390
F
  0
LAYER
  5
200
100
AcDbSymbolTableRecord
100
AcDbLayerTableRecord
  2
01___PRT_ALL_DTM_PLN
 70
0
 62
7
  6
CONTINUOUS
370
-3
390
F
  0
LAYER
  5
201
100
AcDbSymbolTableRecord
100
AcDbLayerTableRecord
  2
01___PRT_DEF_DTM_PLN
 70
0
 62
7
  6
CONTINUOUS
370
-3
390
F
  0
LAYER
  5
202
100
AcDbSymbolTableRecord
100
AcDbLayerTableRecord
  2
02_ALL_AXES
 70
0
 62
7
  6
CONTINUOUS
370
-3
390
F
  0
LAYER
  5
203
100
AcDbSymbolTableRecord
100
AcDbLayerTableRecord
  2
02__ASM_ALL_AXES
 70
0
 62
7
  6
CONTINUOUS
370
-3
390
F
  0
LAYER
  5
204
100
AcDbSymbolTableRecord
100
AcDbLayerTableRecord
  2
02___PRT_ALL_AXES
 70
0
 62
7
  6
CONTINUOUS
370
-3
390
F
  0
LAYER
  5
205
100
AcDbSymbolTableRecord
100
AcDbLayerTableRecord
  2
03_ALL_CURVES
 70
0
 62
7
  6
CONTINUOUS
370
-3
390
F
  0
LAYER
  5
206
100
AcDbSymbolTableRecord
100
AcDbLayerTableRecord
  2
03__ASM_ALL_CURVES
 70
0
 62
7
  6
CONTINUOUS
370
-3
390
F
  0
LAYER
  5
207
100
AcDbSymbolTableRecord
100
AcDbLayerTableRecord
  2
03___PRT_ALL_CURVES
 70
0
 62
7
  6
CONTINUOUS
370
-3
390
F
  0
LAYER
  5
208
100
AcDbSymbolTableRecord
100
AcDbLayerTableRecord
  2
04_ALL_DTM_PNT
 70
0
 62
7
  6
CONTINUOUS
370
-3
390
F
  0
LAYER
  5
209
100
AcDbSymbolTableRecord
100
AcDbLayerTableRecord
  2
04__ASM_ALL_DTM_PNT
 70
0
 62
7
  6
CONTINUOUS
370
-3
390
F
  0
LAYER
  5
20A
100
AcDbSymbolTableRecord
100
AcDbLayerTableRecord
  2
04___PRT_ALL_DTM_PNT
 70
0
 62
7
  6
CONTINUOUS
370
-3
390
F
  0
LAYER
  5
20B
100
AcDbSymbolTableRecord
100
AcDbLayerTableRecord
  2
05_ALL_DTM_CSYS
 70
0
 62
7
  6
CONTINUOUS
370
-3
390
F
  0
LAYER
  5
20C
100
AcDbSymbolTableRecord
100
AcDbLayerTableRecord
  2
05__ASM_ALL_DTM_CSYS
 70
0
 62
7
  6
CONTINUOUS
370
-3
390
F
  0
LAYER
  5
20D
100
AcDbSymbolTableRecord
100
AcDbLayerTableRecord
  2
05__ASM_DEF_DTM_CSYS
 70
0
 62
7
  6
CONTINUOUS
370
-3
390
F
  0
LAYER
  5
20E
100
AcDbSymbolTableRecord
100
AcDbLayerTableRecord
  2
05___PRT_ALL_DTM_CSYS
 70
0
 62
7
  6
CONTINUOUS
370
-3
390
F
  0
LAYER
  5
20F
100
AcDbSymbolTableRecord
100
AcDbLayerTableRecord
  2
05___PRT_DEF_DTM_CSYS
 70
0
 62
7
  6
CONTINUOUS
370
-3
390
F
  0
LAYER
  5
210
100
AcDbSymbolTableRecord
100
AcDbLayerTableRecord
  2
06_ALL_SURFS
 70
0
 62
7
  6
CONTINUOUS
370
-3
390
F
  0
LAYER
  5
211
100
AcDbSymbolTableRecord
100
AcDbLayerTableRecord
  2
06__ASM_ALL_SURFS
 70
0
 62
7
  6
CONTINUOUS
370
-3
390
F
  0
LAYER
  5
212
100
AcDbSymbolTableRecord
100
AcDbLayerTableRecord
  2
06___PRT_ALL_SURFS
 70
0
 62
7
  6
CONTINUOUS
370
-3
390
F
  0
LAYER
  5
213
100
AcDbSymbolTableRecord
100
AcDbLayerTableRecord
  2
07__ASM_ALL_SKELETONS
 70
0
 62
7
  6
CONTINUOUS
370
-3
390
F
  0
ENDTAB
  0
TABLE
  2
STYLE
  5
3
100
AcDbSymbolTable
 70
1
  0
STYLE
  5
11
100
AcDbSymbolTableRecord
100
AcDbTextStyleTableRecord
  2
STANDARD
 70
0
 40
0.0
 41
0.8
 50
0.0
 71
0
 42
0.2
  3
txt
  4

  0
STYLE
  5
214
100
AcDbSymbolTableRecord
100
AcDbTextStyleTableRecord
  2
TEXTSTYLE_1
 70
0
 40
0.0
 41
0.8
 50
0.0
 71
0
 42
0.2
  3
gdt
  4

  0
ENDTAB
  0
TABLE
  2
VIEW
  5
6
100
AcDbSymbolTable
 70
0
  0
ENDTAB
  0
TABLE
  2
UCS
  5
7
100
AcDbSymbolTable
 70
0
  0
ENDTAB
  0
TABLE
  2
APPID
  5
9
100
AcDbSymbolTable
 70
1
  0
APPID
  5
215
100
AcDbSymbolTableRecord
100
AcDbRegAppTableRecord
  2
ACAD
 70
0
  0
ENDTAB
  0
TABLE
  2
BLOCK_RECORD
  5
1
100
AcDbSymbolTable
 70
0
  0
BLOCK_RECORD
  5
216
100
AcDbSymbolTableRecord
100
AcDbBlockTableRecord
  2
*Model_Space
  0
BLOCK_RECORD
  5
217
100
AcDbSymbolTableRecord
100
AcDbBlockTableRecord
  2
*Paper_Space
  0
ENDTAB
  0
TABLE
  2
DIMSTYLE
  5
A
100
AcDbSymbolTable
 70
1
100
AcDbDimStyleTable
 71
0
  0
DIMSTYLE
105
218
100
AcDbSymbolTableRecord
100
AcDbDimStyleTableRecord
  2
STANDARD
 70
0
  3

  4

 40
1.0
 41
0.1875
 42
0.0625
 43
0.38
 44
0.125
 45
0.0
 46
0.0
 47
0.0001
 48
0.0001
140
0.15625
141
0.09
142
0.0
143
25.4
144
1.0
145
0.0
146
1.0
147
0.09
 71
0.0
 72
0.0
 73
1
 74
1
 75
0
 76
0
 77
0
 78
4
 79
1
170
0
171
3
172
0
173
0
174
0
175
0
176
0
177
0
178
0
270
2
179
4
271
4
272
4
273
2
274
2
275
0
280
0
281
0
282
0
283
1
284
4
285
0
286
0
287
3
288
0
340
11
278
46
  0
ENDTAB
  0
ENDSEC
  0
SECTION
  2
BLOCKS
  0
BLOCK
  5
20
100
AcDbEntity
  8
0
100
AcDbBlockBegin
  2
*Model_Space
 70
0
 10
0.0
 20
0.0
 30
0.0
  3
*Model_Space
  1

  0
ENDBLK
  5
21
100
AcDbEntity
  8
0
100
AcDbBlockEnd
  0
BLOCK
  5
1C
100
AcDbEntity
  8
0
100
AcDbBlockBegin
  2
*Paper_Space
 70
0
 10
0.0
 20
0.0
 30
0.0
  3
*Paper_Space
  1

  0
ENDBLK
  5
1D
100
AcDbEntity
  8
0
100
AcDbBlockEnd
  0
ENDSEC
  0
SECTION
  2
ENTITIES
  0
MTEXT
  5
219
100
AcDbEntity
  8
0
100
AcDbMText
 62
7
  6
CONTINUOUS
  7
STANDARD
 71
1
 72
1
 10
15.9560215477
 20
0.9479130325
 30
0.0
 11
1.0
 21
0.0
 31
0.0
 44
0.9
  1
SCALE: 1:1.000
 40
0.3
 41
3.36
  0
LINE
  5
21A
100
AcDbEntity
  8
0
100
AcDbLine
 62
7
  6
CONTINUOUS
 10
0.0
 20
0.0
 11
0.0
 21
17.0
  0
LINE
  5
21B
100
AcDbEntity
  8
0
100
AcDbLine
 62
7
  6
CONTINUOUS
 10
0.0
 20
0.0
 11
22.0
 21
0.0
  0
LINE
  5
21C
100
AcDbEntity
  8
0
100
AcDbLine
 62
7
  6
CONTINUOUS
 10
0.0
 20
17.0
 11
22.0
 21
17.0
  0
LINE
  5
21D
100
AcDbEntity
  8
0
100
AcDbLine
 62
7
  6
CONTINUOUS
 10
22.0
 20
0.0
 11
22.0
 21
17.0
  0
LINE
  5
21E
100
AcDbEntity
  8
0
100
AcDbLine
 62
7
  6
CONTINUOUS
 10
5.3491172762
 20
5.8136198968
 11
5.3491172762
 21
5.6925351465
  0
LINE
  5
21F
100
AcDbEntity
  8
0
100
AcDbLine
 62
7
  6
CONTINUOUS
 10
5.4721650319
 20
5.2201494206
 11
5.3525246935
 21
5.666653242
  0
LINE
  5
220
100
AcDbEntity
  8
0
100
AcDbLine
 62
7
  6
CONTINUOUS
 10
5.4963131775
 20
5.2016198968
 11
6.7644213748
 21
5.2016198968
  0
LINE
  5
221
100
AcDbEntity
  8
0
100
AcDbLine
 62
7
  6
CONTINUOUS
 10
5.4394186324
 20
5.4139532301
 11
6.82131592
 21
5.4139532301
  0
LINE
  5
222
100
AcDbEntity
  8
0
100
AcDbLine
 62
7
  6
CONTINUOUS
 10
6.8866172762
 20
5.8386198968
 11
5.3741172762
 21
5.8386198968
  0
LINE
  5
223
100
AcDbEntity
  8
0
100
AcDbLine
 62
7
  6
CONTINUOUS
 10
6.7885695204
 20
5.2201494206
 11
6.9082098588
 21
5.666653242
  0
LINE
  5
224
100
AcDbEntity
  8
0
100
AcDbLine
 62
7
  6
CONTINUOUS
 10
6.9116172762
 20
5.6925351465
 11
6.9116172762
 21
5.8136198968
  0
LINE
  5
225
100
AcDbEntity
  8
0
100
AcDbLine
 62
7
  6
CONTINUOUS
 10
6.8521220839
 20
10.6000477814
 11
5.2896220839
 21
10.6000477814
  0
LINE
  5
226
100
AcDbEntity
  8
0
100
AcDbLine
 62
7
  6
CONTINUOUS
 10
5.2896220839
 20
10.6000477814
 11
5.2896220839
 21
14.6000477814
  0
LINE
  5
227
100
AcDbEntity
  8
0
100
AcDbLine
 62
7
  6
CONTINUOUS
 10
6.8521220839
 20
10.6000477814
 11
6.8521220839
 21
14.6000477814
  0
LINE
  5
228
100
AcDbEntity
  8
0
100
AcDbLine
 62
7
  6
CONTINUOUS
 10
5.2896220839
 20
14.6000477814
 11
6.8521220839
 21
14.6000477814
  0
LINE
  5
229
100
AcDbEntity
  8
0
100
AcDbLine
 62
7
  6
CONTINUOUS
 10
13.5603552569
 20
5.3544580378
 11
13.5603552569
 21
5.7791247044
  0
LINE
  5
22A
100
AcDbEntity
  8
0
100
AcDbLine
 62
7
  6
CONTINUOUS
 10
13.6703431717
 20
5.3133158562
 11
13.7003673422
 21
5.183266886
  0
LINE
  5
22B
100
AcDbEntity
  8
0
100
AcDbLine
 62
7
  6
CONTINUOUS
 10
13.9203431717
 20
5.183266886
 11
13.9503673422
 21
5.3133158562
  0
LINE
  5
22C
100
AcDbEntity
  8
0
100
AcDbLine
 62
7
  6
CONTINUOUS
 10
14.1703431717
 20
5.3133158562
 11
14.2003673422
 21
5.183266886
  0
LINE
  5
22D
100
AcDbEntity
  8
0
100
AcDbLine
 62
7
  6
CONTINUOUS
 10
14.4203431717
 20
5.183266886
 11
14.4503673422
 21
5.3133158562
  0
LINE
  5
22E
100
AcDbEntity
  8
0
100
AcDbLine
 62
7
  6
CONTINUOUS
 10
14.6703431717
 20
5.3133158562
 11
14.7003673422
 21
5.183266886
  0
LINE
  5
22F
100
AcDbEntity
  8
0
100
AcDbLine
 62
7
  6
CONTINUOUS
 10
14.9203431717
 20
5.183266886
 11
14.9503673422
 21
5.3133158562
  0
LINE
  5
230
100
AcDbEntity
  8
0
100
AcDbLine
 62
7
  6
CONTINUOUS
 10
15.1703431717
 20
5.3133158562
 11
15.2003673422
 21
5.183266886
  0
LINE
  5
231
100
AcDbEntity
  8
0
100
AcDbLine
 62
7
  6
CONTINUOUS
 10
13.7520901531
 20
5.1421247044
 11
13.8686203607
 21
5.1421247044
  0
LINE
  5
232
100
AcDbEntity
  8
0
100
AcDbLine
 62
7
  6
CONTINUOUS
 10
14.2520901531
 20
5.1421247044
 11
14.3686203607
 21
5.1421247044
  0
LINE
  5
233
100
AcDbEntity
  8
0
100
AcDbLine
 62
7
  6
CONTINUOUS
 10
14.7520901531
 20
5.1421247044
 11
14.8686203607
 21
5.1421247044
  0
LINE
  5
234
100
AcDbEntity
  8
0
100
AcDbLine
 62
7
  6
CONTINUOUS
 10
15.2520901531
 20
5.1421247044
 11
15.3686203607
 21
5.1421247044
  0
LINE
  5
235
100
AcDbEntity
  8
0
100
AcDbLine
 62
7
  6
CONTINUOUS
 10
15.7520901531
 20
5.1421247044
 11
15.8686203607
 21
5.1421247044
  0
LINE
  5
236
100
AcDbEntity
  8
0
100
AcDbLine
 62
7
  6
CONTINUOUS
 10
16.2520901531
 20
5.1421247044
 11
16.3686203607
 21
5.1421247044
  0
LINE
  5
237
100
AcDbEntity
  8
0
100
AcDbLine
 62
7
  6
CONTINUOUS
 10
16.7520901531
 20
5.1421247044
 11
16.8686203607
 21
5.1421247044
  0
LINE
  5
238
100
AcDbEntity
  8
0
100
AcDbLine
 62
7
  6
CONTINUOUS
 10
17.2520901531
 20
5.1421247044
 11
17.3686203607
 21
5.1421247044
  0
LINE
  5
239
100
AcDbEntity
  8
0
100
AcDbLine
 62
7
  6
CONTINUOUS
 10
15.4203431717
 20
5.183266886
 11
15.4503673422
 21
5.3133158562
  0
LINE
  5
23A
100
AcDbEntity
  8
0
100
AcDbLine
 62
7
  6
CONTINUOUS
 10
13.5603552569
 20
5.3544580378
 11
13.6186203607
 21
5.3544580378
  0
LINE
  5
23B
100
AcDbEntity
  8
0
100
AcDbLine
 62
7
  6
CONTINUOUS
 10
14.0020901531
 20
5.3544580378
 11
14.1186203607
 21
5.3544580378
  0
LINE
  5
23C
100
AcDbEntity
  8
0
100
AcDbLine
 62
7
  6
CONTINUOUS
 10
14.5020901531
 20
5.3544580378
 11
14.6186203607
 21
5.3544580378
  0
LINE
  5
23D
100
AcDbEntity
  8
0
100
AcDbLine
 62
7
  6
CONTINUOUS
 10
15.0020901531
 20
5.3544580378
 11
15.1186203607
 21
5.3544580378
  0
LINE
  5
23E
100
AcDbEntity
  8
0
100
AcDbLine
 62
7
  6
CONTINUOUS
 10
15.5020901531
 20
5.3544580378
 11
15.6186203607
 21
5.3544580378
  0
LINE
  5
23F
100
AcDbEntity
  8
0
100
AcDbLine
 62
7
  6
CONTINUOUS
 10
16.0020901531
 20
5.3544580378
 11
16.1186203607
 21
5.3544580378
  0
LINE
  5
240
100
AcDbEntity
  8
0
100
AcDbLine
 62
7
  6
CONTINUOUS
 10
16.5020901531
 20
5.3544580378
 11
16.6186203607
 21
5.3544580378
  0
LINE
  5
241
100
AcDbEntity
  8
0
100
AcDbLine
 62
7
  6
CONTINUOUS
 10
17.0020901531
 20
5.3544580378
 11
17.1186203607
 21
5.3544580378
  0
LINE
  5
242
100
AcDbEntity
  8
0
100
AcDbLine
 62
7
  6
CONTINUOUS
 10
17.5020901531
 20
5.3544580378
 11
17.5603552569
 21
5.3544580378
  0
LINE
  5
243
100
AcDbEntity
  8
0
100
AcDbLine
 62
7
  6
CONTINUOUS
 10
15.6703431717
 20
5.3133158562
 11
15.7003673422
 21
5.183266886
  0
LINE
  5
244
100
AcDbEntity
  8
0
100
AcDbLine
 62
7
  6
CONTINUOUS
 10
15.9203431717
 20
5.183266886
 11
15.9503673422
 21
5.3133158562
  0
LINE
  5
245
100
AcDbEntity
  8
0
100
AcDbLine
 62
7
  6
CONTINUOUS
 10
13.5603552569
 20
5.7791247044
 11
17.5603552569
 21
5.7791247044
  0
LINE
  5
246
100
AcDbEntity
  8
0
100
AcDbLine
 62
7
  6
CONTINUOUS
 10
16.1703431717
 20
5.3133158562
 11
16.2003673422
 21
5.183266886
  0
LINE
  5
247
100
AcDbEntity
  8
0
100
AcDbLine
 62
7
  6
CONTINUOUS
 10
16.4203431717
 20
5.183266886
 11
16.4503673422
 21
5.3133158562
  0
LINE
  5
248
100
AcDbEntity
  8
0
100
AcDbLine
 62
7
  6
CONTINUOUS
 10
16.6703431717
 20
5.3133158562
 11
16.7003673422
 21
5.183266886
  0
LINE
  5
249
100
AcDbEntity
  8
0
100
AcDbLine
 62
7
  6
CONTINUOUS
 10
16.9203431717
 20
5.183266886
 11
16.9503673422
 21
5.3133158562
  0
LINE
  5
24A
100
AcDbEntity
  8
0
100
AcDbLine
 62
7
  6
CONTINUOUS
 10
17.1703431717
 20
5.3133158562
 11
17.2003673422
 21
5.183266886
  0
LINE
  5
24B
100
AcDbEntity
  8
0
100
AcDbLine
 62
7
  6
CONTINUOUS
 10
17.5603552569
 20
5.3544580378
 11
17.5603552569
 21
5.7791247044
  0
LINE
  5
24C
100
AcDbEntity
  8
0
100
AcDbLine
 62
7
  6
CONTINUOUS
 10
17.4203431717
 20
5.183266886
 11
17.4503673422
 21
5.3133158562
  0
LINE
  5
24D
100
AcDbEntity
  8
0
100
AcDbLine
 62
7
  6
CONTINUOUS
 10
14.5808725485
 20
10.8130793568
 11
14.5876160882
 21
10.8112928908
  0
LINE
  5
24E
100
AcDbEntity
  8
0
100
AcDbLine
 62
7
  6
CONTINUOUS
 10
14.2883192973
 20
10.9701602032
 11
14.4175438027
 21
10.8245974936
  0
LWPOLYLINE
  5
24F
100
AcDbEntity
  8
0
100
AcDbPolyline
 62
7
  6
CONTINUOUS
 90
5
 70
0
 10
15.7634594775
 20
10.8111957946
 10
15.7723759526
 20
10.8127611029
 10
15.7800348705
 20
10.8170499701
 10
15.785634486
 20
10.8229241253
 10
15.7893687941
 20
10.8292219756
  0
LINE
  5
250
100
AcDbEntity
  8
0
100
AcDbLine
 62
7
  6
CONTINUOUS
 10
14.5902088039
 20
10.8111957397
 11
15.7634594953
 21
10.8111957397
  0
LINE
  5
251
100
AcDbEntity
  8
0
100
AcDbLine
 62
7
  6
CONTINUOUS
 10
14.4454379983
 20
10.8130793568
 11
15.7182496876
 21
10.8130793568
  0
LINE
  5
252
100
AcDbEntity
  8
0
100
AcDbLine
 62
7
  6
CONTINUOUS
 10
14.5876160882
 20
10.8112928908
 11
14.5902499809
 21
10.8111958548
  0
LINE
  5
253
100
AcDbEntity
  8
0
100
AcDbLine
 62
7
  6
CONTINUOUS
 10
14.2403498753
 20
11.0615161408
 11
14.2772857936
 21
10.986248653
  0
LINE
  5
254
100
AcDbEntity
  8
0
100
AcDbLine
 62
7
  6
CONTINUOUS
 10
15.648855107
 20
11.07705639
 11
14.2557503535
 21
11.07705639
  0
LWPOLYLINE
  5
255
100
AcDbEntity
  8
0
100
AcDbPolyline
 62
7
  6
CONTINUOUS
 90
5
 70
0
 10
15.8844926392
 20
11.2028592495
 10
15.8934091143
 20
11.2044245577
 10
15.9010680322
 20
11.208713425
 10
15.9066676477
 20
11.2145875801
 10
15.9104019558
 20
11.2208854304
  0
LINE
  5
256
100
AcDbEntity
  8
0
100
AcDbLine
 62
7
  6
CONTINUOUS
 10
15.8524389003
 20
11.2028591946
 11
15.884492657
 21
11.2028591946
  0
LWPOLYLINE
  5
257
100
AcDbEntity
  8
0
100
AcDbPolyline
 62
7
  6
CONTINUOUS
 90
5
 70
0
 10
16.0055258009
 20
11.5945227043
 10
16.014442276
 20
11.5960880126
 10
16.0221011939
 20
11.6003768798
 10
16.0277008094
 20
11.6062510349
 10
16.0314351175
 20
11.6125488852
  0
LINE
  5
258
100
AcDbEntity
  8
0
100
AcDbLine
 62
7
  6
CONTINUOUS
 10
15.973472062
 20
11.5945226494
 11
16.0055258187
 21
11.5945226494
  0
LINE
  5
259
100
AcDbEntity
  8
0
100
AcDbLine
 62
7
  6
CONTINUOUS
 10
14.2394908791
 20
11.0688973251
 11
15.2077561727
 21
14.2022049636
  0
LWPOLYLINE
  5
25A
100
AcDbEntity
  8
0
100
AcDbPolyline
 62
7
  6
CONTINUOUS
 90
5
 70
0
 10
16.1265589626
 20
11.9861861591
 10
16.1354754377
 20
11.9877514674
 10
16.1431343556
 20
11.9920403346
 10
16.1487339711
 20
11.9979144897
 10
16.1524682792
 20
12.00421234
  0
LINE
  5
25B
100
AcDbEntity
  8
0
100
AcDbLine
 62
7
  6
CONTINUOUS
 10
16.0945052237
 20
11.9861861042
 11
16.1265589804
 21
11.9861861042
  0
LINE
  5
25C
100
AcDbEntity
  8
0
100
AcDbLine
 62
7
  6
CONTINUOUS
 10
15.7164435967
 20
10.986248653
 11
15.6795076785
 21
11.0615161408
  0
LWPOLYLINE
  5
25D
100
AcDbEntity
  8
0
100
AcDbPolyline
 62
7
  6
CONTINUOUS
 90
5
 70
0
 10
16.2475921243
 20
12.3778496139
 10
16.2565085994
 20
12.3794149222
 10
16.2641675173
 20
12.3837037894
 10
16.2697671328
 20
12.3895779445
 10
16.2735014409
 20
12.3958757948
  0
LINE
  5
25E
100
AcDbEntity
  8
0
100
AcDbLine
 62
7
  6
CONTINUOUS
 10
16.2155383854
 20
12.377849559
 11
16.2475921421
 21
12.377849559
  0
LINE
  5
25F
100
AcDbEntity
  8
0
100
AcDbLine
 62
7
  6
CONTINUOUS
 10
15.7348393221
 20
10.8245974936
 11
15.7212002219
 21
10.9701602032
  0
LWPOLYLINE
  5
260
100
AcDbEntity
  8
0
100
AcDbPolyline
 62
7
  6
CONTINUOUS
 90
5
 70
0
 10
16.368625286
 20
12.7695130687
 10
16.3775417611
 20
12.771078377
 10
16.385200679
 20
12.7753672442
 10
16.3908002945
 20
12.7812413993
 10
16.3945346026
 20
12.7875392496
  0
LINE
  5
261
100
AcDbEntity
  8
0
100
AcDbLine
 62
7
  6
CONTINUOUS
 10
16.3365715471
 20
12.7695130138
 11
16.3686253038
 21
12.7695130138
  0
LINE
  5
262
100
AcDbEntity
  8
0
100
AcDbLine
 62
7
  6
CONTINUOUS
 10
15.8279673961
 20
10.9731414791
 11
15.8276606232
 21
11.0774999557
  0
LWPOLYLINE
  5
263
100
AcDbEntity
  8
0
100
AcDbPolyline
 62
7
  6
CONTINUOUS
 90
7
 70
0
 10
15.8276600783
 20
11.0775234907
 10
15.8278276247
 20
11.0859801731
 10
15.829072349
 20
11.1032714749
 10
15.8315218636
 20
11.1224580441
 10
15.8349596397
 20
11.141574508
 10
15.8389868606
 20
11.1587096972
 10
15.841433317
 20
11.1672488679
  0
LINE
  5
264
100
AcDbEntity
  8
0
100
AcDbLine
 62
7
  6
CONTINUOUS
 10
15.8276669643
 20
10.9647822266
 11
15.8279670835
 21
10.9731974102
  0
LINE
  5
265
100
AcDbEntity
  8
0
100
AcDbLine
 62
7
  6
CONTINUOUS
 10
15.7345062065
 20
10.8212393309
 11
15.7348393221
 21
10.8245974936
  0
LINE
  5
266
100
AcDbEntity
  8
0
100
AcDbLine
 62
7
  6
CONTINUOUS
 10
15.9490005578
 20
11.3648049339
 11
15.9486937849
 21
11.4691634105
  0
LWPOLYLINE
  5
267
100
AcDbEntity
  8
0
100
AcDbPolyline
 62
7
  6
CONTINUOUS
 90
7
 70
0
 10
15.94869324
 20
11.4691869456
 10
15.9488607864
 20
11.4776436279
 10
15.9501055107
 20
11.4949349297
 10
15.9525550253
 20
11.5141214989
 10
15.9559928014
 20
11.5332379628
 10
15.9600200223
 20
11.550373152
 10
15.9624664787
 20
11.5589123227
  0
LINE
  5
268
100
AcDbEntity
  8
0
100
AcDbLine
 62
7
  6
CONTINUOUS
 10
15.948700126
 20
11.3564456815
 11
15.9490002452
 21
11.364860865
  0
LWPOLYLINE
  5
269
100
AcDbEntity
  8
0
100
AcDbPolyline
 62
7
  6
CONTINUOUS
 90
5
 70
0
 10
16.4896584477
 20
13.1611765235
 10
16.4985749228
 20
13.1627418318
 10
16.5062338407
 20
13.167030699
 10
16.5118334563
 20
13.1729048542
 10
16.5155677643
 20
13.1792027045
  0
LINE
  5
26A
100
AcDbEntity
  8
0
100
AcDbLine
 62
7
  6
CONTINUOUS
 10
16.1910668812
 20
12.1481318436
 11
16.1910665705
 21
12.1481877747
  0
LINE
  5
26B
100
AcDbEntity
  8
0
100
AcDbLine
 62
7
  6
CONTINUOUS
 10
16.0700337195
 20
11.7564683888
 11
16.0697269466
 21
11.8608268653
  0
LWPOLYLINE
  5
26C
100
AcDbEntity
  8
0
100
AcDbPolyline
 62
7
  6
CONTINUOUS
 90
7
 70
0
 10
16.0697264017
 20
11.8608504004
 10
16.0698939481
 20
11.8693070827
 10
16.0711386724
 20
11.8865983845
 10
16.073588187
 20
11.9057849538
 10
16.0770259631
 20
11.9249014176
 10
16.081053184
 20
11.9420366068
 10
16.0834996404
 20
11.9505757775
  0
LINE
  5
26D
100
AcDbEntity
  8
0
100
AcDbLine
 62
7
  6
CONTINUOUS
 10
16.0697332877
 20
11.7481091363
 11
16.0700334069
 21
11.7565243198
  0
LWPOLYLINE
  5
26E
100
AcDbEntity
  8
0
100
AcDbPolyline
 62
7
  6
CONTINUOUS
 90
3
 70
0
 10
15.8234488118
 20
10.9378283011
 10
15.8260959294
 20
10.951140033
 10
15.8276669643
 20
10.9647822266
  0
LWPOLYLINE
  5
26F
100
AcDbEntity
  8
0
100
AcDbPolyline
 62
7
  6
CONTINUOUS
 90
3
 70
0
 10
15.9444819735
 20
11.329491756
 10
15.9471290911
 20
11.3428034878
 10
15.948700126
 20
11.3564456815
  0
LINE
  5
270
100
AcDbEntity
  8
0
100
AcDbLine
 62
7
  6
CONTINUOUS
 10
16.5965241201
 20
13.6106757845
 11
16.5989978718
 21
13.6177471516
  0
LINE
  5
271
100
AcDbEntity
  8
0
100
AcDbLine
 62
7
  6
CONTINUOUS
 10
16.4754909584
 20
13.2190123297
 11
16.4779647101
 21
13.2260836968
  0
LINE
  5
272
100
AcDbEntity
  8
0
100
AcDbLine
 62
7
  6
CONTINUOUS
 10
16.636600926
 20
13.5708661593
 11
16.6393887513
 21
13.5776493265
  0
LINE
  5
273
100
AcDbEntity
  8
0
100
AcDbLine
 62
7
  6
CONTINUOUS
 10
16.5155677643
 20
13.1792027045
 11
16.5183555896
 21
13.1859858717
  0
LWPOLYLINE
  5
274
100
AcDbEntity
  8
0
100
AcDbPolyline
 62
7
  6
CONTINUOUS
 90
4
 70
0
 10
16.5989978718
 20
13.6177471516
 10
16.6011875039
 20
13.6229717343
 10
16.6027330114
 20
13.6259594033
 10
16.6030752895
 20
13.6265015247
  0
LWPOLYLINE
  5
275
100
AcDbEntity
  8
0
100
AcDbPolyline
 62
7
  6
CONTINUOUS
 90
4
 70
0
 10
16.4779647101
 20
13.2260836968
 10
16.4801543422
 20
13.2313082795
 10
16.4816998497
 20
13.2342959484
 10
16.4820421278
 20
13.2348380699
  0
LWPOLYLINE
  5
276
100
AcDbEntity
  8
0
100
AcDbPolyline
 62
7
  6
CONTINUOUS
 90
4
 70
0
 10
16.3569315484
 20
12.834420242
 10
16.3591211805
 20
12.8396448247
 10
16.360666688
 20
12.8426324936
 10
16.3610089661
 20
12.8431746151
  0
LINE
  5
277
100
AcDbEntity
  8
0
100
AcDbLine
 62
7
  6
CONTINUOUS
 10
16.4576047088
 20
13.1611764686
 11
16.4896584655
 21
13.1611764686
  0
LINE
  5
278
100
AcDbEntity
  8
0
100
AcDbLine
 62
7
  6
CONTINUOUS
 10
16.1910668812
 20
12.1481318436
 11
16.1907601083
 21
12.2524903201
  0
LINE
  5
279
100
AcDbEntity
  8
0
100
AcDbLine
 62
7
  6
CONTINUOUS
 10
16.3121000429
 20
12.5397952984
 11
16.31179327
 21
12.6441537749
  0
LWPOLYLINE
  5
27A
100
AcDbEntity
  8
0
100
AcDbPolyline
 62
7
  6
CONTINUOUS
 90
7
 70
0
 10
16.1907595634
 20
12.2525138552
 10
16.1909271098
 20
12.2609705375
 10
16.1921718341
 20
12.2782618393
 10
16.1946213487
 20
12.2974484086
 10
16.1980591248
 20
12.3165648725
 10
16.2020863457
 20
12.3337000616
 10
16.2045328021
 20
12.3422392324
  0
LWPOLYLINE
  5
27B
100
AcDbEntity
  8
0
100
AcDbPolyline
 62
7
  6
CONTINUOUS
 90
7
 70
0
 10
16.3117927251
 20
12.64417731
 10
16.3119602715
 20
12.6526339923
 10
16.3132049958
 20
12.6699252941
 10
16.3156545104
 20
12.6891118634
 10
16.3190922865
 20
12.7082283273
 10
16.3231195074
 20
12.7253635164
 10
16.3255659638
 20
12.7339026872
  0
LINE
  5
27C
100
AcDbEntity
  8
0
100
AcDbLine
 62
7
  6
CONTINUOUS
 10
16.1907664494
 20
12.1397725911
 11
16.1910665686
 21
12.1481877746
  0
LINE
  5
27D
100
AcDbEntity
  8
0
100
AcDbLine
 62
7
  6
CONTINUOUS
 10
16.3117996111
 20
12.5314360459
 11
16.3120997303
 21
12.5398512295
  0
LWPOLYLINE
  5
27E
100
AcDbEntity
  8
0
100
AcDbPolyline
 62
7
  6
CONTINUOUS
 90
3
 70
0
 10
16.0655151352
 20
11.7211552108
 10
16.0681622528
 20
11.7344669426
 10
16.0697332877
 20
11.7481091363
  0
LWPOLYLINE
  5
27F
100
AcDbEntity
  8
0
100
AcDbPolyline
 62
7
  6
CONTINUOUS
 90
3
 70
0
 10
16.1865482969
 20
12.1128186656
 10
16.1891954145
 20
12.1261303974
 10
16.1907664494
 20
12.1397725911
  0
LWPOLYLINE
  5
280
100
AcDbEntity
  8
0
100
AcDbPolyline
 62
7
  6
CONTINUOUS
 90
3
 70
0
 10
16.3075814586
 20
12.5044821204
 10
16.3102285762
 20
12.5177938522
 10
16.3117996111
 20
12.5314360459
  0
LINE
  5
281
100
AcDbEntity
  8
0
100
AcDbLine
 62
7
  6
CONTINUOUS
 10
15.8214874132
 20
10.930691538
 11
15.8234488118
 21
10.9378283011
  0
LINE
  5
282
100
AcDbEntity
  8
0
100
AcDbLine
 62
7
  6
CONTINUOUS
 10
15.9425205749
 20
11.3223549928
 11
15.9444819735
 21
11.329491756
  0
LINE
  5
283
100
AcDbEntity
  8
0
100
AcDbLine
 62
7
  6
CONTINUOUS
 10
16.0635537366
 20
11.7140184476
 11
16.0655151352
 21
11.7211552108
  0
LINE
  5
284
100
AcDbEntity
  8
0
100
AcDbLine
 62
7
  6
CONTINUOUS
 10
16.1845868983
 20
12.1056819024
 11
16.1865482969
 21
12.1128186656
  0
LINE
  5
285
100
AcDbEntity
  8
0
100
AcDbLine
 62
7
  6
CONTINUOUS
 10
16.30562006
 20
12.4973453572
 11
16.3075814586
 21
12.5044821204
  0
LINE
  5
286
100
AcDbEntity
  8
0
100
AcDbLine
 62
7
  6
CONTINUOUS
 10
16.4266532217
 20
12.889008812
 11
16.4286146203
 21
12.8961455752
  0
LINE
  5
287
100
AcDbEntity
  8
0
100
AcDbLine
 62
7
  6
CONTINUOUS
 10
16.5476863834
 20
13.2806722668
 11
16.549647782
 21
13.28780903
  0
LINE
  5
288
100
AcDbEntity
  8
0
100
AcDbLine
 62
7
  6
CONTINUOUS
 10
16.6687195451
 20
13.6723357217
 11
16.6706809437
 21
13.6794724848
  0
LINE
  5
289
100
AcDbEntity
  8
0
100
AcDbLine
 62
7
  6
CONTINUOUS
 10
15.7354854879
 20
10.8243978132
 11
15.7486131824
 21
10.8668790483
  0
LINE
  5
28A
100
AcDbEntity
  8
0
100
AcDbLine
 62
7
  6
CONTINUOUS
 10
15.8414383043
 20
11.1672612528
 11
15.8696463441
 21
11.2585425032
  0
LINE
  5
28B
100
AcDbEntity
  8
0
100
AcDbLine
 62
7
  6
CONTINUOUS
 10
15.962471466
 20
11.5589247077
 11
15.9906795058
 21
11.650205958
  0
LINE
  5
28C
100
AcDbEntity
  8
0
100
AcDbLine
 62
7
  6
CONTINUOUS
 10
16.0835046277
 20
11.9505881625
 11
16.1117126675
 21
12.0418694128
  0
LINE
  5
28D
100
AcDbEntity
  8
0
100
AcDbLine
 62
7
  6
CONTINUOUS
 10
16.2045377894
 20
12.3422516173
 11
16.2327458292
 21
12.4335328676
  0
LINE
  5
28E
100
AcDbEntity
  8
0
100
AcDbLine
 62
7
  6
CONTINUOUS
 10
16.3255709511
 20
12.7339150721
 11
16.3537789909
 21
12.8251963224
  0
LINE
  5
28F
100
AcDbEntity
  8
0
100
AcDbLine
 62
7
  6
CONTINUOUS
 10
16.4466041128
 20
13.1255785269
 11
16.4748121526
 21
13.2168597772
  0
LINE
  5
290
100
AcDbEntity
  8
0
100
AcDbLine
 62
7
  6
CONTINUOUS
 10
16.5676372745
 20
13.5172419817
 11
16.5958453143
 21
13.608523232
  0
LINE
  5
291
100
AcDbEntity
  8
0
100
AcDbLine
 62
7
  6
CONTINUOUS
 10
16.6886704362
 20
13.9089054365
 11
16.7027744557
 21
13.9545460602
  0
LINE
  5
292
100
AcDbEntity
  8
0
100
AcDbLine
 62
7
  6
CONTINUOUS
 10
15.7932889334
 20
10.8394410088
 11
15.8214969724
 21
10.9307222563
  0
LINE
  5
293
100
AcDbEntity
  8
0
100
AcDbLine
 62
7
  6
CONTINUOUS
 10
15.9143220951
 20
11.2311044637
 11
15.9425301341
 21
11.3223857111
  0
LINE
  5
294
100
AcDbEntity
  8
0
100
AcDbLine
 62
7
  6
CONTINUOUS
 10
16.0353552568
 20
11.6227679185
 11
16.0635632958
 21
11.7140491659
  0
LINE
  5
295
100
AcDbEntity
  8
0
100
AcDbLine
 62
7
  6
CONTINUOUS
 10
16.1563884186
 20
12.0144313733
 11
16.1845964575
 21
12.1057126207
  0
LINE
  5
296
100
AcDbEntity
  8
0
100
AcDbLine
 62
7
  6
CONTINUOUS
 10
16.2774215803
 20
12.4060948281
 11
16.3056296192
 21
12.4973760756
  0
LINE
  5
297
100
AcDbEntity
  8
0
100
AcDbLine
 62
7
  6
CONTINUOUS
 10
16.398454742
 20
12.7977582829
 11
16.4266627809
 21
12.8890395304
  0
LINE
  5
298
100
AcDbEntity
  8
0
100
AcDbLine
 62
7
  6
CONTINUOUS
 10
16.5194879037
 20
13.1894217377
 11
16.5476959426
 21
13.2807029852
  0
LINE
  5
299
100
AcDbEntity
  8
0
100
AcDbLine
 62
7
  6
CONTINUOUS
 10
16.6405210654
 20
13.5810851925
 11
16.6687291043
 21
13.67236644
  0
LINE
  5
29A
100
AcDbEntity
  8
0
100
AcDbLine
 62
7
  6
CONTINUOUS
 10
16.5958442734
 20
13.608523167
 11
16.5965241201
 21
13.6106757845
  0
LINE
  5
29B
100
AcDbEntity
  8
0
100
AcDbLine
 62
7
  6
CONTINUOUS
 10
16.4748111117
 20
13.2168597122
 11
16.4754909584
 21
13.2190123297
  0
LINE
  5
29C
100
AcDbEntity
  8
0
100
AcDbLine
 62
7
  6
CONTINUOUS
 10
16.35377795
 20
12.8251962573
 11
16.3544577967
 21
12.8273488749
  0
LINE
  5
29D
100
AcDbEntity
  8
0
100
AcDbLine
 62
7
  6
CONTINUOUS
 10
16.2327447883
 20
12.4335328025
 11
16.233424635
 21
12.43568542
  0
LINE
  5
29E
100
AcDbEntity
  8
0
100
AcDbLine
 62
7
  6
CONTINUOUS
 10
16.1117116266
 20
12.0418693477
 11
16.1123914733
 21
12.0440219652
  0
LINE
  5
29F
100
AcDbEntity
  8
0
100
AcDbLine
 62
7
  6
CONTINUOUS
 10
15.9906784649
 20
11.6502058929
 11
15.9913583116
 21
11.6523585104
  0
LINE
  5
2A0
100
AcDbEntity
  8
0
100
AcDbLine
 62
7
  6
CONTINUOUS
 10
15.8696453032
 20
11.2585424381
 11
15.8703251499
 21
11.2606950556
  0
LINE
  5
2A1
100
AcDbEntity
  8
0
100
AcDbLine
 62
7
  6
CONTINUOUS
 10
15.7486121415
 20
10.8668789833
 11
15.7492919881
 21
10.8690316008
  0
LINE
  5
2A2
100
AcDbEntity
  8
0
100
AcDbLine
 62
7
  6
CONTINUOUS
 10
16.6393887513
 20
13.5776493265
 11
16.6405275367
 21
13.5811062422
  0
LINE
  5
2A3
100
AcDbEntity
  8
0
100
AcDbLine
 62
7
  6
CONTINUOUS
 10
16.5183555896
 20
13.1859858717
 11
16.519494375
 21
13.1894427874
  0
LINE
  5
2A4
100
AcDbEntity
  8
0
100
AcDbLine
 62
7
  6
CONTINUOUS
 10
16.3973224279
 20
12.7943224169
 11
16.3984612133
 21
12.7977793326
  0
LINE
  5
2A5
100
AcDbEntity
  8
0
100
AcDbLine
 62
7
  6
CONTINUOUS
 10
16.2762892662
 20
12.4026589621
 11
16.2774280516
 21
12.4061158778
  0
LINE
  5
2A6
100
AcDbEntity
  8
0
100
AcDbLine
 62
7
  6
CONTINUOUS
 10
16.1552561044
 20
12.0109955073
 11
16.1563948899
 21
12.014452423
  0
LINE
  5
2A7
100
AcDbEntity
  8
0
100
AcDbLine
 62
7
  6
CONTINUOUS
 10
16.0342229427
 20
11.6193320525
 11
16.0353617282
 21
11.6227889681
  0
LINE
  5
2A8
100
AcDbEntity
  8
0
100
AcDbLine
 62
7
  6
CONTINUOUS
 10
15.913189781
 20
11.2276685976
 11
15.9143285664
 21
11.2311255133
  0
LINE
  5
2A9
100
AcDbEntity
  8
0
100
AcDbLine
 62
7
  6
CONTINUOUS
 10
15.7921566193
 20
10.8360051428
 11
15.7932954047
 21
10.8394620585
  0
LINE
  5
2AA
100
AcDbEntity
  8
0
100
AcDbLine
 62
7
  6
CONTINUOUS
 10
16.3544577967
 20
12.8273488749
 11
16.3569315484
 21
12.834420242
  0
LINE
  5
2AB
100
AcDbEntity
  8
0
100
AcDbLine
 62
7
  6
CONTINUOUS
 10
16.233424635
 20
12.43568542
 11
16.2358983867
 21
12.4427567872
  0
LINE
  5
2AC
100
AcDbEntity
  8
0
100
AcDbLine
 62
7
  6
CONTINUOUS
 10
16.1123914733
 20
12.0440219652
 11
16.114865225
 21
12.0510933324
  0
LINE
  5
2AD
100
AcDbEntity
  8
0
100
AcDbLine
 62
7
  6
CONTINUOUS
 10
15.9913583116
 20
11.6523585104
 11
15.9938320633
 21
11.6594298776
  0
LINE
  5
2AE
100
AcDbEntity
  8
0
100
AcDbLine
 62
7
  6
CONTINUOUS
 10
15.8703251499
 20
11.2606950556
 11
15.8727989016
 21
11.2677664228
  0
LINE
  5
2AF
100
AcDbEntity
  8
0
100
AcDbLine
 62
7
  6
CONTINUOUS
 10
15.7492919881
 20
10.8690316008
 11
15.7517657399
 21
10.8761029679
  0
LINE
  5
2B0
100
AcDbEntity
  8
0
100
AcDbLine
 62
7
  6
CONTINUOUS
 10
16.3945346026
 20
12.7875392496
 11
16.3973224279
 21
12.7943224169
  0
LINE
  5
2B1
100
AcDbEntity
  8
0
100
AcDbLine
 62
7
  6
CONTINUOUS
 10
16.2735014409
 20
12.3958757948
 11
16.2762892662
 21
12.4026589621
  0
LINE
  5
2B2
100
AcDbEntity
  8
0
100
AcDbLine
 62
7
  6
CONTINUOUS
 10
16.1524682792
 20
12.00421234
 11
16.1552561044
 21
12.0109955073
  0
LWPOLYLINE
  5
2B3
100
AcDbEntity
  8
0
100
AcDbPolyline
 62
7
  6
CONTINUOUS
 90
4
 70
0
 10
16.2358983867
 20
12.4427567872
 10
16.2380880188
 20
12.4479813699
 10
16.2396335263
 20
12.4509690388
 10
16.2399758043
 20
12.4515111603
  0
LWPOLYLINE
  5
2B4
100
AcDbEntity
  8
0
100
AcDbPolyline
 62
7
  6
CONTINUOUS
 90
4
 70
0
 10
16.114865225
 20
12.0510933324
 10
16.1170548571
 20
12.056317915
 10
16.1186003645
 20
12.059305584
 10
16.1189426426
 20
12.0598477054
  0
LWPOLYLINE
  5
2B5
100
AcDbEntity
  8
0
100
AcDbPolyline
 62
7
  6
CONTINUOUS
 90
4
 70
0
 10
15.9938320633
 20
11.6594298776
 10
15.9960216954
 20
11.6646544602
 10
15.9975672028
 20
11.6676421292
 10
15.9979094809
 20
11.6681842506
  0
LWPOLYLINE
  5
2B6
100
AcDbEntity
  8
0
100
AcDbPolyline
 62
7
  6
CONTINUOUS
 90
4
 70
0
 10
15.8727989016
 20
11.2677664228
 10
15.8749885337
 20
11.2729910054
 10
15.8765340411
 20
11.2759786744
 10
15.8768763192
 20
11.2765207958
  0
LWPOLYLINE
  5
2B7
100
AcDbEntity
  8
0
100
AcDbPolyline
 62
7
  6
CONTINUOUS
 90
5
 70
0
 10
16.6106916094
 20
13.5528399783
 10
16.6196080845
 20
13.5544052866
 10
16.6272670024
 20
13.5586941538
 10
16.632866618
 20
13.564568309
 10
16.636600926
 20
13.5708661593
  0
LINE
  5
2B8
100
AcDbEntity
  8
0
100
AcDbLine
 62
7
  6
CONTINUOUS
 10
16.4331332046
 20
12.9314587532
 11
16.4328264317
 21
13.0358172297
  0
LWPOLYLINE
  5
2B9
100
AcDbEntity
  8
0
100
AcDbPolyline
 62
7
  6
CONTINUOUS
 90
7
 70
0
 10
16.4328258868
 20
13.0358407648
 10
16.4329934332
 20
13.0442974471
 10
16.4342381575
 20
13.0615887489
 10
16.4366876721
 20
13.0807753182
 10
16.4401254482
 20
13.0998917821
 10
16.4441526691
 20
13.1170269712
 10
16.4465991255
 20
13.125566142
  0
LINE
  5
2BA
100
AcDbEntity
  8
0
100
AcDbLine
 62
7
  6
CONTINUOUS
 10
16.4328327728
 20
12.9230995007
 11
16.433132892
 21
12.9315146843
  0
LWPOLYLINE
  5
2BB
100
AcDbEntity
  8
0
100
AcDbPolyline
 62
7
  6
CONTINUOUS
 90
3
 70
0
 10
16.4286146203
 20
12.8961455752
 10
16.4312617379
 20
12.909457307
 10
16.4328327728
 20
12.9230995007
  0
LWPOLYLINE
  5
2BC
100
AcDbEntity
  8
0
100
AcDbPolyline
 62
7
  6
CONTINUOUS
 90
3
 70
0
 10
16.549647782
 20
13.28780903
 10
16.5522948996
 20
13.3011207618
 10
16.5538659345
 20
13.3147629555
  0
LWPOLYLINE
  5
2BD
100
AcDbEntity
  8
0
100
AcDbPolyline
 62
7
  6
CONTINUOUS
 90
3
 70
0
 10
16.6706809437
 20
13.6794724848
 10
16.6733280613
 20
13.6927842166
 10
16.6748990962
 20
13.7064264103
  0
LINE
  5
2BE
100
AcDbEntity
  8
0
100
AcDbLine
 62
7
  6
CONTINUOUS
 10
16.0314351175
 20
11.6125488852
 11
16.0342229427
 21
11.6193320525
  0
LINE
  5
2BF
100
AcDbEntity
  8
0
100
AcDbLine
 62
7
  6
CONTINUOUS
 10
15.9104019558
 20
11.2208854304
 11
15.913189781
 21
11.2276685976
  0
LINE
  5
2C0
100
AcDbEntity
  8
0
100
AcDbLine
 62
7
  6
CONTINUOUS
 10
15.7893687941
 20
10.8292219756
 11
15.7921566193
 21
10.8360051428
  0
LWPOLYLINE
  5
2C1
100
AcDbEntity
  8
0
100
AcDbPolyline
 62
7
  6
CONTINUOUS
 90
4
 70
0
 10
15.7517657399
 20
10.8761029679
 10
15.753955372
 20
10.8813275506
 10
15.7555008794
 20
10.8843152196
 10
15.7558431575
 20
10.884857341
  0
LINE
  5
2C2
100
AcDbEntity
  8
0
100
AcDbLine
 62
7
  6
CONTINUOUS
 10
16.5541663663
 20
13.323122208
 11
16.5538595934
 21
13.4274806846
  0
LWPOLYLINE
  5
2C3
100
AcDbEntity
  8
0
100
AcDbPolyline
 62
7
  6
CONTINUOUS
 90
7
 70
0
 10
16.5538590485
 20
13.4275042196
 10
16.5540265949
 20
13.435960902
 10
16.5552713192
 20
13.4532522037
 10
16.5577208338
 20
13.472438773
 10
16.5611586099
 20
13.4915552369
 10
16.5651858308
 20
13.508690426
 10
16.5676322872
 20
13.5172295968
  0
LINE
  5
2C4
100
AcDbEntity
  8
0
100
AcDbLine
 62
7
  6
CONTINUOUS
 10
16.5538659345
 20
13.3147629555
 11
16.5541660537
 21
13.3231781391
  0
LINE
  5
2C5
100
AcDbEntity
  8
0
100
AcDbLine
 62
7
  6
CONTINUOUS
 10
16.7031046157
 20
13.9579051321
 11
16.7027715001
 21
13.9545469694
  0
LINE
  5
2C6
100
AcDbEntity
  8
0
100
AcDbLine
 62
7
  6
CONTINUOUS
 10
16.5786378705
 20
13.5528399234
 11
16.6106916272
 21
13.5528399234
  0
LINE
  5
2C7
100
AcDbEntity
  8
0
100
AcDbLine
 62
7
  6
CONTINUOUS
 10
16.675199528
 20
13.7147856628
 11
16.6748927551
 21
13.8191441394
  0
LWPOLYLINE
  5
2C8
100
AcDbEntity
  8
0
100
AcDbPolyline
 62
7
  6
CONTINUOUS
 90
7
 70
0
 10
16.6748922102
 20
13.8191676744
 10
16.6750597566
 20
13.8276243568
 10
16.6763044809
 20
13.8449156585
 10
16.6787539955
 20
13.8641022278
 10
16.6821917716
 20
13.8832186917
 10
16.6862189925
 20
13.9003538808
 10
16.6886654489
 20
13.9088930516
  0
LINE
  5
2C9
100
AcDbEntity
  8
0
100
AcDbLine
 62
7
  6
CONTINUOUS
 10
16.6748990962
 20
13.7064264103
 11
16.6751992154
 21
13.7148415939
  0
LINE
  5
2CA
100
AcDbEntity
  8
0
100
AcDbLine
 62
7
  6
CONTINUOUS
 10
16.7031046157
 20
13.9579051321
 11
16.6894655156
 21
14.1034678417
  0
LINE
  5
2CB
100
AcDbEntity
  8
0
100
AcDbLine
 62
7
  6
CONTINUOUS
 10
16.6171204006
 20
14.2103640285
 11
15.2240156472
 21
14.2103640285
  0
LINE
  5
2CC
100
AcDbEntity
  8
0
100
AcDbLine
 62
7
  6
CONTINUOUS
 10
16.6847088903
 20
14.1195562916
 11
16.6477729721
 21
14.1948237793
  0
ARC
  5
2CD
100
AcDbEntity
  8
0
100
AcDbCircle
 62
7
  6
CONTINUOUS
 10
5.4394186324
 20
5.4389532301
 40
0.025
100
AcDbArc
 50
195.0
 51
270.0
  0
ARC
  5
2CE
100
AcDbEntity
  8
0
100
AcDbCircle
 62
7
  6
CONTINUOUS
 10
5.4963131749
 20
5.2266199065
 40
0.025
100
AcDbArc
 50
195.0000231359
 51
270.000005988
  0
ARC
  5
2CF
100
AcDbEntity
  8
0
100
AcDbCircle
 62
7
  6
CONTINUOUS
 10
5.4491172762
 20
5.6925351465
 40
0.1
100
AcDbArc
 50
180.0
 51
195.0
  0
ARC
  5
2D0
100
AcDbEntity
  8
0
100
AcDbCircle
 62
7
  6
CONTINUOUS
 10
5.3741172762
 20
5.8136198968
 40
0.025
100
AcDbArc
 50
90.0
 51
180.0
  0
ARC
  5
2D1
100
AcDbEntity
  8
0
100
AcDbCircle
 62
7
  6
CONTINUOUS
 10
6.7644213748
 20
5.2266198968
 40
0.025
100
AcDbArc
 50
270.0
 51
345.0
  0
ARC
  5
2D2
100
AcDbEntity
  8
0
100
AcDbCircle
 62
7
  6
CONTINUOUS
 10
6.82131592
 20
5.4389532301
 40
0.025
100
AcDbArc
 50
270.0
 51
345.0
  0
ARC
  5
2D3
100
AcDbEntity
  8
0
100
AcDbCircle
 62
7
  6
CONTINUOUS
 10
6.8116172762
 20
5.6925351465
 40
0.1
100
AcDbArc
 50
345.0
 51
360.0
  0
ARC
  5
2D4
100
AcDbEntity
  8
0
100
AcDbCircle
 62
7
  6
CONTINUOUS
 10
6.8866172762
 20
5.8136198968
 40
0.025
100
AcDbArc
 50
0.0
 51
90.0
  0
ARC
  5
2D5
100
AcDbEntity
  8
0
100
AcDbCircle
 62
7
  6
CONTINUOUS
 10
13.7520901531
 20
5.1952080378
 40
0.0530833333
100
AcDbArc
 50
193.0
 51
270.0
  0
ARC
  5
2D6
100
AcDbEntity
  8
0
100
AcDbCircle
 62
7
  6
CONTINUOUS
 10
13.8686203607
 20
5.1952080378
 40
0.0530833333
100
AcDbArc
 50
270.0
 51
347.0
  0
ARC
  5
2D7
100
AcDbEntity
  8
0
100
AcDbCircle
 62
7
  6
CONTINUOUS
 10
14.2520901531
 20
5.1952080378
 40
0.0530833333
100
AcDbArc
 50
193.0
 51
270.0
  0
ARC
  5
2D8
100
AcDbEntity
  8
0
100
AcDbCircle
 62
7
  6
CONTINUOUS
 10
14.3686203607
 20
5.1952080378
 40
0.0530833333
100
AcDbArc
 50
270.0
 51
347.0
  0
ARC
  5
2D9
100
AcDbEntity
  8
0
100
AcDbCircle
 62
7
  6
CONTINUOUS
 10
14.7520901531
 20
5.1952080378
 40
0.0530833333
100
AcDbArc
 50
193.0
 51
270.0
  0
ARC
  5
2DA
100
AcDbEntity
  8
0
100
AcDbCircle
 62
7
  6
CONTINUOUS
 10
14.8686203607
 20
5.1952080378
 40
0.0530833333
100
AcDbArc
 50
270.0
 51
347.0
  0
ARC
  5
2DB
100
AcDbEntity
  8
0
100
AcDbCircle
 62
7
  6
CONTINUOUS
 10
15.2520901531
 20
5.1952080378
 40
0.0530833333
100
AcDbArc
 50
193.0
 51
270.0
  0
ARC
  5
2DC
100
AcDbEntity
  8
0
100
AcDbCircle
 62
7
  6
CONTINUOUS
 10
15.3686203607
 20
5.1952080378
 40
0.0530833333
100
AcDbArc
 50
270.0
 51
347.0
  0
ARC
  5
2DD
100
AcDbEntity
  8
0
100
AcDbCircle
 62
7
  6
CONTINUOUS
 10
13.6186203607
 20
5.3013747044
 40
0.0530833333
100
AcDbArc
 50
13.0
 51
90.0
  0
ARC
  5
2DE
100
AcDbEntity
  8
0
100
AcDbCircle
 62
7
  6
CONTINUOUS
 10
14.0020901531
 20
5.3013747044
 40
0.0530833333
100
AcDbArc
 50
90.0
 51
167.0
  0
ARC
  5
2DF
100
AcDbEntity
  8
0
100
AcDbCircle
 62
7
  6
CONTINUOUS
 10
14.1186203607
 20
5.3013747044
 40
0.0530833333
100
AcDbArc
 50
13.0
 51
90.0
  0
ARC
  5
2E0
100
AcDbEntity
  8
0
100
AcDbCircle
 62
7
  6
CONTINUOUS
 10
14.5020901531
 20
5.3013747044
 40
0.0530833333
100
AcDbArc
 50
90.0
 51
167.0
  0
ARC
  5
2E1
100
AcDbEntity
  8
0
100
AcDbCircle
 62
7
  6
CONTINUOUS
 10
14.6186203607
 20
5.3013747044
 40
0.0530833333
100
AcDbArc
 50
13.0
 51
90.0
  0
ARC
  5
2E2
100
AcDbEntity
  8
0
100
AcDbCircle
 62
7
  6
CONTINUOUS
 10
15.0020901531
 20
5.3013747044
 40
0.0530833333
100
AcDbArc
 50
90.0
 51
167.0
  0
ARC
  5
2E3
100
AcDbEntity
  8
0
100
AcDbCircle
 62
7
  6
CONTINUOUS
 10
15.1186203607
 20
5.3013747044
 40
0.0530833333
100
AcDbArc
 50
13.0
 51
90.0
  0
ARC
  5
2E4
100
AcDbEntity
  8
0
100
AcDbCircle
 62
7
  6
CONTINUOUS
 10
15.5020901531
 20
5.3013747044
 40
0.0530833333
100
AcDbArc
 50
90.0
 51
167.0
  0
ARC
  5
2E5
100
AcDbEntity
  8
0
100
AcDbCircle
 62
7
  6
CONTINUOUS
 10
17.3686203607
 20
5.1952080378
 40
0.0530833333
100
AcDbArc
 50
270.0
 51
347.0
  0
ARC
  5
2E6
100
AcDbEntity
  8
0
100
AcDbCircle
 62
7
  6
CONTINUOUS
 10
17.2520901531
 20
5.1952080378
 40
0.0530833333
100
AcDbArc
 50
193.0
 51
270.0
  0
ARC
  5
2E7
100
AcDbEntity
  8
0
100
AcDbCircle
 62
7
  6
CONTINUOUS
 10
16.8686203607
 20
5.1952080378
 40
0.0530833333
100
AcDbArc
 50
270.0
 51
347.0
  0
ARC
  5
2E8
100
AcDbEntity
  8
0
100
AcDbCircle
 62
7
  6
CONTINUOUS
 10
16.7520901531
 20
5.1952080378
 40
0.0530833333
100
AcDbArc
 50
193.0
 51
270.0
  0
ARC
  5
2E9
100
AcDbEntity
  8
0
100
AcDbCircle
 62
7
  6
CONTINUOUS
 10
16.3686203607
 20
5.1952080378
 40
0.0530833333
100
AcDbArc
 50
270.0
 51
347.0
  0
ARC
  5
2EA
100
AcDbEntity
  8
0
100
AcDbCircle
 62
7
  6
CONTINUOUS
 10
16.2520901531
 20
5.1952080378
 40
0.0530833333
100
AcDbArc
 50
193.0
 51
270.0
  0
ARC
  5
2EB
100
AcDbEntity
  8
0
100
AcDbCircle
 62
7
  6
CONTINUOUS
 10
15.8686203607
 20
5.1952080378
 40
0.0530833333
100
AcDbArc
 50
270.0
 51
347.0
  0
ARC
  5
2EC
100
AcDbEntity
  8
0
100
AcDbCircle
 62
7
  6
CONTINUOUS
 10
15.7520901531
 20
5.1952080378
 40
0.0530833333
100
AcDbArc
 50
193.0
 51
270.0
  0
ARC
  5
2ED
100
AcDbEntity
  8
0
100
AcDbCircle
 62
7
  6
CONTINUOUS
 10
17.5020901531
 20
5.3013747044
 40
0.0530833333
100
AcDbArc
 50
90.0
 51
167.0
  0
ARC
  5
2EE
100
AcDbEntity
  8
0
100
AcDbCircle
 62
7
  6
CONTINUOUS
 10
17.1186203607
 20
5.3013747044
 40
0.0530833333
100
AcDbArc
 50
13.0
 51
90.0
  0
ARC
  5
2EF
100
AcDbEntity
  8
0
100
AcDbCircle
 62
7
  6
CONTINUOUS
 10
17.0020901531
 20
5.3013747044
 40
0.0530833333
100
AcDbArc
 50
90.0
 51
167.0
  0
ARC
  5
2F0
100
AcDbEntity
  8
0
100
AcDbCircle
 62
7
  6
CONTINUOUS
 10
16.6186203607
 20
5.3013747044
 40
0.0530833333
100
AcDbArc
 50
13.0
 51
90.0
  0
ARC
  5
2F1
100
AcDbEntity
  8
0
100
AcDbCircle
 62
7
  6
CONTINUOUS
 10
16.5020901531
 20
5.3013747044
 40
0.0530833333
100
AcDbArc
 50
90.0
 51
167.0
  0
ARC
  5
2F2
100
AcDbEntity
  8
0
100
AcDbCircle
 62
7
  6
CONTINUOUS
 10
16.1186203607
 20
5.3013747044
 40
0.0530833333
100
AcDbArc
 50
13.0
 51
90.0
  0
ARC
  5
2F3
100
AcDbEntity
  8
0
100
AcDbCircle
 62
7
  6
CONTINUOUS
 10
16.0020901531
 20
5.3013747044
 40
0.0530833333
100
AcDbArc
 50
90.0
 51
167.0
  0
ARC
  5
2F4
100
AcDbEntity
  8
0
100
AcDbCircle
 62
7
  6
CONTINUOUS
 10
15.6186203607
 20
5.3013747044
 40
0.0530833333
100
AcDbArc
 50
13.0
 51
90.0
  0
SPLINE
  5
2F5
100
AcDbEntity
  8
0
100
AcDbSpline
 62
7
  6
CONTINUOUS
 70
0
 71
3
 72
15
 73
11
 74
0
 42
0.0000001
 43
0.0000001
 44
0.0000000001
 40
0.0
 40
0.0
 40
0.0
 40
0.0
 40
0.129568659
 40
0.2645758871
 40
0.4012660356
 40
0.5362716778
 40
0.6662156899
 40
0.7881008774
 40
0.8998142206
 40
1.0
 40
1.0
 40
1.0
 40
1.0
 10
16.6171204006
 20
14.2103640285
 30
0.0
 10
16.6186686608
 20
14.2103640285
 30
0.0
 10
16.6218326149
 20
14.2101487973
 30
0.0
 10
16.6265551313
 20
14.2092649094
 30
0.0
 10
16.6312114367
 20
14.207837456
 30
0.0
 10
16.6356232997
 20
14.2059221359
 30
0.0
 10
16.6396294871
 20
14.2035934545
 30
0.0
 10
16.6430815705
 20
14.2009321243
 30
0.0
 10
16.6458474194
 20
14.1980360745
 30
0.0
 10
16.6472455746
 20
14.1958985025
 30
0.0
 10
16.6477729721
 20
14.1948237793
 30
0.0
  0
SPLINE
  5
2F6
100
AcDbEntity
  8
0
100
AcDbSpline
 62
7
  6
CONTINUOUS
 70
0
 71
3
 72
15
 73
11
 74
0
 42
0.0000001
 43
0.0000001
 44
0.0000000001
 40
0.0
 40
0.0
 40
0.0
 40
0.0
 40
0.0996459436
 40
0.2028719192
 40
0.3125942194
 40
0.4308569919
 40
0.5588149066
 40
0.6968310383
 40
0.8443982916
 40
1.0
 40
1.0
 40
1.0
 40
1.0
 10
15.2077561553
 20
14.2022049724
 30
0.0
 10
15.2079462705
 20
14.2028202128
 30
0.0
 10
15.2084849111
 20
14.2040311547
 30
0.0
 10
15.2097159003
 20
14.2056520984
 30
0.0
 10
15.2113392862
 20
14.2070672658
 30
0.0
 10
15.2133234477
 20
14.2082513259
 30
0.0
 10
15.2156309884
 20
14.2091899576
 30
0.0
 10
15.2182226042
 20
14.2098686809
 30
0.0
 10
15.2210494824
 20
14.2102763444
 30
0.0
 10
15.2230100982
 20
14.2103640285
 30
0.0
 10
15.2240156472
 20
14.2103640285
 30
0.0
  0
SPLINE
  5
2F7
100
AcDbEntity
  8
0
100
AcDbSpline
 62
7
  6
CONTINUOUS
 70
0
 71
3
 72
11
 73
7
 74
0
 42
0.0000001
 43
0.0000001
 44
0.0000000001
 40
0.0
 40
0.0
 40
0.0
 40
0.0
 40
0.2336941418
 40
0.4747277799
 40
0.7289543945
 40
1.0
 40
1.0
 40
1.0
 40
1.0
 10
14.2394908616
 20
11.0688973339
 30
0.0
 10
14.239316007
 20
11.0683314789
 30
0.0
 10
14.2390856959
 20
11.0671393317
 30
0.0
 10
14.2391279903
 20
11.0652800537
 30
0.0
 10
14.2395457964
 20
11.0633728777
 30
0.0
 10
14.2400472597
 20
11.0621328066
 30
0.0
 10
14.2403498753
 20
11.0615161408
 30
0.0
  0
SPLINE
  5
2F8
100
AcDbEntity
  8
0
100
AcDbSpline
 62
7
  6
CONTINUOUS
 70
0
 71
3
 72
9
 73
5
 74
0
 42
0.0000001
 43
0.0000001
 44
0.0000000001
 40
0.0
 40
0.0
 40
0.0
 40
0.0
 40
0.5176005211
 40
1.0
 40
1.0
 40
1.0
 40
1.0
 10
16.6847088903
 20
14.1195562916
 30
0.0
 10
16.6859893331
 20
14.1169470236
 30
0.0
 10
16.688091079
 20
14.1117090888
 30
0.0
 10
16.689212806
 20
14.106164874
 30
0.0
 10
16.6894655156
 20
14.1034678417
 30
0.0
  0
SPLINE
  5
2F9
100
AcDbEntity
  8
0
100
AcDbSpline
 62
7
  6
CONTINUOUS
 70
0
 71
3
 72
14
 73
10
 74
0
 42
0.0000001
 43
0.0000001
 44
0.0000000001
 40
0.0
 40
0.0
 40
0.0
 40
0.0
 40
0.155629489
 40
0.3032648598
 40
0.5688236205
 40
0.6871315221
 40
0.7968672911
 40
0.9001625821
 40
1.0
 40
1.0
 40
1.0
 40
1.0
 10
15.7182496876
 20
10.8130793568
 30
0.0
 10
15.7192548393
 20
10.8130793568
 30
0.0
 10
15.7212158271
 20
10.8131671718
 30
0.0
 10
15.7248536773
 20
10.8136918586
 30
0.0
 10
15.7281742756
 20
10.8147359443
 30
0.0
 10
15.7309245109
 20
10.8163745753
 30
0.0
 10
15.7325483557
 20
10.8177889264
 30
0.0
 10
15.7337797872
 20
10.8194103485
 30
0.0
 10
15.7343180975
 20
10.8206225635
 30
0.0
 10
15.7345079656
 20
10.8212387879
 30
0.0
  0
SPLINE
  5
2FA
100
AcDbEntity
  8
0
100
AcDbSpline
 62
7
  6
CONTINUOUS
 70
0
 71
3
 72
15
 73
11
 74
0
 42
0.0000001
 43
0.0000001
 44
0.0000000001
 40
0.0
 40
0.0
 40
0.0
 40
0.0
 40
0.1102071131
 40
0.2287224013
 40
0.3536318298
 40
0.4829519665
 40
0.6145657672
 40
0.7462247198
 40
0.875586793
 40
1.0
 40
1.0
 40
1.0
 40
1.0
 10
14.4175438027
 20
10.8245974936
 30
0.0
 10
14.4182991365
 20
10.8237466609
 30
0.0
 10
14.4200017598
 20
10.8220985395
 30
0.0
 10
14.4229191258
 20
10.8198915884
 30
0.0
 10
14.4262302001
 20
10.8179168069
 30
0.0
 10
14.4298419649
 20
10.8162224968
 30
0.0
 10
14.4336634018
 20
10.814854694
 30
0.0
 10
14.4375954892
 20
10.8138456515
 30
0.0
 10
14.4415322664
 20
10.8132283696
 30
0.0
 10
14.4441536029
 20
10.8130793568
 30
0.0
 10
14.4454379983
 20
10.8130793568
 30
0.0
  0
SPLINE
  5
2FB
100
AcDbEntity
  8
0
100
AcDbSpline
 62
7
  6
CONTINUOUS
 70
0
 71
3
 72
9
 73
5
 74
0
 42
0.0000001
 43
0.0000001
 44
0.0000000001
 40
0.0
 40
0.0
 40
0.0
 40
0.0
 40
0.481356816
 40
1.0
 40
1.0
 40
1.0
 40
1.0
 10
14.2772857936
 20
10.986248653
 30
0.0
 10
14.2786678778
 20
10.9834322616
 30
0.0
 10
14.2820149031
 20
10.9778089149
 30
0.0
 10
14.2860751824
 20
10.9726880475
 30
0.0
 10
14.2883192973
 20
10.9701602032
 30
0.0
  0
SPLINE
  5
2FC
100
AcDbEntity
  8
0
100
AcDbSpline
 62
7
  6
CONTINUOUS
 70
0
 71
3
 72
15
 73
11
 74
0
 42
0.0000001
 43
0.0000001
 44
0.0000000001
 40
0.0
 40
0.0
 40
0.0
 40
0.0
 40
0.1001857794
 40
0.2118991226
 40
0.3337843101
 40
0.4637283222
 40
0.5987339644
 40
0.7354241129
 40
0.870431341
 40
1.0
 40
1.0
 40
1.0
 40
1.0
 10
15.6795076785
 20
11.0615161408
 30
0.0
 10
15.678980281
 20
11.0625908639
 30
0.0
 10
15.6775821258
 20
11.064728436
 30
0.0
 10
15.6748162768
 20
11.0676244858
 30
0.0
 10
15.6713641935
 20
11.0702858159
 30
0.0
 10
15.6673580061
 20
11.0726144974
 30
0.0
 10
15.662946143
 20
11.0745298175
 30
0.0
 10
15.6582898377
 20
11.0759572709
 30
0.0
 10
15.6535673213
 20
11.0768411588
 30
0.0
 10
15.6504033671
 20
11.07705639
 30
0.0
 10
15.648855107
 20
11.07705639
 30
0.0
  0
SPLINE
  5
2FD
100
AcDbEntity
  8
0
100
AcDbSpline
 62
7
  6
CONTINUOUS
 70
0
 71
3
 72
15
 73
11
 74
0
 42
0.0000001
 43
0.0000001
 44
0.0000000001
 40
0.0
 40
0.0
 40
0.0
 40
0.0
 40
0.1556017084
 40
0.3031689617
 40
0.4411850934
 40
0.5691430081
 40
0.6874057806
 40
0.7971280808
 40
0.9003540564
 40
1.0
 40
1.0
 40
1.0
 40
1.0
 10
14.2557503535
 20
11.07705639
 30
0.0
 10
14.2547448046
 20
11.07705639
 30
0.0
 10
14.2527841888
 20
11.0769687059
 30
0.0
 10
14.2499573106
 20
11.0765610424
 30
0.0
 10
14.2473656948
 20
11.0758823191
 30
0.0
 10
14.2450581541
 20
11.0749436874
 30
0.0
 10
14.2430739926
 20
11.0737596273
 30
0.0
 10
14.2414506067
 20
11.0723444599
 30
0.0
 10
14.2402196175
 20
11.0707235162
 30
0.0
 10
14.2396809768
 20
11.0695125743
 30
0.0
 10
14.2394908616
 20
11.0688973339
 30
0.0
  0
SPLINE
  5
2FE
100
AcDbEntity
  8
0
100
AcDbSpline
 62
7
  6
CONTINUOUS
 70
0
 71
3
 72
9
 73
5
 74
0
 42
0.0000001
 43
0.0000001
 44
0.0000000001
 40
0.0
 40
0.0
 40
0.0
 40
0.0
 40
0.4823994789
 40
1.0
 40
1.0
 40
1.0
 40
1.0
 10
15.7212002219
 20
10.9701602032
 30
0.0
 10
15.7209475123
 20
10.9728572355
 30
0.0
 10
15.7198257854
 20
10.9784014502
 30
0.0
 10
15.7177240395
 20
10.9836393851
 30
0.0
 10
15.7164435967
 20
10.986248653
 30
0.0
  0
ENDSEC
  0
SECTION
  2
OBJECTS
  0
DICTIONARY
  5
C
100
AcDbDictionary
280
0
281
1
  3
ACAD_GROUP
350
D
  3
ACAD_MLINESTYLE
350
17
  3
ACAD_LAYOUT
350
1A
  3
ACAD_PLOTSETTINGS
350
19
  3
ACAD_PLOTSTYLENAME
350
E
  0
DICTIONARY
  5
D
102
{ACAD_REACTORS
330
C
102
}
100
AcDbDictionary
280
0
281
1
  0
ACDBDICTIONARYWDFLT
  5
E
102
{ACAD_REACTORS
330
C
102
}
100
AcDbDictionary
281
1
  3
Normal
350
F
100
AcDbDictionaryWithDefault
340
F
  0
DICTIONARY
  5
17
102
{ACAD_REACTORS
330
C
102
}
100
AcDbDictionary
280
0
281
1
  3
Standard
350
18
  0
DICTIONARY
  5
19
102
{ACAD_REACTORS
330
C
102
}
100
AcDbDictionary
281
1
  0
DICTIONARY
  5
1A
102
{ACAD_REACTORS
330
C
102
}
100
AcDbDictionary
281
1
  3
Model
350
2FF
  3
Layout1
350
300
  0
ACDBPLACEHOLDER
  5
F
102
{ACAD_REACTORS
330
E
102
}
  0
MLINESTYLE
  5
18
102
{ACAD_REACTORS
330
17
102
}
100
AcDbMlineStyle
  2
STANDARD
 70
0
  3

 62
256
 51
90.0
 52
90.0
 71
2
 49
0.5
 62
256
  6
BYLAYER
 49
-0.5
 62
256
  6
BYLAYER
  0
LAYOUT
  5
2FF
102
{ACAD_REACTORS
330
1A
102
}
100
AcDbPlotSettings
  1

  2
none_device
  4
ANSI_C_(22.00_x_17.00_Inches)
  6

 40
0.0
 41
0.0
 42
0.0
 43
0.0
 44
558.8
 45
431.8
 46
0.0
 47
0.0
 48
0.0
 49
0.0
140
0.0
141
0.0
142
1.0
143
1.0
 70
1024
 72
0
 73
0
 74
0
  7

 75
0
147
1.0
148
0.0
149
0.0
100
AcDbLayout
  1
Model
 70
0
 71
0
 10
0.0
 20
0.0
 11
22.0
 21
17.0
 12
0.0
 22
0.0
 32
0.0
 14
0.0
 24
0.0
 34
0.0
 15
0.0
 25
0.0
 35
0.0
146
0.0
 13
0.0
 23
0.0
 33
0.0
 16
1.0
 26
0.0
 36
0.0
 17
0.0
 27
1.0
 37
0.0
 76
0
330
216
345
0
346
0
  0
LAYOUT
  5
300
102
{ACAD_REACTORS
330
1A
102
}
100
AcDbPlotSettings
  1

  2
none_device
  4
ANSI_C_(22.00_x_17.00_Inches)
  6

 40
0.0
 41
0.0
 42
0.0
 43
0.0
 44
558.8
 45
431.8
 46
0.0
 47
0.0
 48
0.0
 49
0.0
140
0.0
141
0.0
142
1.0
143
1.0
 70
0
 72
0
 73
0
 74
0
  7

 75
0
147
1.0
148
0.0
149
0.0
100
AcDbLayout
  1
Layout1
 70
0
 71
1
 10
0.0
 20
0.0
 11
22.0
 21
17.0
 12
0.0
 22
0.0
 32
0.0
 14
0.0
 24
0.0
 34
0.0
 15
0.0
 25
0.0
 35
0.0
146
0.0
 13
0.0
 23
0.0
 33
0.0
 16
1.0
 26
0.0
 36
0.0
 17
0.0
 27
1.0
 37
0.0
 76
0
330
217
345
0
346
0
  0
ENDSEC
  0
EOF